ISO-10303-21;
HEADER;
FILE_DESCRIPTION (( 'STEP AP203' ),
    '1' );
FILE_NAME ('111-0555E BK7 bi-cx 50.8 F1500.STEP',
    '2019-06-10T05:56:18',
    ( '' ),
    ( '' ),
    'SwSTEP 2.0',
    'SolidWorks 2019',
    '' );
FILE_SCHEMA (( 'CONFIG_CONTROL_DESIGN' ));
ENDSEC;

DATA;
#1 = CARTESIAN_POINT ( 'NONE',  ( 8.516777457072278068, 25.70477239897488175, 4.787530396329335858 ) ) ;
#2 = LOCAL_TIME ( 8, 56, 18.00000000000000000, #225 ) ;
#3 = APPROVAL_DATE_TIME ( #256, #241 ) ;
#4 = CARTESIAN_POINT ( 'NONE',  ( 25.39999999999999858, 4.884981308350691144E-15, 4.792539215441440348 ) ) ;
#5 = DIRECTION ( 'NONE',  ( 1.000000000000000000, 0.0000000000000000000, 0.0000000000000000000 ) ) ;
#6 = CARTESIAN_POINT ( 'NONE',  ( 17.03637107046726484, 8.569038028005826035, -0.0008389814797452085481 ) ) ;
#7 = AXIS2_PLACEMENT_3D ( 'NONE', #287, #58, #76 ) ;
#8 =( GEOMETRIC_REPRESENTATION_CONTEXT ( 3 ) GLOBAL_UNCERTAINTY_ASSIGNED_CONTEXT ( ( #223 ) ) GLOBAL_UNIT_ASSIGNED_CONTEXT ( ( #83, #43, #127 ) ) REPRESENTATION_CONTEXT ( 'NONE', 'WORKASPACE' ) );
#9 = CARTESIAN_POINT ( 'NONE',  ( -25.55355022361128903, -8.569038028002646357, 4.860862363300110012 ) ) ;
#10 = CARTESIAN_POINT ( 'NONE',  ( -8.516777457072278068, -25.70477239898367117, 0.2124696036707814650 ) ) ;
#11 = CARTESIAN_POINT ( 'NONE',  ( 25.54889493611585038, -25.70477239898366761, 0.4223986421714487349 ) ) ;
#12 = CARTESIAN_POINT ( 'NONE',  ( -17.03637107046664312, -8.569038028005737218, -0.0008389814797847821443 ) ) ;
#13 = PERSON_AND_ORGANIZATION_ROLE ( 'design_supplier' ) ;
#14 = ORIENTED_EDGE ( 'NONE', *, *, #24, .T. ) ;
#15 = COORDINATED_UNIVERSAL_TIME_OFFSET ( 2, 0, .AHEAD. ) ;
#16 = ORIENTED_EDGE ( 'NONE', *, *, #202, .F. ) ;
#17 = DIRECTION ( 'NONE',  ( -0.0000000000000000000, -0.0000000000000000000, -1.000000000000000000 ) ) ;
#18 = ORIENTED_EDGE ( 'NONE', *, *, #24, .F. ) ;
#19 = CARTESIAN_POINT ( 'NONE',  ( -17.03326742324275145, 25.70477239898375998, 0.2824475246128893557 ) ) ;
#20 = CARTESIAN_POINT ( 'NONE',  ( 25.54889493611553419, 25.70477239897487820, 4.577601357828697815 ) ) ;
#21 = CARTESIAN_POINT ( 'NONE',  ( 9.992007221626412808E-16, 4.884981308350691144E-15, 0.2074607845585640375 ) ) ;
#22 = CIRCLE ( 'NONE', #177, 25.39999999999999858 ) ;
#23 = APPROVAL ( #168, 'UNSPECIFIED' ) ;
#24 = EDGE_CURVE ( 'NONE', #53, #82, #211, .T. ) ;
#25 = CARTESIAN_POINT ( 'NONE',  ( 8.108955359171942972E-13, -25.39999999999918145, 0.2074607845585707266 ) ) ;
#26 = AXIS2_PLACEMENT_3D ( 'NONE', #105, #232, #204 ) ;
#27 = CC_DESIGN_APPROVAL ( #241, ( #195 ) ) ;
#28 = CARTESIAN_POINT ( 'NONE',  ( 8.518329306877141960, 8.569038028005826035, -0.07082965316288029889 ) ) ;
#29 = CC_DESIGN_DATE_AND_TIME_ASSIGNMENT ( #292, #65, ( #179 ) ) ;
#30 = CIRCLE ( 'NONE', #252, 1555.000000000000000 ) ;
#31 = CARTESIAN_POINT ( 'NONE',  ( -25.55355022361128903, 8.569038028002934126, 4.860862363300110900 ) ) ;
#32 = LINE ( 'NONE', #77, #62 ) ;
#33 = CARTESIAN_POINT ( 'NONE',  ( -25.54889493611585038, 25.70477239897487820, 4.577601357828667616 ) ) ;
#34 = FACE_OUTER_BOUND ( 'NONE', #146, .T. ) ;
#35 = EDGE_LOOP ( 'NONE', ( #18, #193, #142, #123, #162, #128 ) ) ;
#36 = PERSON_AND_ORGANIZATION ( #244, #45 ) ;
#37 = CARTESIAN_POINT ( 'NONE',  ( 3.410605131648479882E-13, 1.136868377216160045E-13, 1555.000000000000000 ) ) ;
#38 = PRODUCT_DEFINITION_FORMATION_WITH_SPECIFIED_SOURCE ( 'ANY', '', #203, .NOT_KNOWN. ) ;
#39 = ORIENTED_EDGE ( 'NONE', *, *, #86, .F. ) ;
#40 = DATE_AND_TIME ( #240, #197 ) ;
#41 = EDGE_CURVE ( 'NONE', #82, #188, #22, .T. ) ;
#42 = ORIENTED_EDGE ( 'NONE', *, *, #41, .T. ) ;
#43 =( NAMED_UNIT ( * ) PLANE_ANGLE_UNIT ( ) SI_UNIT ( $, .RADIAN. ) );
#44 = CARTESIAN_POINT ( 'NONE',  ( 17.03637107046664312, 8.569038028002930574, 5.000838981479701850 ) ) ;
#45 = ORGANIZATION ( 'UNSPECIFIED', 'UNSPECIFIED', '' ) ;
#46 = CARTESIAN_POINT ( 'NONE',  ( -4.267419750902945452E-13, 25.70477239897487820, 4.787530396329334081 ) ) ;
#47 =( BOUNDED_SURFACE ( )  B_SPLINE_SURFACE ( 3, 3, ( 
 ( #210, #166, #10, #61 ),
 ( #120, #12, #237, #231 ),
 ( #118, #165, #264, #207 ),
 ( #234, #19, #272, #147 ) ),
 .UNSPECIFIED., .F., .F., .F. ) 
 B_SPLINE_SURFACE_WITH_KNOTS ( ( 4, 4 ),
 ( 4, 4 ),
 ( 0.0000000000000000000, 1.000000000000000000 ),
 ( 0.0000000000000000000, 1.000000000000000000 ),
 .UNSPECIFIED. ) 
 GEOMETRIC_REPRESENTATION_ITEM ( )  RATIONAL_B_SPLINE_SURFACE ( (
 ( 1.000000000000000000, 0.9999774961125318384, 0.9999774961125318384, 1.000000000000000000),
 ( 0.9999089090659503132, 0.9998864072283822901, 0.9998864072283822901, 0.9999089090659503132),
 ( 0.9999089090659503132, 0.9998864072283822901, 0.9998864072283822901, 0.9999089090659503132),
 ( 1.000000000000000000, 0.9999774961125318384, 0.9999774961125318384, 1.000000000000000000) ) ) 
 REPRESENTATION_ITEM ( '' )  SURFACE ( )  );
#48 = EDGE_CURVE ( 'NONE', #144, #82, #30, .T. ) ;
#49 = PERSON_AND_ORGANIZATION_ROLE ( 'creator' ) ;
#50 = CARTESIAN_POINT ( 'NONE',  ( 9.992007221626412808E-16, 4.884981308350691144E-15, 4.792539215441440348 ) ) ;
#51 = CARTESIAN_POINT ( 'NONE',  ( 0.0000000000000000000, 0.0000000000000000000, 0.0000000000000000000 ) ) ;
#52 = CARTESIAN_POINT ( 'NONE',  ( 8.108955359171942972E-13, 25.39999999999929869, 0.2074607845585707266 ) ) ;
#53 = VERTEX_POINT ( 'NONE', #215 ) ;
#54 = EDGE_CURVE ( 'NONE', #66, #269, #113, .T. ) ;
#55 = AXIS2_PLACEMENT_3D ( 'NONE', #50, #159, #199 ) ;
#56 = CC_DESIGN_PERSON_AND_ORGANIZATION_ASSIGNMENT ( #279, #49, ( #195 ) ) ;
#57 = CARTESIAN_POINT ( 'NONE',  ( -17.03326742324337673, 25.70477239897488175, 4.717552475387189581 ) ) ;
#58 = DIRECTION ( 'NONE',  ( -0.0000000000000000000, -0.0000000000000000000, -1.000000000000000000 ) ) ;
#59 = CARTESIAN_POINT ( 'NONE',  ( 9.992007221626412808E-16, 4.884981308350691144E-15, 0.2074607845585640375 ) ) ;
#60 = ORIENTED_EDGE ( 'NONE', *, *, #48, .T. ) ;
#61 = CARTESIAN_POINT ( 'NONE',  ( 4.267419750902945452E-13, -25.70477239898366761, 0.2124696036707819091 ) ) ;
#62 = VECTOR ( 'NONE', #186, 1000.000000000000000 ) ;
#63 = COORDINATED_UNIVERSAL_TIME_OFFSET ( 2, 0, .AHEAD. ) ;
#64 = EDGE_LOOP ( 'NONE', ( #167, #101, #246 ) ) ;
#65 = DATE_TIME_ROLE ( 'classification_date' ) ;
#66 = VERTEX_POINT ( 'NONE', #284 ) ;
#67 = CARTESIAN_POINT ( 'NONE',  ( -4.267419750902945452E-13, -25.70477239897459043, 4.787530396329334081 ) ) ;
#68 =( BOUNDED_SURFACE ( )  B_SPLINE_SURFACE ( 3, 3, ( 
 ( #75, #138, #164, #233 ),
 ( #230, #117, #263, #9 ),
 ( #288, #185, #96, #31 ),
 ( #286, #209, #57, #33 ) ),
 .UNSPECIFIED., .F., .F., .F. ) 
 B_SPLINE_SURFACE_WITH_KNOTS ( ( 4, 4 ),
 ( 4, 4 ),
 ( 0.0000000000000000000, 1.000000000000000000 ),
 ( 0.0000000000000000000, 1.000000000000000000 ),
 .UNSPECIFIED. ) 
 GEOMETRIC_REPRESENTATION_ITEM ( )  RATIONAL_B_SPLINE_SURFACE ( (
 ( 1.000000000000000000, 0.9999774961125318384, 0.9999774961125318384, 1.000000000000000000),
 ( 0.9999089090659503132, 0.9998864072283822901, 0.9998864072283822901, 0.9999089090659503132),
 ( 0.9999089090659503132, 0.9998864072283822901, 0.9998864072283822901, 0.9999089090659503132),
 ( 1.000000000000000000, 0.9999774961125318384, 0.9999774961125318384, 1.000000000000000000) ) ) 
 REPRESENTATION_ITEM ( '' )  SURFACE ( )  );
#69 = CARTESIAN_POINT ( 'NONE',  ( 8.516777457072278068, -25.70477239897459398, 4.787530396329335858 ) ) ;
#70 = CIRCLE ( 'NONE', #79, 25.39999999999999858 ) ;
#71 = CARTESIAN_POINT ( 'NONE',  ( 9.992007221626412808E-16, 4.884981308350691144E-15, 0.2074607845585640375 ) ) ;
#72 = LOCAL_TIME ( 8, 56, 18.00000000000000000, #15 ) ;
#73 = CARTESIAN_POINT ( 'NONE',  ( 8.108940223270643935E-13, 25.70477239898375643, 0.2124696036707174329 ) ) ;
#74 = ADVANCED_FACE ( 'NONE', ( #139 ), #132, .T. ) ;
#75 = CARTESIAN_POINT ( 'NONE',  ( -8.108940223270644944E-13, -25.70477239897459043, 4.787530396329398030 ) ) ;
#76 = DIRECTION ( 'NONE',  ( 1.000000000000000000, 0.0000000000000000000, 0.0000000000000000000 ) ) ;
#77 = CARTESIAN_POINT ( 'NONE',  ( 25.39999999999999858, 4.884981308350691144E-15, 0.2074607845585640375 ) ) ;
#78 = PERSON_AND_ORGANIZATION ( #244, #45 ) ;
#79 = AXIS2_PLACEMENT_3D ( 'NONE', #112, #90, #181 ) ;
#80 = PERSON_AND_ORGANIZATION ( #244, #45 ) ;
#81 = ORIENTED_EDGE ( 'NONE', *, *, #266, .T. ) ;
#82 = VERTEX_POINT ( 'NONE', #52 ) ;
#83 =( LENGTH_UNIT ( ) NAMED_UNIT ( * ) SI_UNIT ( .MILLI., .METRE. ) );
#84 = CC_DESIGN_DATE_AND_TIME_ASSIGNMENT ( #189, #245, ( #195 ) ) ;
#85 = CARTESIAN_POINT ( 'NONE',  ( -25.39999999999999858, 7.995584178184967221E-15, 0.2074607845585640375 ) ) ;
#86 = EDGE_CURVE ( 'NONE', #144, #53, #224, .T. ) ;
#87 = PERSON_AND_ORGANIZATION ( #244, #45 ) ;
#88 = LOCAL_TIME ( 8, 56, 18.00000000000000000, #170 ) ;
#89 = PERSON_AND_ORGANIZATION_ROLE ( 'design_owner' ) ;
#90 = DIRECTION ( 'NONE',  ( -0.0000000000000000000, -0.0000000000000000000, -1.000000000000000000 ) ) ;
#91 = CARTESIAN_POINT ( 'NONE',  ( 8.516777457073207103, 25.70477239898375998, 0.2124696036707200142 ) ) ;
#92 = APPROVAL ( #213, 'UNSPECIFIED' ) ;
#93 = CC_DESIGN_APPROVAL ( #92, ( #38 ) ) ;
#94 = CARTESIAN_POINT ( 'NONE',  ( 25.55355022361129258, 8.569038028005827812, 0.1391376366998076930 ) ) ;
#95 = CARTESIAN_POINT ( 'NONE',  ( 8.108940223270643935E-13, -25.70477239898366761, 0.2124696036707174329 ) ) ;
#96 = CARTESIAN_POINT ( 'NONE',  ( -17.03637107046726129, 8.569038028002930574, 5.000838981479663659 ) ) ;
#97 = CARTESIAN_POINT ( 'NONE',  ( 8.518329306877141960, -8.569038028005737218, -0.07082965316288181157 ) ) ;
#98 = AXIS2_PLACEMENT_3D ( 'NONE', #71, #226, #259 ) ;
#99 = DIRECTION ( 'NONE',  ( 1.000000000000000000, 0.0000000000000000000, 0.0000000000000000000 ) ) ;
#100 = SECURITY_CLASSIFICATION_LEVEL ( 'unclassified' ) ;
#101 = ORIENTED_EDGE ( 'NONE', *, *, #122, .T. ) ;
#102 = CALENDAR_DATE ( 2019, 10, 6 ) ;
#103 = VECTOR ( 'NONE', #196, 1000.000000000000000 ) ;
#104 = SHAPE_DEFINITION_REPRESENTATION ( #253, #273 ) ;
#105 = CARTESIAN_POINT ( 'NONE',  ( 9.992007221626412808E-16, 4.884981308350691144E-15, 4.792539215441440348 ) ) ;
#106 = CC_DESIGN_APPROVAL ( #23, ( #179 ) ) ;
#107 = CC_DESIGN_PERSON_AND_ORGANIZATION_ASSIGNMENT ( #110, #89, ( #203 ) ) ;
#108 = CARTESIAN_POINT ( 'NONE',  ( 17.03326742324275145, 25.70477239897488175, 4.717552475387226885 ) ) ;
#109 = CARTESIAN_POINT ( 'NONE',  ( -4.267419750902945452E-13, -8.569038028002646357, 5.070829653162737927 ) ) ;
#110 = PERSON_AND_ORGANIZATION ( #244, #45 ) ;
#111 = DIRECTION ( 'NONE',  ( 0.0000000000000000000, 0.0000000000000000000, 1.000000000000000000 ) ) ;
#112 = CARTESIAN_POINT ( 'NONE',  ( 9.992007221626412808E-16, 4.884981308350691144E-15, 4.792539215441440348 ) ) ;
#113 = CIRCLE ( 'NONE', #26, 25.39999999999999858 ) ;
#114 = CYLINDRICAL_SURFACE ( 'NONE', #216, 25.39999999999999858 ) ;
#115 = CARTESIAN_POINT ( 'NONE',  ( 8.109796311201497417E-13, 8.569038028005827812, -0.07082965316288289404 ) ) ;
#116 = EDGE_CURVE ( 'NONE', #217, #169, #275, .T. ) ;
#117 = CARTESIAN_POINT ( 'NONE',  ( -8.518329306877140183, -8.569038028002642804, 5.070829653162798323 ) ) ;
#118 = CARTESIAN_POINT ( 'NONE',  ( -25.55355022361097639, 8.569038028005827812, 0.1391376366997766623 ) ) ;
#119 = DIRECTION ( 'NONE',  ( -0.0000000000000000000, -0.0000000000000000000, -1.000000000000000000 ) ) ;
#120 = CARTESIAN_POINT ( 'NONE',  ( -25.55355022361097639, -8.569038028005737218, 0.1391376366997751635 ) ) ;
#121 = PERSON_AND_ORGANIZATION ( #244, #45 ) ;
#122 = EDGE_CURVE ( 'NONE', #66, #217, #137, .T. ) ;
#123 = ORIENTED_EDGE ( 'NONE', *, *, #116, .T. ) ;
#124 = APPROVAL_DATE_TIME ( #40, #23 ) ;
#125 = ORIENTED_EDGE ( 'NONE', *, *, #266, .F. ) ;
#126 = ADVANCED_FACE ( 'NONE', ( #222 ), #114, .T. ) ;
#127 =( NAMED_UNIT ( * ) SI_UNIT ( $, .STERADIAN. ) SOLID_ANGLE_UNIT ( ) );
#128 = ORIENTED_EDGE ( 'NONE', *, *, #41, .F. ) ;
#129 = CARTESIAN_POINT ( 'NONE',  ( 8.518329306876211149, 8.569038028002930574, 5.070829653162739703 ) ) ;
#130 = CARTESIAN_POINT ( 'NONE',  ( -8.108955359171943982E-13, 25.39999999999055191, 4.792539215441489198 ) ) ;
#131 = CIRCLE ( 'NONE', #7, 25.39999999999999858 ) ;
#132 =( BOUNDED_SURFACE ( )  B_SPLINE_SURFACE ( 3, 3, ( 
 ( #95, #208, #283, #11 ),
 ( #227, #97, #160, #184 ),
 ( #115, #28, #6, #94 ),
 ( #73, #91, #255, #257 ) ),
 .UNSPECIFIED., .F., .F., .F. ) 
 B_SPLINE_SURFACE_WITH_KNOTS ( ( 4, 4 ),
 ( 4, 4 ),
 ( 0.0000000000000000000, 1.000000000000000000 ),
 ( 0.0000000000000000000, 1.000000000000000000 ),
 .UNSPECIFIED. ) 
 GEOMETRIC_REPRESENTATION_ITEM ( )  RATIONAL_B_SPLINE_SURFACE ( (
 ( 1.000000000000000000, 0.9999774961125318384, 0.9999774961125318384, 1.000000000000000000),
 ( 0.9999089090659503132, 0.9998864072283822901, 0.9998864072283822901, 0.9999089090659503132),
 ( 0.9999089090659503132, 0.9998864072283822901, 0.9998864072283822901, 0.9999089090659503132),
 ( 1.000000000000000000, 0.9999774961125318384, 0.9999774961125318384, 1.000000000000000000) ) ) 
 REPRESENTATION_ITEM ( '' )  SURFACE ( )  );
#133 = COORDINATED_UNIVERSAL_TIME_OFFSET ( 2, 0, .AHEAD. ) ;
#134 = DIRECTION ( 'NONE',  ( 0.0000000000000000000, -1.000000000000000000, 8.567637489068732325E-16 ) ) ;
#135 = APPROVAL_STATUS ( 'not_yet_approved' ) ;
#136 = CARTESIAN_POINT ( 'NONE',  ( -3.410605131648479882E-13, 1.136868377216160045E-13, -1550.000000000000000 ) ) ;
#137 = CIRCLE ( 'NONE', #293, 1555.000000000000000 ) ;
#138 = CARTESIAN_POINT ( 'NONE',  ( -8.516777457073207103, -25.70477239897459398, 4.787530396329397142 ) ) ;
#139 = FACE_OUTER_BOUND ( 'NONE', #238, .T. ) ;
#140 = CARTESIAN_POINT ( 'NONE',  ( 9.992007221626412808E-16, 4.884981308350691144E-15, 4.792539215441440348 ) ) ;
#141 = CARTESIAN_POINT ( 'NONE',  ( -25.39999999999999858, 7.995584178184967221E-15, 4.792539215441440348 ) ) ;
#142 = ORIENTED_EDGE ( 'NONE', *, *, #258, .T. ) ;
#143 = CALENDAR_DATE ( 2019, 10, 6 ) ;
#144 = VERTEX_POINT ( 'NONE', #25 ) ;
#145 = APPROVAL_ROLE ( '' ) ;
#146 = EDGE_LOOP ( 'NONE', ( #247, #173, #14 ) ) ;
#147 = CARTESIAN_POINT ( 'NONE',  ( 4.267419750902945452E-13, 25.70477239898375643, 0.2124696036707819091 ) ) ;
#148 = CARTESIAN_POINT ( 'NONE',  ( 17.03637107046664312, -8.569038028002642804, 5.000838981479700962 ) ) ;
#149 = AXIS2_PLACEMENT_3D ( 'NONE', #243, #17, #242 ) ;
#150 = APPROVAL_PERSON_ORGANIZATION ( #87, #241, #254 ) ;
#151 = CARTESIAN_POINT ( 'NONE',  ( 25.55355022361097639, 8.569038028002934126, 4.860862363300141986 ) ) ;
#152 = FACE_OUTER_BOUND ( 'NONE', #271, .T. ) ;
#153 = PRODUCT_RELATED_PRODUCT_CATEGORY ( 'detail', '', ( #203 ) ) ;
#154 = CIRCLE ( 'NONE', #278, 25.39999999999999858 ) ;
#155 = LOCAL_TIME ( 8, 56, 18.00000000000000000, #133 ) ;
#156 = DIRECTION ( 'NONE',  ( 1.000000000000000000, 0.0000000000000000000, 0.0000000000000000000 ) ) ;
#157 = APPLICATION_PROTOCOL_DEFINITION ( 'international standard', 'config_control_design', 1994, #261 ) ;
#158 = CARTESIAN_POINT ( 'NONE',  ( 9.992007221626412808E-16, 4.884981308350691144E-15, 0.2074607845585640375 ) ) ;
#159 = DIRECTION ( 'NONE',  ( -0.0000000000000000000, -0.0000000000000000000, -1.000000000000000000 ) ) ;
#160 = CARTESIAN_POINT ( 'NONE',  ( 17.03637107046726484, -8.569038028005737218, -0.0008389814797467266480 ) ) ;
#161 = EDGE_CURVE ( 'NONE', #169, #66, #70, .T. ) ;
#162 = ORIENTED_EDGE ( 'NONE', *, *, #260, .F. ) ;
#163 = ORIENTED_EDGE ( 'NONE', *, *, #122, .F. ) ;
#164 = CARTESIAN_POINT ( 'NONE',  ( -17.03326742324337673, -25.70477239897459398, 4.717552475387189581 ) ) ;
#165 = CARTESIAN_POINT ( 'NONE',  ( -17.03637107046664312, 8.569038028005826035, -0.0008389814797832640444 ) ) ;
#166 = CARTESIAN_POINT ( 'NONE',  ( -17.03326742324275145, -25.70477239898367117, 0.2824475246128893557 ) ) ;
#167 = ORIENTED_EDGE ( 'NONE', *, *, #54, .F. ) ;
#168 = APPROVAL_STATUS ( 'not_yet_approved' ) ;
#169 = VERTEX_POINT ( 'NONE', #4 ) ;
#170 = COORDINATED_UNIVERSAL_TIME_OFFSET ( 2, 0, .AHEAD. ) ;
#171 = DIRECTION ( 'NONE',  ( 0.0000000000000000000, -1.000000000000000000, -5.711758326045821550E-16 ) ) ;
#172 = ORIENTED_EDGE ( 'NONE', *, *, #260, .T. ) ;
#173 = ORIENTED_EDGE ( 'NONE', *, *, #86, .T. ) ;
#174 = FACE_OUTER_BOUND ( 'NONE', #192, .T. ) ;
#175 = CC_DESIGN_PERSON_AND_ORGANIZATION_ASSIGNMENT ( #36, #270, ( #179 ) ) ;
#176 = DESIGN_CONTEXT ( 'detailed design', #261, 'design' ) ;
#177 = AXIS2_PLACEMENT_3D ( 'NONE', #59, #289, #187 ) ;
#178 = MECHANICAL_CONTEXT ( 'NONE', #214, 'mechanical' ) ;
#179 = SECURITY_CLASSIFICATION ( '', '', #100 ) ;
#180 = CALENDAR_DATE ( 2019, 10, 6 ) ;
#181 = DIRECTION ( 'NONE',  ( 1.000000000000000000, 0.0000000000000000000, 0.0000000000000000000 ) ) ;
#182 = DIRECTION ( 'NONE',  ( -1.000000000000000000, -2.710554295313210103E-31, -3.021850252699489848E-16 ) ) ;
#183 =( BOUNDED_SURFACE ( )  B_SPLINE_SURFACE ( 3, 3, ( 
 ( #251, #277, #69, #67 ),
 ( #194, #148, #248, #109 ),
 ( #151, #44, #129, #219 ),
 ( #20, #108, #1, #46 ) ),
 .UNSPECIFIED., .F., .F., .F. ) 
 B_SPLINE_SURFACE_WITH_KNOTS ( ( 4, 4 ),
 ( 4, 4 ),
 ( 0.0000000000000000000, 1.000000000000000000 ),
 ( 0.0000000000000000000, 1.000000000000000000 ),
 .UNSPECIFIED. ) 
 GEOMETRIC_REPRESENTATION_ITEM ( )  RATIONAL_B_SPLINE_SURFACE ( (
 ( 1.000000000000000000, 0.9999774961125318384, 0.9999774961125318384, 1.000000000000000000),
 ( 0.9999089090659503132, 0.9998864072283822901, 0.9998864072283822901, 0.9999089090659503132),
 ( 0.9999089090659503132, 0.9998864072283822901, 0.9998864072283822901, 0.9999089090659503132),
 ( 1.000000000000000000, 0.9999774961125318384, 0.9999774961125318384, 1.000000000000000000) ) ) 
 REPRESENTATION_ITEM ( '' )  SURFACE ( )  );
#184 = CARTESIAN_POINT ( 'NONE',  ( 25.55355022361129258, -8.569038028005737218, 0.1391376366998061942 ) ) ;
#185 = CARTESIAN_POINT ( 'NONE',  ( -8.518329306877140183, 8.569038028002930574, 5.070829653162799211 ) ) ;
#186 = DIRECTION ( 'NONE',  ( 0.0000000000000000000, 0.0000000000000000000, 1.000000000000000000 ) ) ;
#187 = DIRECTION ( 'NONE',  ( 1.000000000000000000, 0.0000000000000000000, 0.0000000000000000000 ) ) ;
#188 = VERTEX_POINT ( 'NONE', #280 ) ;
#189 = DATE_AND_TIME ( #221, #155 ) ;
#190 = DIRECTION ( 'NONE',  ( 1.000000000000000000, -1.807036196875480044E-31, 3.021850252699489848E-16 ) ) ;
#191 = PERSON_AND_ORGANIZATION_ROLE ( 'creator' ) ;
#192 = EDGE_LOOP ( 'NONE', ( #16, #39, #125, #172, #290, #274 ) ) ;
#193 = ORIENTED_EDGE ( 'NONE', *, *, #202, .T. ) ;
#194 = CARTESIAN_POINT ( 'NONE',  ( 25.55355022361097639, -8.569038028002646357, 4.860862363300141098 ) ) ;
#195 = PRODUCT_DEFINITION ( 'UNKNOWN', '', #38, #176 ) ;
#196 = DIRECTION ( 'NONE',  ( 0.0000000000000000000, 0.0000000000000000000, 1.000000000000000000 ) ) ;
#197 = LOCAL_TIME ( 8, 56, 18.00000000000000000, #63 ) ;
#198 = APPLICATION_PROTOCOL_DEFINITION ( 'international standard', 'config_control_design', 1994, #214 ) ;
#199 = DIRECTION ( 'NONE',  ( 1.000000000000000000, 0.0000000000000000000, 0.0000000000000000000 ) ) ;
#200 = MANIFOLD_SOLID_BREP ( 'Imported1', #285 ) ;
#201 = LINE ( 'NONE', #85, #103 ) ;
#202 = EDGE_CURVE ( 'NONE', #53, #269, #201, .T. ) ;
#203 = PRODUCT ( '111-0555E BK7 bi-cx 50.8 F1500', '111-0555E BK7 bi-cx 50.8 F1500', '', ( #178 ) ) ;
#204 = DIRECTION ( 'NONE',  ( 1.000000000000000000, 8.881784197001252323E-16, 0.0000000000000000000 ) ) ;
#205 = ADVANCED_FACE ( 'NONE', ( #152 ), #183, .T. ) ;
#206 = DIRECTION ( 'NONE',  ( 1.000000000000000000, 0.0000000000000000000, 0.0000000000000000000 ) ) ;
#207 = CARTESIAN_POINT ( 'NONE',  ( 4.267419750902945452E-13, 8.569038028005827812, -0.07082965316281834844 ) ) ;
#208 = CARTESIAN_POINT ( 'NONE',  ( 8.516777457073207103, -25.70477239898367117, 0.2124696036707200142 ) ) ;
#209 = CARTESIAN_POINT ( 'NONE',  ( -8.516777457073207103, 25.70477239897488175, 4.787530396329397142 ) ) ;
#210 = CARTESIAN_POINT ( 'NONE',  ( -25.54889493611553064, -25.70477239898366761, 0.4223986421714176487 ) ) ;
#211 = CIRCLE ( 'NONE', #149, 25.39999999999999858 ) ;
#212 = APPROVAL_DATE_TIME ( #236, #92 ) ;
#213 = APPROVAL_STATUS ( 'not_yet_approved' ) ;
#214 = APPLICATION_CONTEXT ( 'configuration controlled 3d designs of mechanical parts and assemblies' ) ;
#215 = CARTESIAN_POINT ( 'NONE',  ( -25.39999999999999858, 7.995584178184967221E-15, 0.2074607845585640375 ) ) ;
#216 = AXIS2_PLACEMENT_3D ( 'NONE', #158, #282, #5 ) ;
#217 = VERTEX_POINT ( 'NONE', #130 ) ;
#218 = APPROVAL_PERSON_ORGANIZATION ( #294, #92, #145 ) ;
#219 = CARTESIAN_POINT ( 'NONE',  ( -4.267419750902945452E-13, 8.569038028002934126, 5.070829653162738815 ) ) ;
#220 = APPROVAL_PERSON_ORGANIZATION ( #78, #23, #268 ) ;
#221 = CALENDAR_DATE ( 2019, 10, 6 ) ;
#222 = FACE_OUTER_BOUND ( 'NONE', #35, .T. ) ;
#223 = UNCERTAINTY_MEASURE_WITH_UNIT (LENGTH_MEASURE( 1.000000000000000082E-05 ), #83, 'distance_accuracy_value', 'NONE');
#224 = CIRCLE ( 'NONE', #98, 25.39999999999999858 ) ;
#225 = COORDINATED_UNIVERSAL_TIME_OFFSET ( 2, 0, .AHEAD. ) ;
#226 = DIRECTION ( 'NONE',  ( -0.0000000000000000000, -0.0000000000000000000, -1.000000000000000000 ) ) ;
#227 = CARTESIAN_POINT ( 'NONE',  ( 8.109796311201497417E-13, -8.569038028005737218, -0.07082965316288440671 ) ) ;
#228 = ADVANCED_FACE ( 'NONE', ( #174 ), #276, .T. ) ;
#229 = ADVANCED_FACE ( 'NONE', ( #262 ), #68, .T. ) ;
#230 = CARTESIAN_POINT ( 'NONE',  ( -8.109796311201498427E-13, -8.569038028002646357, 5.070829653162800987 ) ) ;
#231 = CARTESIAN_POINT ( 'NONE',  ( 4.267419750902945452E-13, -8.569038028005737218, -0.07082965316281986112 ) ) ;
#232 = DIRECTION ( 'NONE',  ( -0.0000000000000000000, -0.0000000000000000000, -1.000000000000000000 ) ) ;
#233 = CARTESIAN_POINT ( 'NONE',  ( -25.54889493611585038, -25.70477239897459043, 4.577601357828667616 ) ) ;
#234 = CARTESIAN_POINT ( 'NONE',  ( -25.54889493611553064, 25.70477239898375643, 0.4223986421714176487 ) ) ;
#235 = ORIENTED_EDGE ( 'NONE', *, *, #161, .F. ) ;
#236 = DATE_AND_TIME ( #143, #72 ) ;
#237 = CARTESIAN_POINT ( 'NONE',  ( -8.518329306876211149, -8.569038028005737218, -0.07082965316282036072 ) ) ;
#238 = EDGE_LOOP ( 'NONE', ( #81, #60, #42 ) ) ;
#239 = CC_DESIGN_SECURITY_CLASSIFICATION ( #179, ( #38 ) ) ;
#240 = CALENDAR_DATE ( 2019, 10, 6 ) ;
#241 = APPROVAL ( #135, 'UNSPECIFIED' ) ;
#242 = DIRECTION ( 'NONE',  ( 1.000000000000000000, 0.0000000000000000000, 0.0000000000000000000 ) ) ;
#243 = CARTESIAN_POINT ( 'NONE',  ( 9.992007221626412808E-16, 4.884981308350691144E-15, 0.2074607845585640375 ) ) ;
#244 = PERSON ( 'UNSPECIFIED', 'UNSPECIFIED', 'UNSPECIFIED', ('UNSPECIFIED'), ('UNSPECIFIED'), ('UNSPECIFIED') ) ;
#245 = DATE_TIME_ROLE ( 'creation_date' ) ;
#246 = ORIENTED_EDGE ( 'NONE', *, *, #258, .F. ) ;
#247 = ORIENTED_EDGE ( 'NONE', *, *, #48, .F. ) ;
#248 = CARTESIAN_POINT ( 'NONE',  ( 8.518329306876211149, -8.569038028002642804, 5.070829653162738815 ) ) ;
#249 = CC_DESIGN_PERSON_AND_ORGANIZATION_ASSIGNMENT ( #80, #191, ( #38 ) ) ;
#250 = AXIS2_PLACEMENT_3D ( 'NONE', #51, #111, #156 ) ;
#251 = CARTESIAN_POINT ( 'NONE',  ( 25.54889493611553419, -25.70477239897459043, 4.577601357828697815 ) ) ;
#252 = AXIS2_PLACEMENT_3D ( 'NONE', #37, #190, #171 ) ;
#253 = PRODUCT_DEFINITION_SHAPE ( 'NONE', 'NONE',  #195 ) ;
#254 = APPROVAL_ROLE ( '' ) ;
#255 = CARTESIAN_POINT ( 'NONE',  ( 17.03326742324337673, 25.70477239898375998, 0.2824475246129274364 ) ) ;
#256 = DATE_AND_TIME ( #180, #2 ) ;
#257 = CARTESIAN_POINT ( 'NONE',  ( 25.54889493611585038, 25.70477239898375643, 0.4223986421714487349 ) ) ;
#258 = EDGE_CURVE ( 'NONE', #269, #217, #154, .T. ) ;
#259 = DIRECTION ( 'NONE',  ( 1.000000000000000000, 0.0000000000000000000, 0.0000000000000000000 ) ) ;
#260 = EDGE_CURVE ( 'NONE', #188, #169, #32, .T. ) ;
#261 = APPLICATION_CONTEXT ( 'configuration controlled 3d designs of mechanical parts and assemblies' ) ;
#262 = FACE_OUTER_BOUND ( 'NONE', #64, .T. ) ;
#263 = CARTESIAN_POINT ( 'NONE',  ( -17.03637107046726129, -8.569038028002642804, 5.000838981479662770 ) ) ;
#264 = CARTESIAN_POINT ( 'NONE',  ( -8.518329306876211149, 8.569038028005826035, -0.07082965316281883417 ) ) ;
#265 = DIRECTION ( 'NONE',  ( 0.0000000000000000000, 0.0000000000000000000, 1.000000000000000000 ) ) ;
#266 = EDGE_CURVE ( 'NONE', #188, #144, #131, .T. ) ;
#267 = AXIS2_PLACEMENT_3D ( 'NONE', #21, #265, #206 ) ;
#268 = APPROVAL_ROLE ( '' ) ;
#269 = VERTEX_POINT ( 'NONE', #141 ) ;
#270 = PERSON_AND_ORGANIZATION_ROLE ( 'classification_officer' ) ;
#271 = EDGE_LOOP ( 'NONE', ( #163, #235, #295 ) ) ;
#272 = CARTESIAN_POINT ( 'NONE',  ( -8.516777457072278068, 25.70477239898375998, 0.2124696036707814650 ) ) ;
#273 = ADVANCED_BREP_SHAPE_REPRESENTATION ( '111-0555E BK7 bi-cx 50.8 F1500', ( #200, #250 ), #8 ) ;
#274 = ORIENTED_EDGE ( 'NONE', *, *, #54, .T. ) ;
#275 = CIRCLE ( 'NONE', #55, 25.39999999999999858 ) ;
#276 = CYLINDRICAL_SURFACE ( 'NONE', #267, 25.39999999999999858 ) ;
#277 = CARTESIAN_POINT ( 'NONE',  ( 17.03326742324275145, -25.70477239897459398, 4.717552475387226885 ) ) ;
#278 = AXIS2_PLACEMENT_3D ( 'NONE', #140, #119, #99 ) ;
#279 = PERSON_AND_ORGANIZATION ( #244, #45 ) ;
#280 = CARTESIAN_POINT ( 'NONE',  ( 25.39999999999999858, 4.884981308350691144E-15, 0.2074607845585640375 ) ) ;
#281 = ADVANCED_FACE ( 'NONE', ( #34 ), #47, .T. ) ;
#282 = DIRECTION ( 'NONE',  ( 0.0000000000000000000, 0.0000000000000000000, 1.000000000000000000 ) ) ;
#283 = CARTESIAN_POINT ( 'NONE',  ( 17.03326742324337673, -25.70477239898367117, 0.2824475246129274364 ) ) ;
#284 = CARTESIAN_POINT ( 'NONE',  ( -8.108955359171943982E-13, -25.39999999999043823, 4.792539215441489198 ) ) ;
#285 = CLOSED_SHELL ( 'NONE', ( #74, #229, #126, #281, #228, #205 ) ) ;
#286 = CARTESIAN_POINT ( 'NONE',  ( -8.108940223270644944E-13, 25.70477239897487820, 4.787530396329398030 ) ) ;
#287 = CARTESIAN_POINT ( 'NONE',  ( 9.992007221626412808E-16, 4.884981308350691144E-15, 0.2074607845585640375 ) ) ;
#288 = CARTESIAN_POINT ( 'NONE',  ( -8.109796311201498427E-13, 8.569038028002934126, 5.070829653162801876 ) ) ;
#289 = DIRECTION ( 'NONE',  ( -0.0000000000000000000, -0.0000000000000000000, -1.000000000000000000 ) ) ;
#290 = ORIENTED_EDGE ( 'NONE', *, *, #161, .T. ) ;
#291 = CC_DESIGN_PERSON_AND_ORGANIZATION_ASSIGNMENT ( #121, #13, ( #38 ) ) ;
#292 = DATE_AND_TIME ( #102, #88 ) ;
#293 = AXIS2_PLACEMENT_3D ( 'NONE', #136, #182, #134 ) ;
#294 = PERSON_AND_ORGANIZATION ( #244, #45 ) ;
#295 = ORIENTED_EDGE ( 'NONE', *, *, #116, .F. ) ;
ENDSEC;
END-ISO-10303-21;
