ISO-10303-21;
HEADER;
FILE_DESCRIPTION (( 'STEP AP203' ),
    '1' );
FILE_NAME ('111-0544E BK7 bi-cx 50.8 F1000.STEP',
    '2019-01-11T08:42:41',
    ( '' ),
    ( '' ),
    'SwSTEP 2.0',
    'SolidWorks 2017',
    '' );
FILE_SCHEMA (( 'CONFIG_CONTROL_DESIGN' ));
ENDSEC;

DATA;
#1 = CARTESIAN_POINT ( 'NONE',  ( 17.03816681284350700, 8.570001453747755300, 5.001261300071101700 ) ) ;
#2 =( BOUNDED_SURFACE ( )  B_SPLINE_SURFACE ( 3, 3, ( 
 ( #246, #265, #284, #84 ),
 ( #15, #199, #200, #60 ),
 ( #38, #109, #227, #88 ),
 ( #267, #138, #115, #17 ) ),
 .UNSPECIFIED., .F., .F., .F. ) 
 B_SPLINE_SURFACE_WITH_KNOTS ( ( 4, 4 ),
 ( 4, 4 ),
 ( 0.0000000000000000000, 1.000000000000000000 ),
 ( 0.0000000000000000000, 1.000000000000000000 ),
 .UNSPECIFIED. ) 
 GEOMETRIC_REPRESENTATION_ITEM ( )  RATIONAL_B_SPLINE_SURFACE ( (
 ( 1.000000000000000000, 0.9999493935339184300, 0.9999493935339184300, 1.000000000000000000),
 ( 0.9997951602113610600, 0.9997445641114972600, 0.9997445641114972600, 0.9997951602113610600),
 ( 0.9997951602113610600, 0.9997445641114972600, 0.9997445641114972600, 0.9997951602113610600),
 ( 1.000000000000000000, 0.9999493935339184300, 0.9999493935339184300, 1.000000000000000000) ) ) 
 REPRESENTATION_ITEM ( '' )  SURFACE ( )  );
#3 = PRODUCT_DEFINITION_FORMATION_WITH_SPECIFIED_SOURCE ( 'ANY', '', #260, .NOT_KNOWN. ) ;
#4 = CARTESIAN_POINT ( 'NONE',  ( 8.515916711016480200, -25.70473792938386000, 4.681371708772142700 ) ) ;
#5 = EDGE_LOOP ( 'NONE', ( #175, #150, #124, #113, #216, #43 ) ) ;
#6 = CARTESIAN_POINT ( 'NONE',  ( 25.55498684783448500, -8.570001453747686100, 4.791337455111325000 ) ) ;
#7 = APPROVAL_PERSON_ORGANIZATION ( #185, #51, #123 ) ;
#8 = CARTESIAN_POINT ( 'NONE',  ( 9.992007221626412800E-016, 4.884981308350691100E-015, 4.688882934508949800 ) ) ;
#9 = CARTESIAN_POINT ( 'NONE',  ( -25.54451802781511200, 25.70473792938393500, 4.366606972025190100 ) ) ;
#10 = CARTESIAN_POINT ( 'NONE',  ( -3.410605131648479900E-013, -25.70473792938386700, 4.681371708772141800 ) ) ;
#11 = CC_DESIGN_APPROVAL ( #51, ( #3 ) ) ;
#12 = ORIENTED_EDGE ( 'NONE', *, *, #268, .T. ) ;
#13 = DIRECTION ( 'NONE',  ( -0.0000000000000000000, -0.0000000000000000000, -1.000000000000000000 ) ) ;
#14 = EDGE_CURVE ( 'NONE', #266, #95, #250, .T. ) ;
#15 = CARTESIAN_POINT ( 'NONE',  ( 3.410605131648479400E-013, -8.570001453747703800, -0.1062311907838685700 ) ) ;
#16 = FACE_OUTER_BOUND ( 'NONE', #47, .T. ) ;
#17 = CARTESIAN_POINT ( 'NONE',  ( 25.54451802781511600, 25.70473792938391700, 0.6333930279747040900 ) ) ;
#18 = DATE_AND_TIME ( #69, #125 ) ;
#19 = CARTESIAN_POINT ( 'NONE',  ( -8.515916711016476600, -25.70473792938387800, 0.3186282912277502700 ) ) ;
#20 = CARTESIAN_POINT ( 'NONE',  ( -3.410605131648479900E-013, 1.136868377216160000E-013, -1032.000000000000000 ) ) ;
#21 = ORIENTED_EDGE ( 'NONE', *, *, #34, .T. ) ;
#22 = PERSON_AND_ORGANIZATION_ROLE ( 'design_supplier' ) ;
#23 = APPROVAL_ROLE ( '' ) ;
#24 = DIRECTION ( 'NONE',  ( 1.000000000000000000, 0.0000000000000000000, 0.0000000000000000000 ) ) ;
#25 = FACE_OUTER_BOUND ( 'NONE', #5, .T. ) ;
#26 = APPROVAL_PERSON_ORGANIZATION ( #270, #116, #23 ) ;
#27 = ORIENTED_EDGE ( 'NONE', *, *, #83, .F. ) ;
#28 = CARTESIAN_POINT ( 'NONE',  ( 8.519406759223604900, 8.570001453747755300, 5.106231190783760500 ) ) ;
#29 = AXIS2_PLACEMENT_3D ( 'NONE', #195, #80, #82 ) ;
#30 = APPROVAL_DATE_TIME ( #172, #51 ) ;
#31 = CARTESIAN_POINT ( 'NONE',  ( -8.673617379884035500E-014, 25.70473792938393500, 4.681371708772144500 ) ) ;
#32 = PRODUCT_DEFINITION ( 'UNKNOWN', '', #3, #248 ) ;
#33 = CARTESIAN_POINT ( 'NONE',  ( 25.55498684783448500, 8.570001453747755300, 4.791337455111322400 ) ) ;
#34 = EDGE_CURVE ( 'NONE', #187, #56, #73, .T. ) ;
#35 = DATE_AND_TIME ( #119, #273 ) ;
#36 = CARTESIAN_POINT ( 'NONE',  ( -25.54451802781511200, -25.70473792938386700, 4.366606972025190100 ) ) ;
#37 = DIRECTION ( 'NONE',  ( 1.000000000000000000, 0.0000000000000000000, 0.0000000000000000000 ) ) ;
#38 = CARTESIAN_POINT ( 'NONE',  ( 3.410605131648479400E-013, 8.570001453747737600, -0.1062311907838653600 ) ) ;
#39 = CYLINDRICAL_SURFACE ( 'NONE', #165, 25.39999999999999900 ) ;
#40 = PERSON_AND_ORGANIZATION ( #102, #154 ) ;
#41 =( NAMED_UNIT ( * ) PLANE_ANGLE_UNIT ( ) SI_UNIT ( $, .RADIAN. ) );
#42 = CARTESIAN_POINT ( 'NONE',  ( -8.519406759223604900, -8.570001453747703800, -0.1062311907838698700 ) ) ;
#43 = ORIENTED_EDGE ( 'NONE', *, *, #129, .F. ) ;
#44 = CARTESIAN_POINT ( 'NONE',  ( -17.03816681284350700, -8.570001453747703800, -0.001261300071210677500 ) ) ;
#45 = APPROVAL_PERSON_ORGANIZATION ( #191, #264, #188 ) ;
#46 = CARTESIAN_POINT ( 'NONE',  ( 9.992007221626412800E-016, 4.884981308350691100E-015, 0.3111170654910530600 ) ) ;
#47 = EDGE_LOOP ( 'NONE', ( #118, #27, #167, #12, #137, #77 ) ) ;
#48 = EDGE_CURVE ( 'NONE', #256, #183, #101, .T. ) ;
#49 = PERSON_AND_ORGANIZATION_ROLE ( 'creator' ) ;
#50 = CALENDAR_DATE ( 2019, 11, 1 ) ;
#51 = APPROVAL ( #166, 'UNSPECIFIED' ) ;
#52 = ORIENTED_EDGE ( 'NONE', *, *, #129, .T. ) ;
#53 = APPROVAL_DATE_TIME ( #263, #264 ) ;
#54 =( BOUNDED_SURFACE ( )  B_SPLINE_SURFACE ( 3, 3, ( 
 ( #72, #161, #19, #159 ),
 ( #121, #44, #42, #207 ),
 ( #70, #211, #209, #272 ),
 ( #203, #231, #71, #93 ) ),
 .UNSPECIFIED., .F., .F., .T. ) 
 B_SPLINE_SURFACE_WITH_KNOTS ( ( 4, 4 ),
 ( 4, 4 ),
 ( 0.0000000000000000000, 1.000000000000000000 ),
 ( 0.0000000000000000000, 1.000000000000000000 ),
 .UNSPECIFIED. ) 
 GEOMETRIC_REPRESENTATION_ITEM ( )  RATIONAL_B_SPLINE_SURFACE ( (
 ( 1.000000000000000000, 0.9999493935339183200, 0.9999493935339183200, 1.000000000000000000),
 ( 0.9997951602113610600, 0.9997445641114971500, 0.9997445641114971500, 0.9997951602113610600),
 ( 0.9997951602113610600, 0.9997445641114971500, 0.9997445641114971500, 0.9997951602113610600),
 ( 1.000000000000000000, 0.9999493935339183200, 0.9999493935339183200, 1.000000000000000000) ) ) 
 REPRESENTATION_ITEM ( '' )  SURFACE ( )  );
#55 = CARTESIAN_POINT ( 'NONE',  ( -9.020562075079396900E-014, 8.570001453747755300, 5.106231190783763200 ) ) ;
#56 = VERTEX_POINT ( 'NONE', #239 ) ;
#57 = COORDINATED_UNIVERSAL_TIME_OFFSET ( 2, 0, .AHEAD. ) ;
#58 = CARTESIAN_POINT ( 'NONE',  ( -17.03118698135769900, -25.70473792938386700, 4.576444819877476500 ) ) ;
#59 = DIRECTION ( 'NONE',  ( -0.0000000000000000000, -0.0000000000000000000, -1.000000000000000000 ) ) ;
#60 = CARTESIAN_POINT ( 'NONE',  ( 25.55498684783417600, -8.570001453747703800, 0.2086625448885583400 ) ) ;
#61 = CC_DESIGN_SECURITY_CLASSIFICATION ( #105, ( #3 ) ) ;
#62 = DIRECTION ( 'NONE',  ( -0.0000000000000000000, -0.0000000000000000000, -1.000000000000000000 ) ) ;
#63 = AXIS2_PLACEMENT_3D ( 'NONE', #171, #219, #131 ) ;
#64 = CARTESIAN_POINT ( 'NONE',  ( 9.992007221626412800E-016, 4.884981308350691100E-015, 0.3111170654910530600 ) ) ;
#65 = DIRECTION ( 'NONE',  ( 0.0000000000000000000, 0.0000000000000000000, 1.000000000000000000 ) ) ;
#66 = ADVANCED_FACE ( 'NONE', ( #295 ), #237, .T. ) ;
#67 = PRODUCT_RELATED_PRODUCT_CATEGORY ( 'detail', '', ( #260 ) ) ;
#68 = ORIENTED_EDGE ( 'NONE', *, *, #83, .T. ) ;
#69 = CALENDAR_DATE ( 2019, 11, 1 ) ;
#70 = CARTESIAN_POINT ( 'NONE',  ( -25.55498684783448500, 8.570001453747737600, 0.2086625448885733000 ) ) ;
#71 = CARTESIAN_POINT ( 'NONE',  ( -8.515916711016476600, 25.70473792938391400, 0.3186282912277502700 ) ) ;
#72 = CARTESIAN_POINT ( 'NONE',  ( -25.54451802781542100, -25.70473792938388500, 0.6333930279747157500 ) ) ;
#73 = CIRCLE ( 'NONE', #63, 25.39999999999999900 ) ;
#74 = DATE_TIME_ROLE ( 'classification_date' ) ;
#75 = MECHANICAL_CONTEXT ( 'NONE', #189, 'mechanical' ) ;
#76 = VECTOR ( 'NONE', #65, 1000.000000000000000 ) ;
#77 = ORIENTED_EDGE ( 'NONE', *, *, #48, .T. ) ;
#78 = CARTESIAN_POINT ( 'NONE',  ( 17.03118698135775600, 25.70473792938393100, 4.576444819877477400 ) ) ;
#79 = CARTESIAN_POINT ( 'NONE',  ( 25.54451802781542100, -25.70473792938386700, 4.366606972025177700 ) ) ;
#80 = DIRECTION ( 'NONE',  ( -0.0000000000000000000, -0.0000000000000000000, -1.000000000000000000 ) ) ;
#81 = CIRCLE ( 'NONE', #224, 25.39999999999999900 ) ;
#82 = DIRECTION ( 'NONE',  ( 1.000000000000000000, 8.881784197001252300E-016, 0.0000000000000000000 ) ) ;
#83 = EDGE_CURVE ( 'NONE', #146, #187, #257, .T. ) ;
#84 = CARTESIAN_POINT ( 'NONE',  ( 25.54451802781511200, -25.70473792938388500, 0.6333930279747040900 ) ) ;
#85 = ORIENTED_EDGE ( 'NONE', *, *, #48, .F. ) ;
#86 = CARTESIAN_POINT ( 'NONE',  ( -8.519406759223789600, 8.570001453747751800, 5.106231190783759600 ) ) ;
#87 = CARTESIAN_POINT ( 'NONE',  ( -17.03816681284344300, 8.570001453747751800, 5.001261300071098100 ) ) ;
#88 = CARTESIAN_POINT ( 'NONE',  ( 25.55498684783417600, 8.570001453747737600, 0.2086625448885615400 ) ) ;
#89 = FACE_OUTER_BOUND ( 'NONE', #169, .T. ) ;
#90 = CARTESIAN_POINT ( 'NONE',  ( -25.39999999999999900, 7.995584178184967200E-015, 0.3111170654910530600 ) ) ;
#91 = CALENDAR_DATE ( 2019, 11, 1 ) ;
#92 = DIRECTION ( 'NONE',  ( -1.000000000000000000, 0.0000000000000000000, 0.0000000000000000000 ) ) ;
#93 = CARTESIAN_POINT ( 'NONE',  ( 9.020562075079396900E-014, 25.70473792938391700, 0.3186282912277481600 ) ) ;
#94 = CARTESIAN_POINT ( 'NONE',  ( -3.410605131648479900E-013, 25.39999999999929500, 4.688882934508907100 ) ) ;
#95 = VERTEX_POINT ( 'NONE', #153 ) ;
#96 = LOCAL_TIME ( 10, 42, 41.00000000000000000, #114 ) ;
#97 = DIRECTION ( 'NONE',  ( 0.0000000000000000000, 0.0000000000000000000, 1.000000000000000000 ) ) ;
#98 = CC_DESIGN_APPROVAL ( #264, ( #32 ) ) ;
#99 = PERSON_AND_ORGANIZATION_ROLE ( 'classification_officer' ) ;
#100 = EDGE_CURVE ( 'NONE', #183, #266, #289, .T. ) ;
#101 = CIRCLE ( 'NONE', #29, 25.39999999999999900 ) ;
#102 = PERSON ( 'UNSPECIFIED', 'UNSPECIFIED', 'UNSPECIFIED', ('UNSPECIFIED'), ('UNSPECIFIED'), ('UNSPECIFIED') ) ;
#103 = CALENDAR_DATE ( 2019, 11, 1 ) ;
#104 = CARTESIAN_POINT ( 'NONE',  ( 17.03118698135775600, -25.70473792938386000, 4.576444819877477400 ) ) ;
#105 = SECURITY_CLASSIFICATION ( '', '', #276 ) ;
#106 = EDGE_CURVE ( 'NONE', #234, #146, #204, .T. ) ;
#107 = DIRECTION ( 'NONE',  ( 1.000000000000000000, 0.0000000000000000000, 0.0000000000000000000 ) ) ;
#108 = CARTESIAN_POINT ( 'NONE',  ( -8.519406759223789600, -8.570001453747682500, 5.106231190783761400 ) ) ;
#109 = CARTESIAN_POINT ( 'NONE',  ( 8.519406759223789600, 8.570001453747735800, -0.1062311907838653400 ) ) ;
#110 = CC_DESIGN_PERSON_AND_ORGANIZATION_ASSIGNMENT ( #148, #212, ( #32 ) ) ;
#111 = PRODUCT_DEFINITION_SHAPE ( 'NONE', 'NONE',  #32 ) ;
#112 = CARTESIAN_POINT ( 'NONE',  ( 9.992007221626412800E-016, 4.884981308350691100E-015, 0.3111170654910530600 ) ) ;
#113 = ORIENTED_EDGE ( 'NONE', *, *, #14, .T. ) ;
#114 = COORDINATED_UNIVERSAL_TIME_OFFSET ( 2, 0, .AHEAD. ) ;
#115 = CARTESIAN_POINT ( 'NONE',  ( 17.03118698135770300, 25.70473792938392100, 0.4235551801224170500 ) ) ;
#116 = APPROVAL ( #235, 'UNSPECIFIED' ) ;
#117 = FACE_OUTER_BOUND ( 'NONE', #170, .T. ) ;
#118 = ORIENTED_EDGE ( 'NONE', *, *, #262, .F. ) ;
#119 = CALENDAR_DATE ( 2019, 11, 1 ) ;
#120 = EDGE_CURVE ( 'NONE', #146, #56, #147, .T. ) ;
#121 = CARTESIAN_POINT ( 'NONE',  ( -25.55498684783448500, -8.570001453747703800, 0.2086625448885700800 ) ) ;
#122 = ORIENTED_EDGE ( 'NONE', *, *, #120, .F. ) ;
#123 = APPROVAL_ROLE ( '' ) ;
#124 = ORIENTED_EDGE ( 'NONE', *, *, #100, .T. ) ;
#125 = LOCAL_TIME ( 10, 42, 41.00000000000000000, #221 ) ;
#126 = CC_DESIGN_APPROVAL ( #116, ( #105 ) ) ;
#127 = CARTESIAN_POINT ( 'NONE',  ( -9.020562075079396900E-014, -8.570001453747686100, 5.106231190783765900 ) ) ;
#128 = CARTESIAN_POINT ( 'NONE',  ( 9.992007221626412800E-016, 4.884981308350691100E-015, 4.688882934508949800 ) ) ;
#129 = EDGE_CURVE ( 'NONE', #56, #234, #130, .T. ) ;
#130 = CIRCLE ( 'NONE', #222, 25.39999999999999900 ) ;
#131 = DIRECTION ( 'NONE',  ( 1.000000000000000000, 0.0000000000000000000, 0.0000000000000000000 ) ) ;
#132 = ORIENTED_EDGE ( 'NONE', *, *, #100, .F. ) ;
#133 = CC_DESIGN_PERSON_AND_ORGANIZATION_ASSIGNMENT ( #252, #275, ( #260 ) ) ;
#134 = COORDINATED_UNIVERSAL_TIME_OFFSET ( 2, 0, .AHEAD. ) ;
#135 = CARTESIAN_POINT ( 'NONE',  ( -17.03118698135769900, 25.70473792938393500, 4.576444819877476500 ) ) ;
#136 = AXIS2_PLACEMENT_3D ( 'NONE', #112, #59, #178 ) ;
#137 = ORIENTED_EDGE ( 'NONE', *, *, #249, .T. ) ;
#138 = CARTESIAN_POINT ( 'NONE',  ( 8.515916711016663100, 25.70473792938392100, 0.3186282912277516000 ) ) ;
#139 = DIRECTION ( 'NONE',  ( 1.000000000000000000, 0.0000000000000000000, 0.0000000000000000000 ) ) ;
#140 = ADVANCED_FACE ( 'NONE', ( #89 ), #214, .T. ) ;
#141 = DIRECTION ( 'NONE',  ( 1.000000000000000000, 0.0000000000000000000, 0.0000000000000000000 ) ) ;
#142 =( LENGTH_UNIT ( ) NAMED_UNIT ( * ) SI_UNIT ( .MILLI., .METRE. ) );
#143 = LINE ( 'NONE', #253, #76 ) ;
#144 = AXIS2_PLACEMENT_3D ( 'NONE', #288, #206, #141 ) ;
#145 = DIRECTION ( 'NONE',  ( -0.0000000000000000000, -0.0000000000000000000, -1.000000000000000000 ) ) ;
#146 = VERTEX_POINT ( 'NONE', #197 ) ;
#147 = CIRCLE ( 'NONE', #162, 1037.000000000000000 ) ;
#148 = PERSON_AND_ORGANIZATION ( #102, #154 ) ;
#149 = AXIS2_PLACEMENT_3D ( 'NONE', #8, #243, #139 ) ;
#150 = ORIENTED_EDGE ( 'NONE', *, *, #262, .T. ) ;
#151 = DIRECTION ( 'NONE',  ( -0.0000000000000000000, -0.0000000000000000000, -1.000000000000000000 ) ) ;
#152 = AXIS2_PLACEMENT_3D ( 'NONE', #20, #92, #186 ) ;
#153 = CARTESIAN_POINT ( 'NONE',  ( 25.39999999999999900, 4.884981308350691100E-015, 4.688882934508949800 ) ) ;
#154 = ORGANIZATION ( 'UNSPECIFIED', 'UNSPECIFIED', '' ) ;
#155 = PERSON_AND_ORGANIZATION ( #102, #154 ) ;
#156 = ORIENTED_EDGE ( 'NONE', *, *, #182, .F. ) ;
#157 = CARTESIAN_POINT ( 'NONE',  ( -25.55498684783417600, 8.570001453747755300, 4.791337455111333000 ) ) ;
#158 = ADVANCED_FACE ( 'NONE', ( #117 ), #2, .T. ) ;
#159 = CARTESIAN_POINT ( 'NONE',  ( 9.020562075079396900E-014, -25.70473792938388500, 0.3186282912277481600 ) ) ;
#160 = DIRECTION ( 'NONE',  ( 0.0000000000000000000, 0.0000000000000000000, 1.000000000000000000 ) ) ;
#161 = CARTESIAN_POINT ( 'NONE',  ( -17.03118698135775600, -25.70473792938387800, 0.4235551801224145000 ) ) ;
#162 = AXIS2_PLACEMENT_3D ( 'NONE', #285, #107, #269 ) ;
#163 = CARTESIAN_POINT ( 'NONE',  ( 25.39999999999999900, 4.884981308350691100E-015, 0.3111170654910530600 ) ) ;
#164 = APPLICATION_CONTEXT ( 'configuration controlled 3d designs of mechanical parts and assemblies' ) ;
#165 = AXIS2_PLACEMENT_3D ( 'NONE', #46, #160, #255 ) ;
#166 = APPROVAL_STATUS ( 'not_yet_approved' ) ;
#167 = ORIENTED_EDGE ( 'NONE', *, *, #106, .F. ) ;
#168 = DATE_TIME_ROLE ( 'creation_date' ) ;
#169 = EDGE_LOOP ( 'NONE', ( #85, #259, #132 ) ) ;
#170 = EDGE_LOOP ( 'NONE', ( #280, #226, #52 ) ) ;
#171 = CARTESIAN_POINT ( 'NONE',  ( 9.992007221626412800E-016, 4.884981308350691100E-015, 0.3111170654910530600 ) ) ;
#172 = DATE_AND_TIME ( #103, #205 ) ;
#173 = CARTESIAN_POINT ( 'NONE',  ( 25.54451802781542100, 25.70473792938393500, 4.366606972025177700 ) ) ;
#174 = CARTESIAN_POINT ( 'NONE',  ( 17.03816681284350700, -8.570001453747686100, 5.001261300071104400 ) ) ;
#175 = ORIENTED_EDGE ( 'NONE', *, *, #34, .F. ) ;
#176 = CARTESIAN_POINT ( 'NONE',  ( -25.55498684783417600, -8.570001453747686100, 4.791337455111334800 ) ) ;
#177 = DIRECTION ( 'NONE',  ( 1.000000000000000000, 0.0000000000000000000, 0.0000000000000000000 ) ) ;
#178 = DIRECTION ( 'NONE',  ( 1.000000000000000000, 0.0000000000000000000, 0.0000000000000000000 ) ) ;
#179 = MANIFOLD_SOLID_BREP ( 'Imported1', #290 ) ;
#180 = ADVANCED_FACE ( 'NONE', ( #16 ), #240, .T. ) ;
#181 = LINE ( 'NONE', #163, #261 ) ;
#182 = EDGE_CURVE ( 'NONE', #256, #266, #196, .T. ) ;
#183 = VERTEX_POINT ( 'NONE', #251 ) ;
#184 = CARTESIAN_POINT ( 'NONE',  ( 25.39999999999999900, 4.884981308350691100E-015, 0.3111170654910530600 ) ) ;
#185 = PERSON_AND_ORGANIZATION ( #102, #154 ) ;
#186 = DIRECTION ( 'NONE',  ( 0.0000000000000000000, -1.000000000000000000, 4.282441753616804200E-016 ) ) ;
#187 = VERTEX_POINT ( 'NONE', #90 ) ;
#188 = APPROVAL_ROLE ( '' ) ;
#189 = APPLICATION_CONTEXT ( 'configuration controlled 3d designs of mechanical parts and assemblies' ) ;
#190 = FACE_OUTER_BOUND ( 'NONE', #194, .T. ) ;
#191 = PERSON_AND_ORGANIZATION ( #102, #154 ) ;
#192 = CC_DESIGN_DATE_AND_TIME_ASSIGNMENT ( #18, #168, ( #32 ) ) ;
#193 =( GEOMETRIC_REPRESENTATION_CONTEXT ( 3 ) GLOBAL_UNCERTAINTY_ASSIGNED_CONTEXT ( ( #244 ) ) GLOBAL_UNIT_ASSIGNED_CONTEXT ( ( #142, #41, #274 ) ) REPRESENTATION_CONTEXT ( 'NONE', 'WORKASPACE' ) );
#194 = EDGE_LOOP ( 'NONE', ( #122, #68, #21 ) ) ;
#195 = CARTESIAN_POINT ( 'NONE',  ( 9.992007221626412800E-016, 4.884981308350691100E-015, 4.688882934508949800 ) ) ;
#196 = CIRCLE ( 'NONE', #152, 1037.000000000000000 ) ;
#197 = CARTESIAN_POINT ( 'NONE',  ( 3.410605131648479900E-013, -25.39999999999917800, 0.3111170654910409600 ) ) ;
#198 = CARTESIAN_POINT ( 'NONE',  ( 9.992007221626412800E-016, 4.884981308350691100E-015, 0.3111170654910530600 ) ) ;
#199 = CARTESIAN_POINT ( 'NONE',  ( 8.519406759223789600, -8.570001453747700300, -0.1062311907838685300 ) ) ;
#200 = CARTESIAN_POINT ( 'NONE',  ( 17.03816681284344300, -8.570001453747700300, -0.001261300071208210700 ) ) ;
#201 = CARTESIAN_POINT ( 'NONE',  ( -17.03816681284344300, -8.570001453747682500, 5.001261300071099900 ) ) ;
#202 = AXIS2_PLACEMENT_3D ( 'NONE', #128, #151, #238 ) ;
#203 = CARTESIAN_POINT ( 'NONE',  ( -25.54451802781542100, 25.70473792938391700, 0.6333930279747157500 ) ) ;
#204 = CIRCLE ( 'NONE', #277, 25.39999999999999900 ) ;
#205 = LOCAL_TIME ( 10, 42, 41.00000000000000000, #57 ) ;
#206 = DIRECTION ( 'NONE',  ( 0.0000000000000000000, 0.0000000000000000000, 1.000000000000000000 ) ) ;
#207 = CARTESIAN_POINT ( 'NONE',  ( 9.020562075079396900E-014, -8.570001453747703800, -0.1062311907838719300 ) ) ;
#208 = CC_DESIGN_PERSON_AND_ORGANIZATION_ASSIGNMENT ( #40, #22, ( #3 ) ) ;
#209 = CARTESIAN_POINT ( 'NONE',  ( -8.519406759223604900, 8.570001453747739400, -0.1062311907838666800 ) ) ;
#210 = ORIENTED_EDGE ( 'NONE', *, *, #14, .F. ) ;
#211 = CARTESIAN_POINT ( 'NONE',  ( -17.03816681284350700, 8.570001453747739400, -0.001261300071207479100 ) ) ;
#212 = PERSON_AND_ORGANIZATION_ROLE ( 'creator' ) ;
#213 = SHAPE_DEFINITION_REPRESENTATION ( #111, #281 ) ;
#214 =( BOUNDED_SURFACE ( )  B_SPLINE_SURFACE ( 3, 3, ( 
 ( #10, #223, #58, #36 ),
 ( #245, #108, #201, #176 ),
 ( #225, #86, #87, #157 ),
 ( #283, #242, #135, #9 ) ),
 .UNSPECIFIED., .F., .F., .T. ) 
 B_SPLINE_SURFACE_WITH_KNOTS ( ( 4, 4 ),
 ( 4, 4 ),
 ( 0.0000000000000000000, 1.000000000000000000 ),
 ( 0.0000000000000000000, 1.000000000000000000 ),
 .UNSPECIFIED. ) 
 GEOMETRIC_REPRESENTATION_ITEM ( )  RATIONAL_B_SPLINE_SURFACE ( (
 ( 1.000000000000000000, 0.9999493935339184300, 0.9999493935339184300, 1.000000000000000000),
 ( 0.9997951602113610600, 0.9997445641114972600, 0.9997445641114972600, 0.9997951602113610600),
 ( 0.9997951602113610600, 0.9997445641114972600, 0.9997445641114972600, 0.9997951602113610600),
 ( 1.000000000000000000, 0.9999493935339184300, 0.9999493935339184300, 1.000000000000000000) ) ) 
 REPRESENTATION_ITEM ( '' )  SURFACE ( )  );
#215 = APPLICATION_PROTOCOL_DEFINITION ( 'international standard', 'config_control_design', 1994, #164 ) ;
#216 = ORIENTED_EDGE ( 'NONE', *, *, #268, .F. ) ;
#217 = PERSON_AND_ORGANIZATION ( #102, #154 ) ;
#218 = CARTESIAN_POINT ( 'NONE',  ( 8.519406759223604900, -8.570001453747686100, 5.106231190783763200 ) ) ;
#219 = DIRECTION ( 'NONE',  ( -0.0000000000000000000, -0.0000000000000000000, -1.000000000000000000 ) ) ;
#220 = CARTESIAN_POINT ( 'NONE',  ( 8.515916711016480200, 25.70473792938393100, 4.681371708772142700 ) ) ;
#221 = COORDINATED_UNIVERSAL_TIME_OFFSET ( 2, 0, .AHEAD. ) ;
#222 = AXIS2_PLACEMENT_3D ( 'NONE', #64, #13, #37 ) ;
#223 = CARTESIAN_POINT ( 'NONE',  ( -8.515916711016663100, -25.70473792938386700, 4.681371708772141800 ) ) ;
#224 = AXIS2_PLACEMENT_3D ( 'NONE', #291, #145, #292 ) ;
#225 = CARTESIAN_POINT ( 'NONE',  ( -3.410605131648479400E-013, 8.570001453747755300, 5.106231190783758800 ) ) ;
#226 = ORIENTED_EDGE ( 'NONE', *, *, #120, .T. ) ;
#227 = CARTESIAN_POINT ( 'NONE',  ( 17.03816681284344300, 8.570001453747735800, -0.001261300071205012300 ) ) ;
#228 = APPROVAL_DATE_TIME ( #35, #116 ) ;
#229 = ADVANCED_FACE ( 'NONE', ( #25 ), #39, .T. ) ;
#230 = CC_DESIGN_PERSON_AND_ORGANIZATION_ASSIGNMENT ( #155, #49, ( #3 ) ) ;
#231 = CARTESIAN_POINT ( 'NONE',  ( -17.03118698135775600, 25.70473792938391400, 0.4235551801224145000 ) ) ;
#232 = CARTESIAN_POINT ( 'NONE',  ( 0.0000000000000000000, 0.0000000000000000000, 0.0000000000000000000 ) ) ;
#233 = APPLICATION_PROTOCOL_DEFINITION ( 'international standard', 'config_control_design', 1994, #189 ) ;
#234 = VERTEX_POINT ( 'NONE', #184 ) ;
#235 = APPROVAL_STATUS ( 'not_yet_approved' ) ;
#236 = ORIENTED_EDGE ( 'NONE', *, *, #249, .F. ) ;
#237 =( BOUNDED_SURFACE ( )  B_SPLINE_SURFACE ( 3, 3, ( 
 ( #79, #104, #4, #282 ),
 ( #6, #174, #218, #127 ),
 ( #33, #1, #28, #55 ),
 ( #173, #78, #220, #31 ) ),
 .UNSPECIFIED., .F., .F., .T. ) 
 B_SPLINE_SURFACE_WITH_KNOTS ( ( 4, 4 ),
 ( 4, 4 ),
 ( 0.0000000000000000000, 1.000000000000000000 ),
 ( 0.0000000000000000000, 1.000000000000000000 ),
 .UNSPECIFIED. ) 
 GEOMETRIC_REPRESENTATION_ITEM ( )  RATIONAL_B_SPLINE_SURFACE ( (
 ( 1.000000000000000000, 0.9999493935339183200, 0.9999493935339183200, 1.000000000000000000),
 ( 0.9997951602113610600, 0.9997445641114971500, 0.9997445641114971500, 0.9997951602113610600),
 ( 0.9997951602113610600, 0.9997445641114971500, 0.9997445641114971500, 0.9997951602113610600),
 ( 1.000000000000000000, 0.9999493935339183200, 0.9999493935339183200, 1.000000000000000000) ) ) 
 REPRESENTATION_ITEM ( '' )  SURFACE ( )  );
#238 = DIRECTION ( 'NONE',  ( 1.000000000000000000, 8.881784197001252300E-016, 0.0000000000000000000 ) ) ;
#239 = CARTESIAN_POINT ( 'NONE',  ( 3.410605131648479900E-013, 25.39999999999929500, 0.3111170654910409600 ) ) ;
#240 = CYLINDRICAL_SURFACE ( 'NONE', #144, 25.39999999999999900 ) ;
#241 = LOCAL_TIME ( 10, 42, 41.00000000000000000, #278 ) ;
#242 = CARTESIAN_POINT ( 'NONE',  ( -8.515916711016663100, 25.70473792938393500, 4.681371708772141800 ) ) ;
#243 = DIRECTION ( 'NONE',  ( -0.0000000000000000000, -0.0000000000000000000, -1.000000000000000000 ) ) ;
#244 = UNCERTAINTY_MEASURE_WITH_UNIT (LENGTH_MEASURE( 1.000000000000000100E-005 ), #142, 'distance_accuracy_value', 'NONE');
#245 = CARTESIAN_POINT ( 'NONE',  ( -3.410605131648479400E-013, -8.570001453747686100, 5.106231190783761400 ) ) ;
#246 = CARTESIAN_POINT ( 'NONE',  ( 3.410605131648479900E-013, -25.70473792938388500, 0.3186282912277516000 ) ) ;
#247 = ADVANCED_FACE ( 'NONE', ( #190 ), #54, .T. ) ;
#248 = DESIGN_CONTEXT ( 'detailed design', #164, 'design' ) ;
#249 = EDGE_CURVE ( 'NONE', #95, #256, #81, .T. ) ;
#250 = CIRCLE ( 'NONE', #202, 25.39999999999999900 ) ;
#251 = CARTESIAN_POINT ( 'NONE',  ( -25.39999999999999900, 7.995584178184967200E-015, 4.688882934508949800 ) ) ;
#252 = PERSON_AND_ORGANIZATION ( #102, #154 ) ;
#253 = CARTESIAN_POINT ( 'NONE',  ( -25.39999999999999900, 7.995584178184967200E-015, 0.3111170654910530600 ) ) ;
#254 = CC_DESIGN_PERSON_AND_ORGANIZATION_ASSIGNMENT ( #217, #99, ( #105 ) ) ;
#255 = DIRECTION ( 'NONE',  ( 1.000000000000000000, 0.0000000000000000000, 0.0000000000000000000 ) ) ;
#256 = VERTEX_POINT ( 'NONE', #286 ) ;
#257 = CIRCLE ( 'NONE', #136, 25.39999999999999900 ) ;
#258 = DATE_AND_TIME ( #50, #96 ) ;
#259 = ORIENTED_EDGE ( 'NONE', *, *, #182, .T. ) ;
#260 = PRODUCT ( '111-0544E BK7 bi-cx 50.8 F1000', '111-0544E BK7 bi-cx 50.8 F1000', '', ( #75 ) ) ;
#261 = VECTOR ( 'NONE', #287, 1000.000000000000000 ) ;
#262 = EDGE_CURVE ( 'NONE', #187, #183, #143, .T. ) ;
#263 = DATE_AND_TIME ( #91, #241 ) ;
#264 = APPROVAL ( #294, 'UNSPECIFIED' ) ;
#265 = CARTESIAN_POINT ( 'NONE',  ( 8.515916711016663100, -25.70473792938388500, 0.3186282912277516000 ) ) ;
#266 = VERTEX_POINT ( 'NONE', #94 ) ;
#267 = CARTESIAN_POINT ( 'NONE',  ( 3.410605131648479900E-013, 25.70473792938391700, 0.3186282912277516000 ) ) ;
#268 = EDGE_CURVE ( 'NONE', #234, #95, #181, .T. ) ;
#269 = DIRECTION ( 'NONE',  ( 0.0000000000000000000, -1.000000000000000000, -8.564883507233608400E-016 ) ) ;
#270 = PERSON_AND_ORGANIZATION ( #102, #154 ) ;
#271 = CC_DESIGN_DATE_AND_TIME_ASSIGNMENT ( #258, #74, ( #105 ) ) ;
#272 = CARTESIAN_POINT ( 'NONE',  ( 9.020562075079396900E-014, 8.570001453747737600, -0.1062311907838687200 ) ) ;
#273 = LOCAL_TIME ( 10, 42, 41.00000000000000000, #134 ) ;
#274 =( NAMED_UNIT ( * ) SI_UNIT ( $, .STERADIAN. ) SOLID_ANGLE_UNIT ( ) );
#275 = PERSON_AND_ORGANIZATION_ROLE ( 'design_owner' ) ;
#276 = SECURITY_CLASSIFICATION_LEVEL ( 'unclassified' ) ;
#277 = AXIS2_PLACEMENT_3D ( 'NONE', #198, #62, #177 ) ;
#278 = COORDINATED_UNIVERSAL_TIME_OFFSET ( 2, 0, .AHEAD. ) ;
#279 = AXIS2_PLACEMENT_3D ( 'NONE', #232, #97, #24 ) ;
#280 = ORIENTED_EDGE ( 'NONE', *, *, #106, .T. ) ;
#281 = ADVANCED_BREP_SHAPE_REPRESENTATION ( '111-0544E BK7 bi-cx 50.8 F1000', ( #179, #279 ), #193 ) ;
#282 = CARTESIAN_POINT ( 'NONE',  ( -8.673617379884035500E-014, -25.70473792938386700, 4.681371708772144500 ) ) ;
#283 = CARTESIAN_POINT ( 'NONE',  ( -3.410605131648479900E-013, 25.70473792938393500, 4.681371708772141800 ) ) ;
#284 = CARTESIAN_POINT ( 'NONE',  ( 17.03118698135769900, -25.70473792938388500, 0.4235551801224171100 ) ) ;
#285 = CARTESIAN_POINT ( 'NONE',  ( 3.410605131648479900E-013, 1.136868377216160000E-013, 1037.000000000000000 ) ) ;
#286 = CARTESIAN_POINT ( 'NONE',  ( -3.410605131648479900E-013, -25.39999999999918100, 4.688882934508907100 ) ) ;
#287 = DIRECTION ( 'NONE',  ( 0.0000000000000000000, 0.0000000000000000000, 1.000000000000000000 ) ) ;
#288 = CARTESIAN_POINT ( 'NONE',  ( 9.992007221626412800E-016, 4.884981308350691100E-015, 0.3111170654910530600 ) ) ;
#289 = CIRCLE ( 'NONE', #149, 25.39999999999999900 ) ;
#290 = CLOSED_SHELL ( 'NONE', ( #158, #140, #229, #247, #180, #66 ) ) ;
#291 = CARTESIAN_POINT ( 'NONE',  ( 9.992007221626412800E-016, 4.884981308350691100E-015, 4.688882934508949800 ) ) ;
#292 = DIRECTION ( 'NONE',  ( 1.000000000000000000, 0.0000000000000000000, 0.0000000000000000000 ) ) ;
#293 = EDGE_LOOP ( 'NONE', ( #156, #236, #210 ) ) ;
#294 = APPROVAL_STATUS ( 'not_yet_approved' ) ;
#295 = FACE_OUTER_BOUND ( 'NONE', #293, .T. ) ;
ENDSEC;
END-ISO-10303-21;
