ISO-10303-21;
HEADER;
FILE_DESCRIPTION (( 'STEP AP203' ),
    '1' );
FILE_NAME ('111-0534E BK7 bi-cx 50.8 F750.STEP',
    '2019-01-11T08:35:24',
    ( '' ),
    ( '' ),
    'SwSTEP 2.0',
    'SolidWorks 2017',
    '' );
FILE_SCHEMA (( 'CONFIG_CONTROL_DESIGN' ));
ENDSEC;

DATA;
#1 = EDGE_LOOP ( 'NONE', ( #191, #167, #204 ) ) ;
#2 = CARTESIAN_POINT ( 'NONE',  ( 8.514706710884855300, -25.70468947536165800, 0.4251877545364798300 ) ) ;
#3 = FACE_OUTER_BOUND ( 'NONE', #186, .T. ) ;
#4 = CARTESIAN_POINT ( 'NONE',  ( -7.618042325453621700E-015, -8.571355949317954500, -0.1417809615212008700 ) ) ;
#5 = ORIENTED_EDGE ( 'NONE', *, *, #105, .T. ) ;
#6 = CARTESIAN_POINT ( 'NONE',  ( 25.53836614484307800, -25.70468947536164700, 4.154880704454022600 ) ) ;
#7 = AXIS2_PLACEMENT_3D ( 'NONE', #193, #289, #245 ) ;
#8 = CARTESIAN_POINT ( 'NONE',  ( 8.514706710885288700, -25.70468947536165400, 4.574812245463483900 ) ) ;
#9 = CARTESIAN_POINT ( 'NONE',  ( 17.02826256198702400, 25.70468947536189600, 4.434822450981479300 ) ) ;
#10 = LOCAL_TIME ( 10, 35, 24.00000000000000000, #185 ) ;
#11 = VERTEX_POINT ( 'NONE', #184 ) ;
#12 = DIRECTION ( 'NONE',  ( 1.000000000000000000, -8.881784197001252300E-016, 0.0000000000000000000 ) ) ;
#13 = CARTESIAN_POINT ( 'NONE',  ( -8.514706710885077400, -25.70468947536165800, 0.4251877545365241900 ) ) ;
#14 = EDGE_CURVE ( 'NONE', #103, #178, #165, .T. ) ;
#15 = CARTESIAN_POINT ( 'NONE',  ( -8.520921603869981100, 8.571355949318189000, -0.1417809615211592100 ) ) ;
#16 = DIRECTION ( 'NONE',  ( 1.000000000000000000, 9.042157508910800100E-032, -3.023016690007529900E-016 ) ) ;
#17 = ORIENTED_EDGE ( 'NONE', *, *, #83, .F. ) ;
#18 = DIRECTION ( 'NONE',  ( 0.0000000000000000000, -1.000000000000000000, -2.856981535319496500E-016 ) ) ;
#19 = COORDINATED_UNIVERSAL_TIME_OFFSET ( 2, 0, .AHEAD. ) ;
#20 = AXIS2_PLACEMENT_3D ( 'NONE', #36, #149, #104 ) ;
#21 = ADVANCED_FACE ( 'NONE', ( #57 ), #113, .T. ) ;
#22 = PERSON_AND_ORGANIZATION ( #136, #143 ) ;
#23 = EDGE_CURVE ( 'NONE', #178, #11, #243, .T. ) ;
#24 = ORIENTED_EDGE ( 'NONE', *, *, #141, .T. ) ;
#25 = CARTESIAN_POINT ( 'NONE',  ( -17.02826256198652300, -25.70468947536166100, 4.434822450981464200 ) ) ;
#26 = DIRECTION ( 'NONE',  ( 0.0000000000000000000, 0.0000000000000000000, 1.000000000000000000 ) ) ;
#27 = COORDINATED_UNIVERSAL_TIME_OFFSET ( 2, 0, .AHEAD. ) ;
#28 = CARTESIAN_POINT ( 'NONE',  ( -25.55700662395585400, -8.571355949317961600, 4.721542912057916700 ) ) ;
#29 = ORIENTED_EDGE ( 'NONE', *, *, #86, .T. ) ;
#30 = VERTEX_POINT ( 'NONE', #49 ) ;
#31 = CARTESIAN_POINT ( 'NONE',  ( 17.04069150794269700, -8.571355949317954500, -0.001688988347462480200 ) ) ;
#32 = CARTESIAN_POINT ( 'NONE',  ( 25.55700662395584600, -8.571355949317954500, 0.2784570879420942800 ) ) ;
#33 = CARTESIAN_POINT ( 'NONE',  ( -25.39999999999999900, 7.995584178184967200E-015, 4.584835073394049900 ) ) ;
#34 = CARTESIAN_POINT ( 'NONE',  ( 2.006451442303168400E-013, 25.40000000000147700, 4.584835073393980700 ) ) ;
#35 = CARTESIAN_POINT ( 'NONE',  ( 8.520921603870187200, 8.571355949318190800, 5.141780961521167400 ) ) ;
#36 = CARTESIAN_POINT ( 'NONE',  ( 9.992007221626412800E-016, 4.884981308350691100E-015, 0.4151649266059480000 ) ) ;
#37 = LOCAL_TIME ( 10, 35, 24.00000000000000000, #19 ) ;
#38 = CARTESIAN_POINT ( 'NONE',  ( -1.908195823574487800E-013, -8.571355949317954500, -0.1417809615211635700 ) ) ;
#39 = ADVANCED_FACE ( 'NONE', ( #249 ), #119, .T. ) ;
#40 =( BOUNDED_SURFACE ( )  B_SPLINE_SURFACE ( 3, 3, ( 
 ( #6, #263, #8, #260 ),
 ( #123, #280, #120, #279 ),
 ( #237, #238, #35, #171 ),
 ( #148, #9, #56, #216 ) ),
 .UNSPECIFIED., .F., .F., .F. ) 
 B_SPLINE_SURFACE_WITH_KNOTS ( ( 4, 4 ),
 ( 4, 4 ),
 ( 0.0000000000000000000, 1.000000000000000000 ),
 ( 0.0000000000000000000, 1.000000000000000000 ),
 .UNSPECIFIED. ) 
 GEOMETRIC_REPRESENTATION_ITEM ( )  RATIONAL_B_SPLINE_SURFACE ( (
 ( 1.000000000000000000, 0.9999098923918966500, 0.9999098923918966500, 1.000000000000000000),
 ( 0.9996352824201952800, 0.9995452076759207000, 0.9995452076759207000, 0.9996352824201952800),
 ( 0.9996352824201952800, 0.9995452076759207000, 0.9995452076759207000, 0.9996352824201952800),
 ( 1.000000000000000000, 0.9999098923918966500, 0.9999098923918966500, 1.000000000000000000) ) ) 
 REPRESENTATION_ITEM ( '' )  SURFACE ( )  );
#41 = SECURITY_CLASSIFICATION ( '', '', #133 ) ;
#42 = LOCAL_TIME ( 10, 35, 24.00000000000000000, #64 ) ;
#43 = CIRCLE ( 'NONE', #244, 25.39999999999999900 ) ;
#44 = PERSON_AND_ORGANIZATION_ROLE ( 'design_supplier' ) ;
#45 = VERTEX_POINT ( 'NONE', #117 ) ;
#46 = DATE_AND_TIME ( #55, #275 ) ;
#47 = PRODUCT_DEFINITION ( 'UNKNOWN', '', #144, #259 ) ;
#48 = CARTESIAN_POINT ( 'NONE',  ( 2.111186621923617100E-013, -8.571355949317954500, 5.141780961521204700 ) ) ;
#49 = CARTESIAN_POINT ( 'NONE',  ( 2.158399528786127800E-013, -25.40000000000136300, 4.584835073393980700 ) ) ;
#50 = DATE_AND_TIME ( #253, #42 ) ;
#51 = VERTEX_POINT ( 'NONE', #33 ) ;
#52 = CARTESIAN_POINT ( 'NONE',  ( -25.53836614484262700, 25.70468947536188500, 4.154880704454015500 ) ) ;
#53 = DIRECTION ( 'NONE',  ( 1.000000000000000000, 0.0000000000000000000, 0.0000000000000000000 ) ) ;
#54 = CARTESIAN_POINT ( 'NONE',  ( -7.449676653929656000E-015, 25.40000000000147700, 0.4151649266060205000 ) ) ;
#55 = CALENDAR_DATE ( 2019, 11, 1 ) ;
#56 = CARTESIAN_POINT ( 'NONE',  ( 8.514706710885274500, 25.70468947536189600, 4.574812245463483900 ) ) ;
#57 = FACE_OUTER_BOUND ( 'NONE', #1, .T. ) ;
#58 = CARTESIAN_POINT ( 'NONE',  ( -17.02826256198682800, 25.70468947536189200, 0.5651775490185270100 ) ) ;
#59 = FACE_OUTER_BOUND ( 'NONE', #124, .T. ) ;
#60 = CARTESIAN_POINT ( 'NONE',  ( -1.908195823574487800E-013, 8.571355949318190800, -0.1417809615211637900 ) ) ;
#61 = CARTESIAN_POINT ( 'NONE',  ( -25.53836614484287200, -25.70468947536165400, 0.8451192955459818600 ) ) ;
#62 =( BOUNDED_SURFACE ( )  B_SPLINE_SURFACE ( 3, 3, ( 
 ( #61, #265, #13, #218 ),
 ( #126, #288, #79, #38 ),
 ( #291, #151, #15, #60 ),
 ( #157, #58, #222, #242 ) ),
 .UNSPECIFIED., .F., .F., .T. ) 
 B_SPLINE_SURFACE_WITH_KNOTS ( ( 4, 4 ),
 ( 4, 4 ),
 ( 0.0000000000000000000, 1.000000000000000000 ),
 ( 0.0000000000000000000, 1.000000000000000000 ),
 .UNSPECIFIED. ) 
 GEOMETRIC_REPRESENTATION_ITEM ( )  RATIONAL_B_SPLINE_SURFACE ( (
 ( 1.000000000000000000, 0.9999098923918966500, 0.9999098923918966500, 1.000000000000000000),
 ( 0.9996352824201952800, 0.9995452076759207000, 0.9995452076759207000, 0.9996352824201952800),
 ( 0.9996352824201952800, 0.9995452076759207000, 0.9995452076759207000, 0.9996352824201952800),
 ( 1.000000000000000000, 0.9999098923918966500, 0.9999098923918966500, 1.000000000000000000) ) ) 
 REPRESENTATION_ITEM ( '' )  SURFACE ( )  );
#63 =( GEOMETRIC_REPRESENTATION_CONTEXT ( 3 ) GLOBAL_UNCERTAINTY_ASSIGNED_CONTEXT ( ( #207 ) ) GLOBAL_UNIT_ASSIGNED_CONTEXT ( ( #290, #82, #154 ) ) REPRESENTATION_CONTEXT ( 'NONE', 'WORKASPACE' ) );
#64 = COORDINATED_UNIVERSAL_TIME_OFFSET ( 2, 0, .AHEAD. ) ;
#65 = CIRCLE ( 'NONE', #155, 25.39999999999999900 ) ;
#66 = APPROVAL ( #159, 'UNSPECIFIED' ) ;
#67 = VERTEX_POINT ( 'NONE', #34 ) ;
#68 = LOCAL_TIME ( 10, 35, 24.00000000000000000, #150 ) ;
#69 = CARTESIAN_POINT ( 'NONE',  ( -8.514706710884731000, 25.70468947536188900, 4.574812245463526500 ) ) ;
#70 = VERTEX_POINT ( 'NONE', #189 ) ;
#71 = ORIENTED_EDGE ( 'NONE', *, *, #23, .T. ) ;
#72 = EDGE_CURVE ( 'NONE', #11, #30, #234, .T. ) ;
#73 = CC_DESIGN_SECURITY_CLASSIFICATION ( #41, ( #144 ) ) ;
#74 = APPROVAL_PERSON_ORGANIZATION ( #285, #166, #162 ) ;
#75 = EDGE_LOOP ( 'NONE', ( #212, #102, #272, #71, #132, #29 ) ) ;
#76 = CARTESIAN_POINT ( 'NONE',  ( 9.992007221626412800E-016, 4.884981308350691100E-015, 0.4151649266059480000 ) ) ;
#77 = CARTESIAN_POINT ( 'NONE',  ( -2.273736754432320100E-013, 1.136868377216160000E-013, -772.2000000000001600 ) ) ;
#78 = PERSON_AND_ORGANIZATION ( #136, #143 ) ;
#79 = CARTESIAN_POINT ( 'NONE',  ( -8.520921603869981100, -8.571355949317954500, -0.1417809615211589900 ) ) ;
#80 = PERSON_AND_ORGANIZATION ( #136, #143 ) ;
#81 = DIRECTION ( 'NONE',  ( 0.0000000000000000000, 0.0000000000000000000, 1.000000000000000000 ) ) ;
#82 =( NAMED_UNIT ( * ) PLANE_ANGLE_UNIT ( ) SI_UNIT ( $, .RADIAN. ) );
#83 = EDGE_CURVE ( 'NONE', #45, #103, #65, .T. ) ;
#84 = ORIENTED_EDGE ( 'NONE', *, *, #147, .T. ) ;
#85 = ADVANCED_FACE ( 'NONE', ( #3 ), #40, .T. ) ;
#86 = EDGE_CURVE ( 'NONE', #30, #51, #128, .T. ) ;
#87 = APPROVAL_DATE_TIME ( #142, #227 ) ;
#88 = EDGE_CURVE ( 'NONE', #67, #11, #43, .T. ) ;
#89 = CC_DESIGN_PERSON_AND_ORGANIZATION_ASSIGNMENT ( #271, #135, ( #41 ) ) ;
#90 = ORIENTED_EDGE ( 'NONE', *, *, #23, .F. ) ;
#91 = CARTESIAN_POINT ( 'NONE',  ( -8.520921603869629400, -8.571355949317954500, 5.141780961521210000 ) ) ;
#92 = CARTESIAN_POINT ( 'NONE',  ( -8.514706710884716800, -25.70468947536166100, 4.574812245463526500 ) ) ;
#93 = ADVANCED_BREP_SHAPE_REPRESENTATION ( '111-0534E BK7 bi-cx 50.8 F750', ( #224, #206 ), #63 ) ;
#94 = CARTESIAN_POINT ( 'NONE',  ( 25.53836614484260900, -25.70468947536165400, 0.8451192955459953000 ) ) ;
#95 = DIRECTION ( 'NONE',  ( 1.000000000000000000, 1.776356839400250500E-015, 0.0000000000000000000 ) ) ;
#96 = CYLINDRICAL_SURFACE ( 'NONE', #108, 25.39999999999999900 ) ;
#97 = DIRECTION ( 'NONE',  ( -0.0000000000000000000, -0.0000000000000000000, -1.000000000000000000 ) ) ;
#98 = DIRECTION ( 'NONE',  ( -0.0000000000000000000, -0.0000000000000000000, -1.000000000000000000 ) ) ;
#99 = PERSON_AND_ORGANIZATION ( #136, #143 ) ;
#100 = EDGE_CURVE ( 'NONE', #45, #51, #173, .T. ) ;
#101 = CARTESIAN_POINT ( 'NONE',  ( 8.520921603869764400, -8.571355949317954500, -0.1417809615212034500 ) ) ;
#102 = ORIENTED_EDGE ( 'NONE', *, *, #147, .F. ) ;
#103 = VERTEX_POINT ( 'NONE', #54 ) ;
#104 = DIRECTION ( 'NONE',  ( 1.000000000000000000, 0.0000000000000000000, 0.0000000000000000000 ) ) ;
#105 = EDGE_CURVE ( 'NONE', #178, #70, #118, .T. ) ;
#106 = APPLICATION_CONTEXT ( 'configuration controlled 3d designs of mechanical parts and assemblies' ) ;
#107 = CC_DESIGN_DATE_AND_TIME_ASSIGNMENT ( #50, #181, ( #41 ) ) ;
#108 = AXIS2_PLACEMENT_3D ( 'NONE', #241, #268, #127 ) ;
#109 = VECTOR ( 'NONE', #236, 1000.000000000000000 ) ;
#110 = ORIENTED_EDGE ( 'NONE', *, *, #264, .T. ) ;
#111 = APPROVAL_STATUS ( 'not_yet_approved' ) ;
#112 = FACE_OUTER_BOUND ( 'NONE', #75, .T. ) ;
#113 =( BOUNDED_SURFACE ( )  B_SPLINE_SURFACE ( 3, 3, ( 
 ( #276, #92, #25, #278 ),
 ( #48, #91, #251, #28 ),
 ( #188, #205, #233, #232 ),
 ( #115, #69, #211, #52 ) ),
 .UNSPECIFIED., .F., .F., .F. ) 
 B_SPLINE_SURFACE_WITH_KNOTS ( ( 4, 4 ),
 ( 4, 4 ),
 ( 0.0000000000000000000, 1.000000000000000000 ),
 ( 0.0000000000000000000, 1.000000000000000000 ),
 .UNSPECIFIED. ) 
 GEOMETRIC_REPRESENTATION_ITEM ( )  RATIONAL_B_SPLINE_SURFACE ( (
 ( 1.000000000000000000, 0.9999098923918966500, 0.9999098923918966500, 1.000000000000000000),
 ( 0.9996352824201952800, 0.9995452076759207000, 0.9995452076759207000, 0.9996352824201952800),
 ( 0.9996352824201952800, 0.9995452076759207000, 0.9995452076759207000, 0.9996352824201952800),
 ( 1.000000000000000000, 0.9999098923918966500, 0.9999098923918966500, 1.000000000000000000) ) ) 
 REPRESENTATION_ITEM ( '' )  SURFACE ( )  );
#114 = ORIENTED_EDGE ( 'NONE', *, *, #100, .T. ) ;
#115 = CARTESIAN_POINT ( 'NONE',  ( 2.005483876963859700E-013, 25.70468947536189200, 4.574812245463522100 ) ) ;
#116 = CARTESIAN_POINT ( 'NONE',  ( -7.446646736318168600E-015, -25.70468947536165400, 0.4251877545364823900 ) ) ;
#117 = CARTESIAN_POINT ( 'NONE',  ( -25.39999999999999900, 7.995584178184967200E-015, 0.4151649266059480000 ) ) ;
#118 = CIRCLE ( 'NONE', #225, 25.39999999999999900 ) ;
#119 =( BOUNDED_SURFACE ( )  B_SPLINE_SURFACE ( 3, 3, ( 
 ( #116, #2, #187, #94 ),
 ( #4, #101, #31, #32 ),
 ( #256, #261, #192, #214 ),
 ( #122, #215, #284, #172 ) ),
 .UNSPECIFIED., .F., .F., .F. ) 
 B_SPLINE_SURFACE_WITH_KNOTS ( ( 4, 4 ),
 ( 4, 4 ),
 ( 0.0000000000000000000, 1.000000000000000000 ),
 ( 0.0000000000000000000, 1.000000000000000000 ),
 .UNSPECIFIED. ) 
 GEOMETRIC_REPRESENTATION_ITEM ( )  RATIONAL_B_SPLINE_SURFACE ( (
 ( 1.000000000000000000, 0.9999098923918966500, 0.9999098923918966500, 1.000000000000000000),
 ( 0.9996352824201952800, 0.9995452076759207000, 0.9995452076759207000, 0.9996352824201952800),
 ( 0.9996352824201952800, 0.9995452076759207000, 0.9995452076759207000, 0.9996352824201952800),
 ( 1.000000000000000000, 0.9999098923918966500, 0.9999098923918966500, 1.000000000000000000) ) ) 
 REPRESENTATION_ITEM ( '' )  SURFACE ( )  );
#120 = CARTESIAN_POINT ( 'NONE',  ( 8.520921603870190700, -8.571355949317952700, 5.141780961521167400 ) ) ;
#121 = CC_DESIGN_DATE_AND_TIME_ASSIGNMENT ( #202, #197, ( #47 ) ) ;
#122 = CARTESIAN_POINT ( 'NONE',  ( -7.446646736318168600E-015, 25.70468947536189200, 0.4251877545364823900 ) ) ;
#123 = CARTESIAN_POINT ( 'NONE',  ( 25.55700662395631200, -8.571355949317947400, 4.721542912057923800 ) ) ;
#124 = EDGE_LOOP ( 'NONE', ( #17, #114, #24, #247, #90, #196 ) ) ;
#125 = CARTESIAN_POINT ( 'NONE',  ( 9.992007221626412800E-016, 4.884981308350691100E-015, 0.4151649266059480000 ) ) ;
#126 = CARTESIAN_POINT ( 'NONE',  ( -25.55700662395610900, -8.571355949317954500, 0.2784570879420807900 ) ) ;
#127 = DIRECTION ( 'NONE',  ( 1.000000000000000000, 0.0000000000000000000, 0.0000000000000000000 ) ) ;
#128 = CIRCLE ( 'NONE', #231, 25.39999999999999900 ) ;
#129 = DIRECTION ( 'NONE',  ( 1.000000000000000000, 0.0000000000000000000, 0.0000000000000000000 ) ) ;
#130 = PERSON_AND_ORGANIZATION_ROLE ( 'creator' ) ;
#131 = PERSON_AND_ORGANIZATION ( #136, #143 ) ;
#132 = ORIENTED_EDGE ( 'NONE', *, *, #72, .T. ) ;
#133 = SECURITY_CLASSIFICATION_LEVEL ( 'unclassified' ) ;
#134 = CC_DESIGN_APPROVAL ( #66, ( #47 ) ) ;
#135 = PERSON_AND_ORGANIZATION_ROLE ( 'classification_officer' ) ;
#136 = PERSON ( 'UNSPECIFIED', 'UNSPECIFIED', 'UNSPECIFIED', ('UNSPECIFIED'), ('UNSPECIFIED'), ('UNSPECIFIED') ) ;
#137 = APPROVAL_DATE_TIME ( #195, #166 ) ;
#138 = EDGE_CURVE ( 'NONE', #30, #67, #287, .T. ) ;
#139 = APPROVAL_PERSON_ORGANIZATION ( #131, #227, #292 ) ;
#140 = CLOSED_SHELL ( 'NONE', ( #39, #21, #160, #199, #230, #85 ) ) ;
#141 = EDGE_CURVE ( 'NONE', #51, #67, #177, .T. ) ;
#142 = DATE_AND_TIME ( #281, #10 ) ;
#143 = ORGANIZATION ( 'UNSPECIFIED', 'UNSPECIFIED', '' ) ;
#144 = PRODUCT_DEFINITION_FORMATION_WITH_SPECIFIED_SOURCE ( 'ANY', '', #179, .NOT_KNOWN. ) ;
#145 = CARTESIAN_POINT ( 'NONE',  ( 9.992007221626412800E-016, 4.884981308350691100E-015, 4.584835073394049900 ) ) ;
#146 = DIRECTION ( 'NONE',  ( -0.0000000000000000000, -0.0000000000000000000, -1.000000000000000000 ) ) ;
#147 = EDGE_CURVE ( 'NONE', #70, #45, #229, .T. ) ;
#148 = CARTESIAN_POINT ( 'NONE',  ( 25.53836614484306400, 25.70468947536189900, 4.154880704454022600 ) ) ;
#149 = DIRECTION ( 'NONE',  ( 0.0000000000000000000, 0.0000000000000000000, 1.000000000000000000 ) ) ;
#150 = COORDINATED_UNIVERSAL_TIME_OFFSET ( 2, 0, .AHEAD. ) ;
#151 = CARTESIAN_POINT ( 'NONE',  ( -17.04069150794293500, 8.571355949318189000, -0.001688988347484760600 ) ) ;
#152 = CC_DESIGN_PERSON_AND_ORGANIZATION_ASSIGNMENT ( #22, #44, ( #144 ) ) ;
#153 = EDGE_LOOP ( 'NONE', ( #262, #84, #158 ) ) ;
#154 =( NAMED_UNIT ( * ) SI_UNIT ( $, .STERADIAN. ) SOLID_ANGLE_UNIT ( ) );
#155 = AXIS2_PLACEMENT_3D ( 'NONE', #76, #98, #12 ) ;
#156 = DIRECTION ( 'NONE',  ( 2.991104064625021400E-016, -1.000000000000000000, 2.856981535319496500E-016 ) ) ;
#157 = CARTESIAN_POINT ( 'NONE',  ( -25.53836614484287200, 25.70468947536189200, 0.8451192955459818600 ) ) ;
#158 = ORIENTED_EDGE ( 'NONE', *, *, #83, .T. ) ;
#159 = APPROVAL_STATUS ( 'not_yet_approved' ) ;
#160 = ADVANCED_FACE ( 'NONE', ( #59 ), #219, .T. ) ;
#161 = APPROVAL_ROLE ( '' ) ;
#162 = APPROVAL_ROLE ( '' ) ;
#163 = CARTESIAN_POINT ( 'NONE',  ( 25.39999999999999900, 4.884981308350691100E-015, 0.4151649266059480000 ) ) ;
#164 = APPROVAL_DATE_TIME ( #46, #66 ) ;
#165 = CIRCLE ( 'NONE', #293, 25.39999999999999900 ) ;
#166 = APPROVAL ( #200, 'UNSPECIFIED' ) ;
#167 = ORIENTED_EDGE ( 'NONE', *, *, #138, .T. ) ;
#168 = DIRECTION ( 'NONE',  ( -0.0000000000000000000, -0.0000000000000000000, -1.000000000000000000 ) ) ;
#169 = PRODUCT_DEFINITION_SHAPE ( 'NONE', 'NONE',  #47 ) ;
#170 = DIRECTION ( 'NONE',  ( 1.000000000000000000, 8.881784197001252300E-016, 0.0000000000000000000 ) ) ;
#171 = CARTESIAN_POINT ( 'NONE',  ( 3.955169525227119700E-013, 8.571355949318190800, 5.141780961521174500 ) ) ;
#172 = CARTESIAN_POINT ( 'NONE',  ( 25.53836614484260900, 25.70468947536189200, 0.8451192955459954100 ) ) ;
#173 = LINE ( 'NONE', #213, #109 ) ;
#174 = CARTESIAN_POINT ( 'NONE',  ( 9.992007221626412800E-016, 4.884981308350691100E-015, 0.4151649266059480000 ) ) ;
#175 = DIRECTION ( 'NONE',  ( -0.0000000000000000000, -0.0000000000000000000, -1.000000000000000000 ) ) ;
#176 = CARTESIAN_POINT ( 'NONE',  ( 25.39999999999999900, 4.884981308350691100E-015, 0.4151649266059480000 ) ) ;
#177 = CIRCLE ( 'NONE', #7, 25.39999999999999900 ) ;
#178 = VERTEX_POINT ( 'NONE', #176 ) ;
#179 = PRODUCT ( '111-0534E BK7 bi-cx 50.8 F750', '111-0534E BK7 bi-cx 50.8 F750', '', ( #248 ) ) ;
#180 = CC_DESIGN_PERSON_AND_ORGANIZATION_ASSIGNMENT ( #78, #130, ( #144 ) ) ;
#181 = DATE_TIME_ROLE ( 'classification_date' ) ;
#182 = EDGE_LOOP ( 'NONE', ( #5, #110, #266 ) ) ;
#183 = CC_DESIGN_APPROVAL ( #166, ( #41 ) ) ;
#184 = CARTESIAN_POINT ( 'NONE',  ( 25.39999999999999900, 4.884981308350691100E-015, 4.584835073394049900 ) ) ;
#185 = COORDINATED_UNIVERSAL_TIME_OFFSET ( 2, 0, .AHEAD. ) ;
#186 = EDGE_LOOP ( 'NONE', ( #198, #239, #267 ) ) ;
#187 = CARTESIAN_POINT ( 'NONE',  ( 17.02826256198659000, -25.70468947536165800, 0.5651775490185491100 ) ) ;
#188 = CARTESIAN_POINT ( 'NONE',  ( 2.059910986684910600E-013, 8.571355949318190800, 5.141780961521204700 ) ) ;
#189 = CARTESIAN_POINT ( 'NONE',  ( -7.449676653929656000E-015, -25.40000000000136300, 0.4151649266060205000 ) ) ;
#190 = DIRECTION ( 'NONE',  ( 1.000000000000000000, 0.0000000000000000000, 0.0000000000000000000 ) ) ;
#191 = ORIENTED_EDGE ( 'NONE', *, *, #86, .F. ) ;
#192 = CARTESIAN_POINT ( 'NONE',  ( 17.04069150794269700, 8.571355949318189000, -0.001688988347462588900 ) ) ;
#193 = CARTESIAN_POINT ( 'NONE',  ( 9.992007221626412800E-016, 4.884981308350691100E-015, 4.584835073394049900 ) ) ;
#194 = CC_DESIGN_PERSON_AND_ORGANIZATION_ASSIGNMENT ( #99, #294, ( #47 ) ) ;
#195 = DATE_AND_TIME ( #250, #37 ) ;
#196 = ORIENTED_EDGE ( 'NONE', *, *, #14, .F. ) ;
#197 = DATE_TIME_ROLE ( 'creation_date' ) ;
#198 = ORIENTED_EDGE ( 'NONE', *, *, #138, .F. ) ;
#199 = ADVANCED_FACE ( 'NONE', ( #210 ), #62, .T. ) ;
#200 = APPROVAL_STATUS ( 'not_yet_approved' ) ;
#201 = AXIS2_PLACEMENT_3D ( 'NONE', #77, #240, #156 ) ;
#202 = DATE_AND_TIME ( #209, #68 ) ;
#203 = VECTOR ( 'NONE', #26, 1000.000000000000000 ) ;
#204 = ORIENTED_EDGE ( 'NONE', *, *, #141, .F. ) ;
#205 = CARTESIAN_POINT ( 'NONE',  ( -8.520921603869634700, 8.571355949318187200, 5.141780961521210000 ) ) ;
#206 = AXIS2_PLACEMENT_3D ( 'NONE', #221, #81, #246 ) ;
#207 = UNCERTAINTY_MEASURE_WITH_UNIT (LENGTH_MEASURE( 1.000000000000000100E-005 ), #290, 'distance_accuracy_value', 'NONE');
#208 = DIRECTION ( 'NONE',  ( -0.0000000000000000000, -0.0000000000000000000, -1.000000000000000000 ) ) ;
#209 = CALENDAR_DATE ( 2019, 11, 1 ) ;
#210 = FACE_OUTER_BOUND ( 'NONE', #153, .T. ) ;
#211 = CARTESIAN_POINT ( 'NONE',  ( -17.02826256198653400, 25.70468947536188900, 4.434822450981464200 ) ) ;
#212 = ORIENTED_EDGE ( 'NONE', *, *, #100, .F. ) ;
#213 = CARTESIAN_POINT ( 'NONE',  ( -25.39999999999999900, 7.995584178184967200E-015, 0.4151649266059480000 ) ) ;
#214 = CARTESIAN_POINT ( 'NONE',  ( 25.55700662395584600, 8.571355949318190800, 0.2784570879420941700 ) ) ;
#215 = CARTESIAN_POINT ( 'NONE',  ( 8.514706710884855300, 25.70468947536189200, 0.4251877545364798300 ) ) ;
#216 = CARTESIAN_POINT ( 'NONE',  ( 3.920475055707584000E-013, 25.70468947536189200, 4.574812245463491900 ) ) ;
#217 = PERSON_AND_ORGANIZATION ( #136, #143 ) ;
#218 = CARTESIAN_POINT ( 'NONE',  ( -1.942890293094023900E-013, -25.70468947536165400, 0.4251877545365195800 ) ) ;
#219 = CYLINDRICAL_SURFACE ( 'NONE', #20, 25.39999999999999900 ) ;
#220 = DIRECTION ( 'NONE',  ( 1.000000000000000000, 0.0000000000000000000, 0.0000000000000000000 ) ) ;
#221 = CARTESIAN_POINT ( 'NONE',  ( 0.0000000000000000000, 0.0000000000000000000, 0.0000000000000000000 ) ) ;
#222 = CARTESIAN_POINT ( 'NONE',  ( -8.514706710885077400, 25.70468947536189200, 0.4251877545365241900 ) ) ;
#223 = CC_DESIGN_PERSON_AND_ORGANIZATION_ASSIGNMENT ( #80, #295, ( #179 ) ) ;
#224 = MANIFOLD_SOLID_BREP ( 'Imported1', #140 ) ;
#225 = AXIS2_PLACEMENT_3D ( 'NONE', #174, #175, #220 ) ;
#226 = APPLICATION_PROTOCOL_DEFINITION ( 'international standard', 'config_control_design', 1994, #270 ) ;
#227 = APPROVAL ( #111, 'UNSPECIFIED' ) ;
#228 = APPROVAL_PERSON_ORGANIZATION ( #217, #66, #161 ) ;
#229 = CIRCLE ( 'NONE', #273, 25.39999999999999900 ) ;
#230 = ADVANCED_FACE ( 'NONE', ( #112 ), #96, .T. ) ;
#231 = AXIS2_PLACEMENT_3D ( 'NONE', #257, #168, #53 ) ;
#232 = CARTESIAN_POINT ( 'NONE',  ( -25.55700662395585700, 8.571355949318183700, 4.721542912057916700 ) ) ;
#233 = CARTESIAN_POINT ( 'NONE',  ( -17.04069150794263600, 8.571355949318185500, 5.001688988347475600 ) ) ;
#234 = CIRCLE ( 'NONE', #258, 25.39999999999999900 ) ;
#235 = CC_DESIGN_APPROVAL ( #227, ( #144 ) ) ;
#236 = DIRECTION ( 'NONE',  ( 0.0000000000000000000, 0.0000000000000000000, 1.000000000000000000 ) ) ;
#237 = CARTESIAN_POINT ( 'NONE',  ( 25.55700662395630800, 8.571355949318197900, 4.721542912057923800 ) ) ;
#238 = CARTESIAN_POINT ( 'NONE',  ( 17.04069150794313700, 8.571355949318194300, 5.001688988347491500 ) ) ;
#239 = ORIENTED_EDGE ( 'NONE', *, *, #72, .F. ) ;
#240 = DIRECTION ( 'NONE',  ( -1.000000000000000000, -2.991104064625019900E-016, 5.607939345990680200E-016 ) ) ;
#241 = CARTESIAN_POINT ( 'NONE',  ( 9.992007221626412800E-016, 4.884981308350691100E-015, 0.4151649266059480000 ) ) ;
#242 = CARTESIAN_POINT ( 'NONE',  ( -1.942890293094023900E-013, 25.70468947536189200, 0.4251877545365195800 ) ) ;
#243 = LINE ( 'NONE', #163, #203 ) ;
#244 = AXIS2_PLACEMENT_3D ( 'NONE', #282, #146, #170 ) ;
#245 = DIRECTION ( 'NONE',  ( 1.000000000000000000, 0.0000000000000000000, 0.0000000000000000000 ) ) ;
#246 = DIRECTION ( 'NONE',  ( 1.000000000000000000, 0.0000000000000000000, 0.0000000000000000000 ) ) ;
#247 = ORIENTED_EDGE ( 'NONE', *, *, #88, .T. ) ;
#248 = MECHANICAL_CONTEXT ( 'NONE', #106, 'mechanical' ) ;
#249 = FACE_OUTER_BOUND ( 'NONE', #182, .T. ) ;
#250 = CALENDAR_DATE ( 2019, 11, 1 ) ;
#251 = CARTESIAN_POINT ( 'NONE',  ( -17.04069150794262900, -8.571355949317956300, 5.001688988347475600 ) ) ;
#252 = CARTESIAN_POINT ( 'NONE',  ( 9.992007221626412800E-016, 4.884981308350691100E-015, 0.4151649266059480000 ) ) ;
#253 = CALENDAR_DATE ( 2019, 11, 1 ) ;
#254 = PRODUCT_RELATED_PRODUCT_CATEGORY ( 'detail', '', ( #179 ) ) ;
#255 = CIRCLE ( 'NONE', #283, 777.2000000000001600 ) ;
#256 = CARTESIAN_POINT ( 'NONE',  ( -7.618042325453620100E-015, 8.571355949318190800, -0.1417809615212009800 ) ) ;
#257 = CARTESIAN_POINT ( 'NONE',  ( 9.992007221626412800E-016, 4.884981308350691100E-015, 4.584835073394049900 ) ) ;
#258 = AXIS2_PLACEMENT_3D ( 'NONE', #145, #97, #190 ) ;
#259 = DESIGN_CONTEXT ( 'detailed design', #270, 'design' ) ;
#260 = CARTESIAN_POINT ( 'NONE',  ( 4.059252933785728600E-013, -25.70468947536165400, 4.574812245463491900 ) ) ;
#261 = CARTESIAN_POINT ( 'NONE',  ( 8.520921603869764400, 8.571355949318189000, -0.1417809615212035600 ) ) ;
#262 = ORIENTED_EDGE ( 'NONE', *, *, #264, .F. ) ;
#263 = CARTESIAN_POINT ( 'NONE',  ( 17.02826256198703800, -25.70468947536165400, 4.434822450981479300 ) ) ;
#264 = EDGE_CURVE ( 'NONE', #70, #103, #255, .T. ) ;
#265 = CARTESIAN_POINT ( 'NONE',  ( -17.02826256198682800, -25.70468947536165800, 0.5651775490185270100 ) ) ;
#266 = ORIENTED_EDGE ( 'NONE', *, *, #14, .T. ) ;
#267 = ORIENTED_EDGE ( 'NONE', *, *, #88, .F. ) ;
#268 = DIRECTION ( 'NONE',  ( 0.0000000000000000000, 0.0000000000000000000, 1.000000000000000000 ) ) ;
#269 = CARTESIAN_POINT ( 'NONE',  ( 2.273736754432320100E-013, 1.136868377216160000E-013, 777.2000000000001600 ) ) ;
#270 = APPLICATION_CONTEXT ( 'configuration controlled 3d designs of mechanical parts and assemblies' ) ;
#271 = PERSON_AND_ORGANIZATION ( #136, #143 ) ;
#272 = ORIENTED_EDGE ( 'NONE', *, *, #105, .F. ) ;
#273 = AXIS2_PLACEMENT_3D ( 'NONE', #125, #286, #129 ) ;
#274 = APPLICATION_PROTOCOL_DEFINITION ( 'international standard', 'config_control_design', 1994, #106 ) ;
#275 = LOCAL_TIME ( 10, 35, 24.00000000000000000, #27 ) ;
#276 = CARTESIAN_POINT ( 'NONE',  ( 2.159254679303216700E-013, -25.70468947536165400, 4.574812245463522100 ) ) ;
#277 = SHAPE_DEFINITION_REPRESENTATION ( #169, #93 ) ;
#278 = CARTESIAN_POINT ( 'NONE',  ( -25.53836614484260900, -25.70468947536166100, 4.154880704454015500 ) ) ;
#279 = CARTESIAN_POINT ( 'NONE',  ( 3.989863994746656300E-013, -8.571355949317954500, 5.141780961521174500 ) ) ;
#280 = CARTESIAN_POINT ( 'NONE',  ( 17.04069150794313700, -8.571355949317949200, 5.001688988347491500 ) ) ;
#281 = CALENDAR_DATE ( 2019, 11, 1 ) ;
#282 = CARTESIAN_POINT ( 'NONE',  ( 9.992007221626412800E-016, 4.884981308350691100E-015, 4.584835073394049900 ) ) ;
#283 = AXIS2_PLACEMENT_3D ( 'NONE', #269, #16, #18 ) ;
#284 = CARTESIAN_POINT ( 'NONE',  ( 17.02826256198659000, 25.70468947536189200, 0.5651775490185491100 ) ) ;
#285 = PERSON_AND_ORGANIZATION ( #136, #143 ) ;
#286 = DIRECTION ( 'NONE',  ( -0.0000000000000000000, -0.0000000000000000000, -1.000000000000000000 ) ) ;
#287 = CIRCLE ( 'NONE', #201, 777.2000000000001600 ) ;
#288 = CARTESIAN_POINT ( 'NONE',  ( -17.04069150794293500, -8.571355949317954500, -0.001688988347484544000 ) ) ;
#289 = DIRECTION ( 'NONE',  ( -0.0000000000000000000, -0.0000000000000000000, -1.000000000000000000 ) ) ;
#290 =( LENGTH_UNIT ( ) NAMED_UNIT ( * ) SI_UNIT ( .MILLI., .METRE. ) );
#291 = CARTESIAN_POINT ( 'NONE',  ( -25.55700662395610900, 8.571355949318190800, 0.2784570879420805700 ) ) ;
#292 = APPROVAL_ROLE ( '' ) ;
#293 = AXIS2_PLACEMENT_3D ( 'NONE', #252, #208, #95 ) ;
#294 = PERSON_AND_ORGANIZATION_ROLE ( 'creator' ) ;
#295 = PERSON_AND_ORGANIZATION_ROLE ( 'design_owner' ) ;
ENDSEC;
END-ISO-10303-21;
