ISO-10303-21;
HEADER;
FILE_DESCRIPTION (( 'STEP AP203' ),
    '1' );
FILE_NAME ('111-0526E BK7 bi-cx 50.8 F500.STEP',
    '2019-01-11T08:25:15',
    ( '' ),
    ( '' ),
    'SwSTEP 2.0',
    'SolidWorks 2017',
    '' );
FILE_SCHEMA (( 'CONFIG_CONTROL_DESIGN' ));
ENDSEC;

DATA;
#1 = PERSON_AND_ORGANIZATION_ROLE ( 'classification_officer' ) ;
#2 = DATE_AND_TIME ( #24, #102 ) ;
#3 = EDGE_LOOP ( 'NONE', ( #21, #49, #73, #260, #208, #104 ) ) ;
#4 = DIRECTION ( 'NONE',  ( -0.0000000000000000000, -0.0000000000000000000, -1.000000000000000000 ) ) ;
#5 = ORIENTED_EDGE ( 'NONE', *, *, #32, .F. ) ;
#6 = APPROVAL_PERSON_ORGANIZATION ( #128, #167, #165 ) ;
#7 = AXIS2_PLACEMENT_3D ( 'NONE', #168, #4, #242 ) ;
#8 = DIRECTION ( 'NONE',  ( -1.000000000000000000, 0.0000000000000000000, 0.0000000000000000000 ) ) ;
#9 = AXIS2_PLACEMENT_3D ( 'NONE', #79, #223, #261 ) ;
#10 = VECTOR ( 'NONE', #13, 1000.000000000000000 ) ;
#11 = CALENDAR_DATE ( 2019, 11, 1 ) ;
#12 =( BOUNDED_SURFACE ( )  B_SPLINE_SURFACE ( 3, 3, ( 
 ( #234, #207, #259, #118 ),
 ( #278, #191, #212, #97 ),
 ( #188, #245, #284, #147 ),
 ( #247, #160, #269, #270 ) ),
 .UNSPECIFIED., .F., .F., .F. ) 
 B_SPLINE_SURFACE_WITH_KNOTS ( ( 4, 4 ),
 ( 4, 4 ),
 ( 0.0000000000000000000, 1.000000000000000000 ),
 ( 0.0000000000000000000, 1.000000000000000000 ),
 .UNSPECIFIED. ) 
 GEOMETRIC_REPRESENTATION_ITEM ( )  RATIONAL_B_SPLINE_SURFACE ( (
 ( 1.000000000000000000, 0.9997969902953732800, 0.9997969902953732800, 1.000000000000000000),
 ( 0.9991783730618243300, 0.9989755301554396100, 0.9989755301554396100, 0.9991783730618243300),
 ( 0.9991783730618243300, 0.9989755301554396100, 0.9989755301554396100, 0.9991783730618243300),
 ( 1.000000000000000000, 0.9997969902953732800, 0.9997969902953732800, 1.000000000000000000) ) ) 
 REPRESENTATION_ITEM ( '' )  SURFACE ( )  );
#13 = DIRECTION ( 'NONE',  ( 0.0000000000000000000, 0.0000000000000000000, 1.000000000000000000 ) ) ;
#14 = CC_DESIGN_PERSON_AND_ORGANIZATION_ASSIGNMENT ( #112, #25, ( #176 ) ) ;
#15 = APPROVAL_DATE_TIME ( #2, #183 ) ;
#16 = EDGE_LOOP ( 'NONE', ( #76, #196, #53 ) ) ;
#17 = CARTESIAN_POINT ( 'NONE',  ( -8.511247448508783000, -25.70455096248505100, 0.6382808869217350100 ) ) ;
#18 = APPLICATION_PROTOCOL_DEFINITION ( 'international standard', 'config_control_design', 1994, #290 ) ;
#19 = ADVANCED_FACE ( 'NONE', ( #204 ), #60, .T. ) ;
#20 = CARTESIAN_POINT ( 'NONE',  ( 8.511247448508786600, 25.70455096248509000, 4.361719113078270200 ) ) ;
#21 = ORIENTED_EDGE ( 'NONE', *, *, #293, .F. ) ;
#22 = CARTESIAN_POINT ( 'NONE',  ( 17.04791138810514500, 8.575229293550323800, 5.002560662434520500 ) ) ;
#23 = CARTESIAN_POINT ( 'NONE',  ( 25.56278243972203900, 8.575229293550323800, 4.581939613596951200 ) ) ;
#24 = CALENDAR_DATE ( 2019, 11, 1 ) ;
#25 = PERSON_AND_ORGANIZATION_ROLE ( 'creator' ) ;
#26 = EDGE_CURVE ( 'NONE', #166, #288, #122, .T. ) ;
#27 = AXIS2_PLACEMENT_3D ( 'NONE', #107, #161, #115 ) ;
#28 = DIRECTION ( 'NONE',  ( 1.000000000000000000, 0.0000000000000000000, 0.0000000000000000000 ) ) ;
#29 = CC_DESIGN_DATE_AND_TIME_ASSIGNMENT ( #51, #95, ( #211 ) ) ;
#30 = DESIGN_CONTEXT ( 'detailed design', #290, 'design' ) ;
#31 = CARTESIAN_POINT ( 'NONE',  ( -8.511247448508644500, -25.70455096248505100, 4.361719113078255100 ) ) ;
#32 = EDGE_CURVE ( 'NONE', #70, #100, #47, .T. ) ;
#33 = CARTESIAN_POINT ( 'NONE',  ( -17.01990309827149900, -25.70455096248505100, 4.151690154352223800 ) ) ;
#34 = CARTESIAN_POINT ( 'NONE',  ( 25.39999999999999900, 4.884981308350691100E-015, 4.376763444870009700 ) ) ;
#35 = CARTESIAN_POINT ( 'NONE',  ( -25.56278243972203900, -8.575229293550286500, 0.4180603864030531000 ) ) ;
#36 =( LENGTH_UNIT ( ) NAMED_UNIT ( * ) SI_UNIT ( .MILLI., .METRE. ) );
#37 = CARTESIAN_POINT ( 'NONE',  ( 17.01990309827165900, -25.70455096248505100, 4.151690154352234400 ) ) ;
#38 =( NAMED_UNIT ( * ) PLANE_ANGLE_UNIT ( ) SI_UNIT ( $, .RADIAN. ) );
#39 = DIRECTION ( 'NONE',  ( 1.000000000000000000, 0.0000000000000000000, 0.0000000000000000000 ) ) ;
#40 = SHAPE_DEFINITION_REPRESENTATION ( #200, #123 ) ;
#41 = CIRCLE ( 'NONE', #279, 25.39999999999999900 ) ;
#42 = PERSON_AND_ORGANIZATION_ROLE ( 'design_supplier' ) ;
#43 = LOCAL_TIME ( 10, 25, 15.00000000000000000, #105 ) ;
#44 = CARTESIAN_POINT ( 'NONE',  ( 0.0000000000000000000, 8.575229293550323800, 5.212935248977304400 ) ) ;
#45 = CC_DESIGN_APPROVAL ( #183, ( #211 ) ) ;
#46 = APPROVAL_ROLE ( '' ) ;
#47 = CIRCLE ( 'NONE', #243, 25.39999999999999900 ) ;
#48 =( BOUNDED_SURFACE ( )  B_SPLINE_SURFACE ( 3, 3, ( 
 ( #173, #31, #33, #194 ),
 ( #56, #213, #81, #96 ),
 ( #44, #94, #139, #186 ),
 ( #236, #256, #126, #246 ) ),
 .UNSPECIFIED., .F., .F., .F. ) 
 B_SPLINE_SURFACE_WITH_KNOTS ( ( 4, 4 ),
 ( 4, 4 ),
 ( 0.0000000000000000000, 1.000000000000000000 ),
 ( 0.0000000000000000000, 1.000000000000000000 ),
 .UNSPECIFIED. ) 
 GEOMETRIC_REPRESENTATION_ITEM ( )  RATIONAL_B_SPLINE_SURFACE ( (
 ( 1.000000000000000000, 0.9997969902953732800, 0.9997969902953732800, 1.000000000000000000),
 ( 0.9991783730618243300, 0.9989755301554396100, 0.9989755301554396100, 0.9991783730618243300),
 ( 0.9991783730618243300, 0.9989755301554396100, 0.9989755301554396100, 0.9991783730618243300),
 ( 1.000000000000000000, 0.9997969902953732800, 0.9997969902953732800, 1.000000000000000000) ) ) 
 REPRESENTATION_ITEM ( '' )  SURFACE ( )  );
#49 = ORIENTED_EDGE ( 'NONE', *, *, #26, .T. ) ;
#50 = COORDINATED_UNIVERSAL_TIME_OFFSET ( 2, 0, .AHEAD. ) ;
#51 = DATE_AND_TIME ( #181, #43 ) ;
#52 = FACE_OUTER_BOUND ( 'NONE', #109, .T. ) ;
#53 = ORIENTED_EDGE ( 'NONE', *, *, #244, .F. ) ;
#54 = DATE_AND_TIME ( #11, #225 ) ;
#55 = ORIENTED_EDGE ( 'NONE', *, *, #68, .F. ) ;
#56 = CARTESIAN_POINT ( 'NONE',  ( 0.0000000000000000000, -8.575229293550286500, 5.212935248977302600 ) ) ;
#57 = ORIENTED_EDGE ( 'NONE', *, *, #26, .F. ) ;
#58 = EDGE_CURVE ( 'NONE', #131, #166, #275, .T. ) ;
#59 = CARTESIAN_POINT ( 'NONE',  ( 0.0000000000000000000, 0.0000000000000000000, -512.8999999999999800 ) ) ;
#60 =( BOUNDED_SURFACE ( )  B_SPLINE_SURFACE ( 3, 3, ( 
 ( #155, #197, #17, #180 ),
 ( #35, #63, #220, #133 ),
 ( #291, #85, #249, #67 ),
 ( #106, #154, #108, #265 ) ),
 .UNSPECIFIED., .F., .F., .F. ) 
 B_SPLINE_SURFACE_WITH_KNOTS ( ( 4, 4 ),
 ( 4, 4 ),
 ( 0.0000000000000000000, 1.000000000000000000 ),
 ( 0.0000000000000000000, 1.000000000000000000 ),
 .UNSPECIFIED. ) 
 GEOMETRIC_REPRESENTATION_ITEM ( )  RATIONAL_B_SPLINE_SURFACE ( (
 ( 1.000000000000000000, 0.9997969902953732800, 0.9997969902953732800, 1.000000000000000000),
 ( 0.9991783730618243300, 0.9989755301554396100, 0.9989755301554396100, 0.9991783730618243300),
 ( 0.9991783730618243300, 0.9989755301554396100, 0.9989755301554396100, 0.9991783730618243300),
 ( 1.000000000000000000, 0.9997969902953732800, 0.9997969902953732800, 1.000000000000000000) ) ) 
 REPRESENTATION_ITEM ( '' )  SURFACE ( )  );
#61 = PRODUCT_RELATED_PRODUCT_CATEGORY ( 'detail', '', ( #178 ) ) ;
#62 = PERSON_AND_ORGANIZATION ( #241, #153 ) ;
#63 = CARTESIAN_POINT ( 'NONE',  ( -17.04791138810514500, -8.575229293550284700, -0.002560662434514498200 ) ) ;
#64 = CARTESIAN_POINT ( 'NONE',  ( -25.39999999999999900, 7.995584178184967200E-015, 0.6232365551299929900 ) ) ;
#65 = CC_DESIGN_SECURITY_CLASSIFICATION ( #211, ( #189 ) ) ;
#66 = VECTOR ( 'NONE', #266, 1000.000000000000000 ) ;
#67 = CARTESIAN_POINT ( 'NONE',  ( -1.249000902703301400E-013, 8.575229293550323800, -0.2129352489773165500 ) ) ;
#68 = EDGE_CURVE ( 'NONE', #131, #158, #268, .T. ) ;
#69 = DIRECTION ( 'NONE',  ( -0.0000000000000000000, -0.0000000000000000000, -1.000000000000000000 ) ) ;
#70 = VERTEX_POINT ( 'NONE', #34 ) ;
#71 = APPROVAL_DATE_TIME ( #54, #167 ) ;
#72 = EDGE_CURVE ( 'NONE', #190, #131, #75, .T. ) ;
#73 = ORIENTED_EDGE ( 'NONE', *, *, #244, .T. ) ;
#74 = SECURITY_CLASSIFICATION_LEVEL ( 'unclassified' ) ;
#75 = CIRCLE ( 'NONE', #276, 25.39999999999999900 ) ;
#76 = ORIENTED_EDGE ( 'NONE', *, *, #83, .F. ) ;
#77 = COORDINATED_UNIVERSAL_TIME_OFFSET ( 2, 0, .AHEAD. ) ;
#78 = DIRECTION ( 'NONE',  ( 1.000000000000000000, 0.0000000000000000000, 0.0000000000000000000 ) ) ;
#79 = CARTESIAN_POINT ( 'NONE',  ( 9.992007221626412800E-016, 4.884981308350691100E-015, 4.376763444870009700 ) ) ;
#80 = ORIENTED_EDGE ( 'NONE', *, *, #124, .F. ) ;
#81 = CARTESIAN_POINT ( 'NONE',  ( -17.04791138810498600, -8.575229293550284700, 5.002560662434508900 ) ) ;
#82 = CC_DESIGN_PERSON_AND_ORGANIZATION_ASSIGNMENT ( #119, #274, ( #189 ) ) ;
#83 = EDGE_CURVE ( 'NONE', #100, #288, #250, .T. ) ;
#84 = EDGE_CURVE ( 'NONE', #190, #70, #264, .T. ) ;
#85 = CARTESIAN_POINT ( 'NONE',  ( -17.04791138810514500, 8.575229293550323800, -0.002560662434515799200 ) ) ;
#86 = APPROVAL_PERSON_ORGANIZATION ( #229, #183, #46 ) ;
#87 = DIRECTION ( 'NONE',  ( 1.000000000000000000, 0.0000000000000000000, 0.0000000000000000000 ) ) ;
#88 = DIRECTION ( 'NONE',  ( -0.0000000000000000000, -0.0000000000000000000, -1.000000000000000000 ) ) ;
#89 = FACE_OUTER_BOUND ( 'NONE', #3, .T. ) ;
#90 = CARTESIAN_POINT ( 'NONE',  ( 9.992007221626412800E-016, 4.884981308350691100E-015, 4.376763444870009700 ) ) ;
#91 = AXIS2_PLACEMENT_3D ( 'NONE', #262, #148, #283 ) ;
#92 = CARTESIAN_POINT ( 'NONE',  ( 1.283695372222837200E-013, 8.575229293550323800, 5.212935248977321300 ) ) ;
#93 = EDGE_LOOP ( 'NONE', ( #232, #143, #134 ) ) ;
#94 = CARTESIAN_POINT ( 'NONE',  ( -8.525253725983073800, 8.575229293550323800, 5.212935248977305300 ) ) ;
#95 = DATE_TIME_ROLE ( 'classification_date' ) ;
#96 = CARTESIAN_POINT ( 'NONE',  ( -25.56278243972186100, -8.575229293550286500, 4.581939613596943200 ) ) ;
#97 = CARTESIAN_POINT ( 'NONE',  ( 25.56278243972186100, -8.575229293550286500, 0.4180603864030598100 ) ) ;
#98 = DIRECTION ( 'NONE',  ( 0.0000000000000000000, -1.000000000000000000, -4.287403068643199900E-016 ) ) ;
#99 = ORIENTED_EDGE ( 'NONE', *, *, #83, .T. ) ;
#100 = VERTEX_POINT ( 'NONE', #177 ) ;
#101 = CARTESIAN_POINT ( 'NONE',  ( 0.0000000000000000000, 25.39999999999978500, 4.376763444870022100 ) ) ;
#102 = LOCAL_TIME ( 10, 25, 15.00000000000000000, #170 ) ;
#103 = CYLINDRICAL_SURFACE ( 'NONE', #91, 25.39999999999999900 ) ;
#104 = ORIENTED_EDGE ( 'NONE', *, *, #150, .F. ) ;
#105 = COORDINATED_UNIVERSAL_TIME_OFFSET ( 2, 0, .AHEAD. ) ;
#106 = CARTESIAN_POINT ( 'NONE',  ( -25.52078493027805800, 25.70455096248509400, 1.268239849349206400 ) ) ;
#107 = CARTESIAN_POINT ( 'NONE',  ( 9.992007221626412800E-016, 4.884981308350691100E-015, 0.6232365551299929900 ) ) ;
#108 = CARTESIAN_POINT ( 'NONE',  ( -8.511247448508783000, 25.70455096248509000, 0.6382808869217350100 ) ) ;
#109 = EDGE_LOOP ( 'NONE', ( #80, #5, #282 ) ) ;
#110 = DIRECTION ( 'NONE',  ( 1.000000000000000000, 0.0000000000000000000, 0.0000000000000000000 ) ) ;
#111 = ADVANCED_FACE ( 'NONE', ( #89 ), #103, .T. ) ;
#112 = PERSON_AND_ORGANIZATION ( #241, #153 ) ;
#113 =( NAMED_UNIT ( * ) SI_UNIT ( $, .STERADIAN. ) SOLID_ANGLE_UNIT ( ) );
#114 = CYLINDRICAL_SURFACE ( 'NONE', #27, 25.39999999999999900 ) ;
#115 = DIRECTION ( 'NONE',  ( 1.000000000000000000, 0.0000000000000000000, 0.0000000000000000000 ) ) ;
#116 = PERSON_AND_ORGANIZATION ( #241, #153 ) ;
#117 = EDGE_LOOP ( 'NONE', ( #57, #219, #251, #174, #187, #99 ) ) ;
#118 = CARTESIAN_POINT ( 'NONE',  ( 25.52078493027788000, -25.70455096248505800, 1.268239849349213300 ) ) ;
#119 = PERSON_AND_ORGANIZATION ( #241, #153 ) ;
#120 = CALENDAR_DATE ( 2019, 11, 1 ) ;
#121 = AXIS2_PLACEMENT_3D ( 'NONE', #271, #69, #228 ) ;
#122 = LINE ( 'NONE', #64, #66 ) ;
#123 = ADVANCED_BREP_SHAPE_REPRESENTATION ( '111-0526E BK7 bi-cx 50.8 F500', ( #216, #258 ), #141 ) ;
#124 = EDGE_CURVE ( 'NONE', #100, #137, #184, .T. ) ;
#125 = AXIS2_PLACEMENT_3D ( 'NONE', #59, #8, #195 ) ;
#126 = CARTESIAN_POINT ( 'NONE',  ( -17.01990309827149900, 25.70455096248509000, 4.151690154352224700 ) ) ;
#127 = EDGE_LOOP ( 'NONE', ( #55, #159, #175 ) ) ;
#128 = PERSON_AND_ORGANIZATION ( #241, #153 ) ;
#129 = APPROVAL ( #209, 'UNSPECIFIED' ) ;
#130 = APPROVAL_PERSON_ORGANIZATION ( #193, #129, #185 ) ;
#131 = VERTEX_POINT ( 'NONE', #149 ) ;
#132 = PERSON_AND_ORGANIZATION_ROLE ( 'design_owner' ) ;
#133 = CARTESIAN_POINT ( 'NONE',  ( -1.249000902703301400E-013, -8.575229293550286500, -0.2129352489773152500 ) ) ;
#134 = ORIENTED_EDGE ( 'NONE', *, *, #150, .T. ) ;
#135 = CARTESIAN_POINT ( 'NONE',  ( 17.04791138810514500, -8.575229293550284700, 5.002560662434518700 ) ) ;
#136 = CARTESIAN_POINT ( 'NONE',  ( 9.992007221626412800E-016, 4.884981308350691100E-015, 4.376763444870009700 ) ) ;
#137 = VERTEX_POINT ( 'NONE', #101 ) ;
#138 = CARTESIAN_POINT ( 'NONE',  ( 8.511247448508786600, -25.70455096248505100, 4.361719113078270200 ) ) ;
#139 = CARTESIAN_POINT ( 'NONE',  ( -17.04791138810498600, 8.575229293550323800, 5.002560662434510700 ) ) ;
#140 = CC_DESIGN_APPROVAL ( #167, ( #189 ) ) ;
#141 =( GEOMETRIC_REPRESENTATION_CONTEXT ( 3 ) GLOBAL_UNCERTAINTY_ASSIGNED_CONTEXT ( ( #289 ) ) GLOBAL_UNIT_ASSIGNED_CONTEXT ( ( #36, #38, #113 ) ) REPRESENTATION_CONTEXT ( 'NONE', 'WORKASPACE' ) );
#142 = DIRECTION ( 'NONE',  ( 1.000000000000000000, 0.0000000000000000000, 0.0000000000000000000 ) ) ;
#143 = ORIENTED_EDGE ( 'NONE', *, *, #68, .T. ) ;
#144 = CARTESIAN_POINT ( 'NONE',  ( 9.992007221626412800E-016, 4.884981308350691100E-015, 0.6232365551299929900 ) ) ;
#145 = CC_DESIGN_DATE_AND_TIME_ASSIGNMENT ( #227, #233, ( #176 ) ) ;
#146 = DIRECTION ( 'NONE',  ( 1.000000000000000000, 0.0000000000000000000, 0.0000000000000000000 ) ) ;
#147 = CARTESIAN_POINT ( 'NONE',  ( 25.56278243972186100, 8.575229293550323800, 0.4180603864030584800 ) ) ;
#148 = DIRECTION ( 'NONE',  ( 0.0000000000000000000, 0.0000000000000000000, 1.000000000000000000 ) ) ;
#149 = CARTESIAN_POINT ( 'NONE',  ( 0.0000000000000000000, -25.39999999999977800, 0.6232365551299808800 ) ) ;
#150 = EDGE_CURVE ( 'NONE', #158, #190, #230, .T. ) ;
#151 = DIRECTION ( 'NONE',  ( -0.0000000000000000000, -0.0000000000000000000, -1.000000000000000000 ) ) ;
#152 = AXIS2_PLACEMENT_3D ( 'NONE', #280, #151, #146 ) ;
#153 = ORGANIZATION ( 'UNSPECIFIED', 'UNSPECIFIED', '' ) ;
#154 = CARTESIAN_POINT ( 'NONE',  ( -17.01990309827165900, 25.70455096248509000, 0.8483098456477679000 ) ) ;
#155 = CARTESIAN_POINT ( 'NONE',  ( -25.52078493027805800, -25.70455096248505800, 1.268239849349206400 ) ) ;
#156 = ADVANCED_FACE ( 'NONE', ( #286 ), #48, .T. ) ;
#157 = APPLICATION_PROTOCOL_DEFINITION ( 'international standard', 'config_control_design', 1994, #201 ) ;
#158 = VERTEX_POINT ( 'NONE', #214 ) ;
#159 = ORIENTED_EDGE ( 'NONE', *, *, #58, .T. ) ;
#160 = CARTESIAN_POINT ( 'NONE',  ( 8.511247448508644500, 25.70455096248509000, 0.6382808869217493400 ) ) ;
#161 = DIRECTION ( 'NONE',  ( 0.0000000000000000000, 0.0000000000000000000, 1.000000000000000000 ) ) ;
#162 = CALENDAR_DATE ( 2019, 11, 1 ) ;
#163 = CIRCLE ( 'NONE', #121, 25.39999999999999900 ) ;
#164 = AXIS2_PLACEMENT_3D ( 'NONE', #90, #253, #110 ) ;
#165 = APPROVAL_ROLE ( '' ) ;
#166 = VERTEX_POINT ( 'NONE', #235 ) ;
#167 = APPROVAL ( #237, 'UNSPECIFIED' ) ;
#168 = CARTESIAN_POINT ( 'NONE',  ( 9.992007221626412800E-016, 4.884981308350691100E-015, 0.6232365551299929900 ) ) ;
#169 = LOCAL_TIME ( 10, 25, 15.00000000000000000, #248 ) ;
#170 = COORDINATED_UNIVERSAL_TIME_OFFSET ( 2, 0, .AHEAD. ) ;
#171 = FACE_OUTER_BOUND ( 'NONE', #93, .T. ) ;
#172 = DIRECTION ( 'NONE',  ( -0.0000000000000000000, -0.0000000000000000000, -1.000000000000000000 ) ) ;
#173 = CARTESIAN_POINT ( 'NONE',  ( 0.0000000000000000000, -25.70455096248505800, 4.361719113078255100 ) ) ;
#174 = ORIENTED_EDGE ( 'NONE', *, *, #84, .T. ) ;
#175 = ORIENTED_EDGE ( 'NONE', *, *, #293, .T. ) ;
#176 = PRODUCT_DEFINITION ( 'UNKNOWN', '', #189, #30 ) ;
#177 = CARTESIAN_POINT ( 'NONE',  ( 0.0000000000000000000, -25.39999999999977800, 4.376763444870022100 ) ) ;
#178 = PRODUCT ( '111-0526E BK7 bi-cx 50.8 F500', '111-0526E BK7 bi-cx 50.8 F500', '', ( #267 ) ) ;
#179 = ADVANCED_FACE ( 'NONE', ( #171 ), #12, .T. ) ;
#180 = CARTESIAN_POINT ( 'NONE',  ( -1.214306433183765000E-013, -25.70455096248505800, 0.6382808869217331300 ) ) ;
#181 = CALENDAR_DATE ( 2019, 11, 1 ) ;
#182 = CARTESIAN_POINT ( 'NONE',  ( -25.39999999999999900, 7.995584178184967200E-015, 4.376763444870009700 ) ) ;
#183 = APPROVAL ( #257, 'UNSPECIFIED' ) ;
#184 = CIRCLE ( 'NONE', #125, 517.8999999999999800 ) ;
#185 = APPROVAL_ROLE ( '' ) ;
#186 = CARTESIAN_POINT ( 'NONE',  ( -25.56278243972186100, 8.575229293550323800, 4.581939613596945000 ) ) ;
#187 = ORIENTED_EDGE ( 'NONE', *, *, #32, .T. ) ;
#188 = CARTESIAN_POINT ( 'NONE',  ( 0.0000000000000000000, 8.575229293550323800, -0.2129352489773002300 ) ) ;
#189 = PRODUCT_DEFINITION_FORMATION_WITH_SPECIFIED_SOURCE ( 'ANY', '', #178, .NOT_KNOWN. ) ;
#190 = VERTEX_POINT ( 'NONE', #206 ) ;
#191 = CARTESIAN_POINT ( 'NONE',  ( 8.525253725983073800, -8.575229293550284700, -0.2129352489772989600 ) ) ;
#192 = EDGE_CURVE ( 'NONE', #137, #70, #41, .T. ) ;
#193 = PERSON_AND_ORGANIZATION ( #241, #153 ) ;
#194 = CARTESIAN_POINT ( 'NONE',  ( -25.52078493027788000, -25.70455096248505800, 3.731760150650790500 ) ) ;
#195 = DIRECTION ( 'NONE',  ( 0.0000000000000000000, -1.000000000000000000, 4.287403068643199900E-016 ) ) ;
#196 = ORIENTED_EDGE ( 'NONE', *, *, #124, .T. ) ;
#197 = CARTESIAN_POINT ( 'NONE',  ( -17.01990309827165900, -25.70455096248505100, 0.8483098456477679000 ) ) ;
#198 = PERSON_AND_ORGANIZATION ( #241, #153 ) ;
#199 = ADVANCED_FACE ( 'NONE', ( #52 ), #222, .T. ) ;
#200 = PRODUCT_DEFINITION_SHAPE ( 'NONE', 'NONE',  #176 ) ;
#201 = APPLICATION_CONTEXT ( 'configuration controlled 3d designs of mechanical parts and assemblies' ) ;
#202 = CARTESIAN_POINT ( 'NONE',  ( 1.249000902703301100E-013, 25.70455096248509400, 4.361719113078272000 ) ) ;
#203 = CC_DESIGN_PERSON_AND_ORGANIZATION_ASSIGNMENT ( #62, #42, ( #189 ) ) ;
#204 = FACE_OUTER_BOUND ( 'NONE', #127, .T. ) ;
#205 = CARTESIAN_POINT ( 'NONE',  ( 25.56278243972203900, -8.575229293550286500, 4.581939613596949500 ) ) ;
#206 = CARTESIAN_POINT ( 'NONE',  ( 25.39999999999999900, 4.884981308350691100E-015, 0.6232365551299929900 ) ) ;
#207 = CARTESIAN_POINT ( 'NONE',  ( 8.511247448508644500, -25.70455096248505100, 0.6382808869217493400 ) ) ;
#208 = ORIENTED_EDGE ( 'NONE', *, *, #84, .F. ) ;
#209 = APPROVAL_STATUS ( 'not_yet_approved' ) ;
#210 = DIRECTION ( 'NONE',  ( -0.0000000000000000000, -0.0000000000000000000, -1.000000000000000000 ) ) ;
#211 = SECURITY_CLASSIFICATION ( '', '', #74 ) ;
#212 = CARTESIAN_POINT ( 'NONE',  ( 17.04791138810498600, -8.575229293550284700, -0.002560662434503873000 ) ) ;
#213 = CARTESIAN_POINT ( 'NONE',  ( -8.525253725983073800, -8.575229293550284700, 5.212935248977303500 ) ) ;
#214 = CARTESIAN_POINT ( 'NONE',  ( 0.0000000000000000000, 25.39999999999978500, 0.6232365551299808800 ) ) ;
#215 = CC_DESIGN_PERSON_AND_ORGANIZATION_ASSIGNMENT ( #116, #1, ( #211 ) ) ;
#216 = MANIFOLD_SOLID_BREP ( 'Imported1', #238 ) ;
#217 = APPROVAL_DATE_TIME ( #277, #129 ) ;
#218 = FACE_OUTER_BOUND ( 'NONE', #117, .T. ) ;
#219 = ORIENTED_EDGE ( 'NONE', *, *, #58, .F. ) ;
#220 = CARTESIAN_POINT ( 'NONE',  ( -8.525253725983219500, -8.575229293550284700, -0.2129352489773131400 ) ) ;
#221 = CC_DESIGN_APPROVAL ( #129, ( #176 ) ) ;
#222 =( BOUNDED_SURFACE ( )  B_SPLINE_SURFACE ( 3, 3, ( 
 ( #292, #37, #138, #252 ),
 ( #205, #135, #294, #224 ),
 ( #23, #22, #231, #92 ),
 ( #254, #255, #20, #202 ) ),
 .UNSPECIFIED., .F., .F., .T. ) 
 B_SPLINE_SURFACE_WITH_KNOTS ( ( 4, 4 ),
 ( 4, 4 ),
 ( 0.0000000000000000000, 1.000000000000000000 ),
 ( 0.0000000000000000000, 1.000000000000000000 ),
 .UNSPECIFIED. ) 
 GEOMETRIC_REPRESENTATION_ITEM ( )  RATIONAL_B_SPLINE_SURFACE ( (
 ( 1.000000000000000000, 0.9997969902953732800, 0.9997969902953732800, 1.000000000000000000),
 ( 0.9991783730618243300, 0.9989755301554396100, 0.9989755301554396100, 0.9991783730618243300),
 ( 0.9991783730618243300, 0.9989755301554396100, 0.9989755301554396100, 0.9991783730618243300),
 ( 1.000000000000000000, 0.9997969902953732800, 0.9997969902953732800, 1.000000000000000000) ) ) 
 REPRESENTATION_ITEM ( '' )  SURFACE ( )  );
#223 = DIRECTION ( 'NONE',  ( -0.0000000000000000000, -0.0000000000000000000, -1.000000000000000000 ) ) ;
#224 = CARTESIAN_POINT ( 'NONE',  ( 1.283695372222837200E-013, -8.575229293550286500, 5.212935248977319500 ) ) ;
#225 = LOCAL_TIME ( 10, 25, 15.00000000000000000, #77 ) ;
#226 = CARTESIAN_POINT ( 'NONE',  ( 9.992007221626412800E-016, 4.884981308350691100E-015, 4.376763444870009700 ) ) ;
#227 = DATE_AND_TIME ( #162, #285 ) ;
#228 = DIRECTION ( 'NONE',  ( 1.000000000000000000, 0.0000000000000000000, 0.0000000000000000000 ) ) ;
#229 = PERSON_AND_ORGANIZATION ( #241, #153 ) ;
#230 = CIRCLE ( 'NONE', #152, 25.39999999999999900 ) ;
#231 = CARTESIAN_POINT ( 'NONE',  ( 8.525253725983223100, 8.575229293550323800, 5.212935248977319500 ) ) ;
#232 = ORIENTED_EDGE ( 'NONE', *, *, #72, .T. ) ;
#233 = DATE_TIME_ROLE ( 'creation_date' ) ;
#234 = CARTESIAN_POINT ( 'NONE',  ( 0.0000000000000000000, -25.70455096248505800, 0.6382808869217493400 ) ) ;
#235 = CARTESIAN_POINT ( 'NONE',  ( -25.39999999999999900, 7.995584178184967200E-015, 0.6232365551299929900 ) ) ;
#236 = CARTESIAN_POINT ( 'NONE',  ( 0.0000000000000000000, 25.70455096248509400, 4.361719113078255100 ) ) ;
#237 = APPROVAL_STATUS ( 'not_yet_approved' ) ;
#238 = CLOSED_SHELL ( 'NONE', ( #179, #156, #111, #19, #287, #199 ) ) ;
#239 = CIRCLE ( 'NONE', #164, 25.39999999999999900 ) ;
#240 = CARTESIAN_POINT ( 'NONE',  ( 0.0000000000000000000, 0.0000000000000000000, 517.8999999999999800 ) ) ;
#241 = PERSON ( 'UNSPECIFIED', 'UNSPECIFIED', 'UNSPECIFIED', ('UNSPECIFIED'), ('UNSPECIFIED'), ('UNSPECIFIED') ) ;
#242 = DIRECTION ( 'NONE',  ( 1.000000000000000000, 0.0000000000000000000, 0.0000000000000000000 ) ) ;
#243 = AXIS2_PLACEMENT_3D ( 'NONE', #136, #210, #142 ) ;
#244 = EDGE_CURVE ( 'NONE', #288, #137, #239, .T. ) ;
#245 = CARTESIAN_POINT ( 'NONE',  ( 8.525253725983073800, 8.575229293550323800, -0.2129352489773002900 ) ) ;
#246 = CARTESIAN_POINT ( 'NONE',  ( -25.52078493027788400, 25.70455096248509400, 3.731760150650790500 ) ) ;
#247 = CARTESIAN_POINT ( 'NONE',  ( 0.0000000000000000000, 25.70455096248509400, 0.6382808869217493400 ) ) ;
#248 = COORDINATED_UNIVERSAL_TIME_OFFSET ( 2, 0, .AHEAD. ) ;
#249 = CARTESIAN_POINT ( 'NONE',  ( -8.525253725983219500, 8.575229293550323800, -0.2129352489773144500 ) ) ;
#250 = CIRCLE ( 'NONE', #9, 25.39999999999999900 ) ;
#251 = ORIENTED_EDGE ( 'NONE', *, *, #72, .F. ) ;
#252 = CARTESIAN_POINT ( 'NONE',  ( 1.249000902703301100E-013, -25.70455096248505800, 4.361719113078272000 ) ) ;
#253 = DIRECTION ( 'NONE',  ( -0.0000000000000000000, -0.0000000000000000000, -1.000000000000000000 ) ) ;
#254 = CARTESIAN_POINT ( 'NONE',  ( 25.52078493027805800, 25.70455096248509400, 3.731760150650798000 ) ) ;
#255 = CARTESIAN_POINT ( 'NONE',  ( 17.01990309827165900, 25.70455096248509000, 4.151690154352234400 ) ) ;
#256 = CARTESIAN_POINT ( 'NONE',  ( -8.511247448508644500, 25.70455096248509000, 4.361719113078255100 ) ) ;
#257 = APPROVAL_STATUS ( 'not_yet_approved' ) ;
#258 = AXIS2_PLACEMENT_3D ( 'NONE', #295, #273, #87 ) ;
#259 = CARTESIAN_POINT ( 'NONE',  ( 17.01990309827149900, -25.70455096248505100, 0.8483098456477785600 ) ) ;
#260 = ORIENTED_EDGE ( 'NONE', *, *, #192, .T. ) ;
#261 = DIRECTION ( 'NONE',  ( 1.000000000000000000, 0.0000000000000000000, 0.0000000000000000000 ) ) ;
#262 = CARTESIAN_POINT ( 'NONE',  ( 9.992007221626412800E-016, 4.884981308350691100E-015, 0.6232365551299929900 ) ) ;
#263 = AXIS2_PLACEMENT_3D ( 'NONE', #240, #78, #98 ) ;
#264 = LINE ( 'NONE', #281, #10 ) ;
#265 = CARTESIAN_POINT ( 'NONE',  ( -1.214306433183765000E-013, 25.70455096248509400, 0.6382808869217331300 ) ) ;
#266 = DIRECTION ( 'NONE',  ( 0.0000000000000000000, 0.0000000000000000000, 1.000000000000000000 ) ) ;
#267 = MECHANICAL_CONTEXT ( 'NONE', #201, 'mechanical' ) ;
#268 = CIRCLE ( 'NONE', #263, 517.8999999999999800 ) ;
#269 = CARTESIAN_POINT ( 'NONE',  ( 17.01990309827149900, 25.70455096248509000, 0.8483098456477785600 ) ) ;
#270 = CARTESIAN_POINT ( 'NONE',  ( 25.52078493027788000, 25.70455096248509400, 1.268239849349213300 ) ) ;
#271 = CARTESIAN_POINT ( 'NONE',  ( 9.992007221626412800E-016, 4.884981308350691100E-015, 0.6232365551299929900 ) ) ;
#272 = CC_DESIGN_PERSON_AND_ORGANIZATION_ASSIGNMENT ( #198, #132, ( #178 ) ) ;
#273 = DIRECTION ( 'NONE',  ( 0.0000000000000000000, 0.0000000000000000000, 1.000000000000000000 ) ) ;
#274 = PERSON_AND_ORGANIZATION_ROLE ( 'creator' ) ;
#275 = CIRCLE ( 'NONE', #7, 25.39999999999999900 ) ;
#276 = AXIS2_PLACEMENT_3D ( 'NONE', #144, #172, #28 ) ;
#277 = DATE_AND_TIME ( #120, #169 ) ;
#278 = CARTESIAN_POINT ( 'NONE',  ( 0.0000000000000000000, -8.575229293550286500, -0.2129352489772989300 ) ) ;
#279 = AXIS2_PLACEMENT_3D ( 'NONE', #226, #88, #39 ) ;
#280 = CARTESIAN_POINT ( 'NONE',  ( 9.992007221626412800E-016, 4.884981308350691100E-015, 0.6232365551299929900 ) ) ;
#281 = CARTESIAN_POINT ( 'NONE',  ( 25.39999999999999900, 4.884981308350691100E-015, 0.6232365551299929900 ) ) ;
#282 = ORIENTED_EDGE ( 'NONE', *, *, #192, .F. ) ;
#283 = DIRECTION ( 'NONE',  ( 1.000000000000000000, 0.0000000000000000000, 0.0000000000000000000 ) ) ;
#284 = CARTESIAN_POINT ( 'NONE',  ( 17.04791138810498600, 8.575229293550323800, -0.002560662434505174500 ) ) ;
#285 = LOCAL_TIME ( 10, 25, 15.00000000000000000, #50 ) ;
#286 = FACE_OUTER_BOUND ( 'NONE', #16, .T. ) ;
#287 = ADVANCED_FACE ( 'NONE', ( #218 ), #114, .T. ) ;
#288 = VERTEX_POINT ( 'NONE', #182 ) ;
#289 = UNCERTAINTY_MEASURE_WITH_UNIT (LENGTH_MEASURE( 1.000000000000000100E-005 ), #36, 'distance_accuracy_value', 'NONE');
#290 = APPLICATION_CONTEXT ( 'configuration controlled 3d designs of mechanical parts and assemblies' ) ;
#291 = CARTESIAN_POINT ( 'NONE',  ( -25.56278243972203900, 8.575229293550323800, 0.4180603864030517600 ) ) ;
#292 = CARTESIAN_POINT ( 'NONE',  ( 25.52078493027805800, -25.70455096248505800, 3.731760150650798000 ) ) ;
#293 = EDGE_CURVE ( 'NONE', #166, #158, #163, .T. ) ;
#294 = CARTESIAN_POINT ( 'NONE',  ( 8.525253725983223100, -8.575229293550284700, 5.212935248977317700 ) ) ;
#295 = CARTESIAN_POINT ( 'NONE',  ( 0.0000000000000000000, 0.0000000000000000000, 0.0000000000000000000 ) ) ;
ENDSEC;
END-ISO-10303-21;
