ISO-10303-21;
HEADER;
FILE_DESCRIPTION (( 'STEP AP203' ),
    '1' );
FILE_NAME ('111-0522E BK7 bi-cx 50.8 F400.STEP',
    '2019-01-11T07:58:43',
    ( '' ),
    ( '' ),
    'SwSTEP 2.0',
    'SolidWorks 2017',
    '' );
FILE_SCHEMA (( 'CONFIG_CONTROL_DESIGN' ));
ENDSEC;

DATA;
#1 = CARTESIAN_POINT ( 'NONE',  ( 9.992007221626412800E-016, 4.884981308350691100E-015, 4.220275331370600300 ) ) ;
#2 = AXIS2_PLACEMENT_3D ( 'NONE', #36, #52, #14 ) ;
#3 = ORIENTED_EDGE ( 'NONE', *, *, #112, .T. ) ;
#4 = PERSON_AND_ORGANIZATION ( #207, #258 ) ;
#5 = CARTESIAN_POINT ( 'NONE',  ( -7.285838599102589800E-014, 25.70441025397257900, 4.201455711803050400 ) ) ;
#6 = CARTESIAN_POINT ( 'NONE',  ( 17.01141175287301600, -25.70441025397268600, 3.938844036104011300 ) ) ;
#7 = CARTESIAN_POINT ( 'NONE',  ( 8.507732894923101700, -25.70441025397268600, 4.201455711803048700 ) ) ;
#8 = PERSON_AND_ORGANIZATION ( #207, #258 ) ;
#9 = CARTESIAN_POINT ( 'NONE',  ( 9.992007221626412800E-016, 4.884981308350691100E-015, 0.7797246686294010400 ) ) ;
#10 = CARTESIAN_POINT ( 'NONE',  ( 1.630640067418198700E-013, 25.70441025397262200, 0.7985442881969608800 ) ) ;
#11 = ORIENTED_EDGE ( 'NONE', *, *, #284, .T. ) ;
#12 = CARTESIAN_POINT ( 'NONE',  ( 25.50293236349756800, 25.70441025397262900, 1.586129040054790900 ) ) ;
#13 = CARTESIAN_POINT ( 'NONE',  ( -1.740966503567606400E-013, 25.40000000000002700, 4.220275331370596700 ) ) ;
#14 = DIRECTION ( 'NONE',  ( 1.000000000000000000, 0.0000000000000000000, 0.0000000000000000000 ) ) ;
#15 = EDGE_CURVE ( 'NONE', #192, #55, #188, .T. ) ;
#16 = CARTESIAN_POINT ( 'NONE',  ( 25.56865283442470000, 8.579166042220942100, 0.5230902695695094400 ) ) ;
#17 = DATE_AND_TIME ( #142, #120 ) ;
#18 = APPLICATION_PROTOCOL_DEFINITION ( 'international standard', 'config_control_design', 1994, #40 ) ;
#19 = DIRECTION ( 'NONE',  ( 0.0000000000000000000, -1.000000000000000000, -2.681050530367439000E-016 ) ) ;
#20 = ORIENTED_EDGE ( 'NONE', *, *, #151, .F. ) ;
#21 = CIRCLE ( 'NONE', #100, 25.39999999999999900 ) ;
#22 = PERSON_AND_ORGANIZATION_ROLE ( 'creator' ) ;
#23 = DATE_TIME_ROLE ( 'creation_date' ) ;
#24 = ORIENTED_EDGE ( 'NONE', *, *, #35, .F. ) ;
#25 = ORIENTED_EDGE ( 'NONE', *, *, #246, .F. ) ;
#26 = CARTESIAN_POINT ( 'NONE',  ( -8.529657127180362500, 8.579166042220896000, 5.266524070103908000 ) ) ;
#27 = AXIS2_PLACEMENT_3D ( 'NONE', #107, #267, #123 ) ;
#28 = CALENDAR_DATE ( 2019, 11, 1 ) ;
#29 = CARTESIAN_POINT ( 'NONE',  ( -1.743934566178778800E-013, 8.579166042220892400, 5.266524070103910700 ) ) ;
#30 = DIRECTION ( 'NONE',  ( -0.0000000000000000000, -0.0000000000000000000, -1.000000000000000000 ) ) ;
#31 = CARTESIAN_POINT ( 'NONE',  ( -25.50293236349774900, 25.70441025397261500, 1.586129040054784500 ) ) ;
#32 = COORDINATED_UNIVERSAL_TIME_OFFSET ( 2, 0, .AHEAD. ) ;
#33 = CARTESIAN_POINT ( 'NONE',  ( 9.992007221626412800E-016, 4.884981308350691100E-015, 0.7797246686294010400 ) ) ;
#34 = CARTESIAN_POINT ( 'NONE',  ( 9.992007221626412800E-016, 4.884981308350691100E-015, 4.220275331370600300 ) ) ;
#35 = EDGE_CURVE ( 'NONE', #186, #295, #66, .T. ) ;
#36 = CARTESIAN_POINT ( 'NONE',  ( 9.992007221626412800E-016, 4.884981308350691100E-015, 4.220275331370600300 ) ) ;
#37 = CARTESIAN_POINT ( 'NONE',  ( -25.56865283442486400, -8.579166042220968800, 0.5230902695695062200 ) ) ;
#38 = CARTESIAN_POINT ( 'NONE',  ( 0.0000000000000000000, 0.0000000000000000000, 0.0000000000000000000 ) ) ;
#39 =( LENGTH_UNIT ( ) NAMED_UNIT ( * ) SI_UNIT ( .MILLI., .METRE. ) );
#40 = APPLICATION_CONTEXT ( 'configuration controlled 3d designs of mechanical parts and assemblies' ) ;
#41 = ADVANCED_FACE ( 'NONE', ( #49 ), #249, .T. ) ;
#42 = ORIENTED_EDGE ( 'NONE', *, *, #60, .T. ) ;
#43 = CIRCLE ( 'NONE', #277, 25.39999999999999900 ) ;
#44 = DIRECTION ( 'NONE',  ( -1.000000000000000000, 7.962825516075840400E-032, -2.836861351695059800E-016 ) ) ;
#45 = ADVANCED_FACE ( 'NONE', ( #294 ), #57, .T. ) ;
#46 = CALENDAR_DATE ( 2019, 11, 1 ) ;
#47 = EDGE_CURVE ( 'NONE', #64, #121, #62, .T. ) ;
#48 = EDGE_LOOP ( 'NONE', ( #20, #170, #24, #42, #239, #3 ) ) ;
#49 = FACE_OUTER_BOUND ( 'NONE', #259, .T. ) ;
#50 = CARTESIAN_POINT ( 'NONE',  ( -25.39999999999999900, 7.995584178184967200E-015, 0.7797246686294010400 ) ) ;
#51 = CARTESIAN_POINT ( 'NONE',  ( 25.56865283442497000, -8.579166042221002500, 4.476909730430500100 ) ) ;
#52 = DIRECTION ( 'NONE',  ( -0.0000000000000000000, -0.0000000000000000000, -1.000000000000000000 ) ) ;
#53 = PRODUCT_DEFINITION ( 'UNKNOWN', '', #201, #289 ) ;
#54 = CARTESIAN_POINT ( 'NONE',  ( 8.507732894923236700, 25.70441025397262500, 0.7985442881969829800 ) ) ;
#55 = VERTEX_POINT ( 'NONE', #73 ) ;
#56 = CYLINDRICAL_SURFACE ( 'NONE', #231, 25.39999999999999900 ) ;
#57 =( BOUNDED_SURFACE ( )  B_SPLINE_SURFACE ( 3, 3, ( 
 ( #75, #6, #7, #217 ),
 ( #51, #220, #245, #261 ),
 ( #172, #77, #264, #152 ),
 ( #196, #178, #148, #5 ) ),
 .UNSPECIFIED., .F., .F., .T. ) 
 B_SPLINE_SURFACE_WITH_KNOTS ( ( 4, 4 ),
 ( 4, 4 ),
 ( 0.0000000000000000000, 1.000000000000000000 ),
 ( 0.0000000000000000000, 1.000000000000000000 ),
 .UNSPECIFIED. ) 
 GEOMETRIC_REPRESENTATION_ITEM ( )  RATIONAL_B_SPLINE_SURFACE ( (
 ( 1.000000000000000000, 0.9996823253211065700, 0.9996823253211065700, 1.000000000000000000),
 ( 0.9987144099038927100, 0.9983971436244202200, 0.9983971436244202200, 0.9987144099038927100),
 ( 0.9987144099038927100, 0.9983971436244202200, 0.9983971436244202200, 0.9987144099038927100),
 ( 1.000000000000000000, 0.9996823253211065700, 0.9996823253211065700, 1.000000000000000000) ) ) 
 REPRESENTATION_ITEM ( '' )  SURFACE ( )  );
#58 = CARTESIAN_POINT ( 'NONE',  ( -25.39999999999999900, 7.995584178184967200E-015, 0.7797246686294010400 ) ) ;
#59 = CARTESIAN_POINT ( 'NONE',  ( 8.529657127180428200, 8.579166042220938600, -0.2665240701039025000 ) ) ;
#60 = EDGE_CURVE ( 'NONE', #186, #55, #238, .T. ) ;
#61 = APPROVAL_STATUS ( 'not_yet_approved' ) ;
#62 = CIRCLE ( 'NONE', #173, 25.39999999999999900 ) ;
#63 = DIRECTION ( 'NONE',  ( 1.000000000000000000, 0.0000000000000000000, 0.0000000000000000000 ) ) ;
#64 = VERTEX_POINT ( 'NONE', #50 ) ;
#65 = PERSON_AND_ORGANIZATION ( #207, #258 ) ;
#66 = CIRCLE ( 'NONE', #234, 25.39999999999999900 ) ;
#67 =( NAMED_UNIT ( * ) PLANE_ANGLE_UNIT ( ) SI_UNIT ( $, .RADIAN. ) );
#68 = COORDINATED_UNIVERSAL_TIME_OFFSET ( 2, 0, .AHEAD. ) ;
#69 = ORIENTED_EDGE ( 'NONE', *, *, #35, .T. ) ;
#70 = CC_DESIGN_PERSON_AND_ORGANIZATION_ASSIGNMENT ( #71, #159, ( #201 ) ) ;
#71 = PERSON_AND_ORGANIZATION ( #207, #258 ) ;
#72 = CARTESIAN_POINT ( 'NONE',  ( -25.56865283442470400, -8.579166042221002500, 4.476909730430500100 ) ) ;
#73 = CARTESIAN_POINT ( 'NONE',  ( 25.39999999999999900, 4.884981308350691100E-015, 4.220275331370600300 ) ) ;
#74 = EDGE_CURVE ( 'NONE', #121, #186, #21, .T. ) ;
#75 = CARTESIAN_POINT ( 'NONE',  ( 25.50293236349784100, -25.70441025397268600, 3.413870959945219900 ) ) ;
#76 = COORDINATED_UNIVERSAL_TIME_OFFSET ( 2, 0, .AHEAD. ) ;
#77 = CARTESIAN_POINT ( 'NONE',  ( 17.05524977022722400, 8.579166042220896000, 5.003235650148512900 ) ) ;
#78 = CARTESIAN_POINT ( 'NONE',  ( -17.05524977022712800, -8.579166042221004300, 5.003235650148494300 ) ) ;
#79 = CARTESIAN_POINT ( 'NONE',  ( -8.529657127180193800, 8.579166042220935000, -0.2665240701039270900 ) ) ;
#80 = ORIENTED_EDGE ( 'NONE', *, *, #74, .T. ) ;
#81 = COORDINATED_UNIVERSAL_TIME_OFFSET ( 2, 0, .AHEAD. ) ;
#82 = CARTESIAN_POINT ( 'NONE',  ( 17.01141175287295600, -25.70441025397264700, 1.061155963896019300 ) ) ;
#83 = FACE_OUTER_BOUND ( 'NONE', #48, .T. ) ;
#84 = DIRECTION ( 'NONE',  ( 1.000000000000000000, 0.0000000000000000000, 0.0000000000000000000 ) ) ;
#85 = EDGE_CURVE ( 'NONE', #295, #64, #163, .T. ) ;
#86 = CARTESIAN_POINT ( 'NONE',  ( 25.50293236349758200, -25.70441025397264300, 1.586129040054790900 ) ) ;
#87 = CARTESIAN_POINT ( 'NONE',  ( 2.773163009965535800E-013, -8.579166042220961700, -0.2665240701039037800 ) ) ;
#88 = CALENDAR_DATE ( 2019, 11, 1 ) ;
#89 = PERSON_AND_ORGANIZATION_ROLE ( 'design_owner' ) ;
#90 = APPROVAL_STATUS ( 'not_yet_approved' ) ;
#91 = AXIS2_PLACEMENT_3D ( 'NONE', #143, #44, #19 ) ;
#92 = APPROVAL_PERSON_ORGANIZATION ( #8, #214, #257 ) ;
#93 = FACE_OUTER_BOUND ( 'NONE', #281, .T. ) ;
#94 = SECURITY_CLASSIFICATION ( '', '', #161 ) ;
#95 = LOCAL_TIME ( 9, 58, 43.00000000000000000, #32 ) ;
#96 = ADVANCED_FACE ( 'NONE', ( #93 ), #183, .T. ) ;
#97 = DIRECTION ( 'NONE',  ( 1.000000000000000000, 0.0000000000000000000, 0.0000000000000000000 ) ) ;
#98 = PERSON_AND_ORGANIZATION ( #207, #258 ) ;
#99 = CIRCLE ( 'NONE', #2, 25.39999999999999900 ) ;
#100 = AXIS2_PLACEMENT_3D ( 'NONE', #176, #30, #215 ) ;
#101 = CARTESIAN_POINT ( 'NONE',  ( -17.05524977022712800, 8.579166042220896000, 5.003235650148494300 ) ) ;
#102 = DIRECTION ( 'NONE',  ( 1.000000000000000000, 0.0000000000000000000, 0.0000000000000000000 ) ) ;
#103 = CARTESIAN_POINT ( 'NONE',  ( 25.39999999999999900, 4.884981308350691100E-015, 0.7797246686294010400 ) ) ;
#104 = ADVANCED_BREP_SHAPE_REPRESENTATION ( '111-0522E BK7 bi-cx 50.8 F400', ( #191, #206 ), #139 ) ;
#105 = CARTESIAN_POINT ( 'NONE',  ( -25.50293236349773500, -25.70441025397265700, 1.586129040054784500 ) ) ;
#106 = AXIS2_PLACEMENT_3D ( 'NONE', #233, #204, #135 ) ;
#107 = CARTESIAN_POINT ( 'NONE',  ( 9.992007221626412800E-016, 4.884981308350691100E-015, 4.220275331370600300 ) ) ;
#108 = CIRCLE ( 'NONE', #291, 25.39999999999999900 ) ;
#109 = DIRECTION ( 'NONE',  ( -0.0000000000000000000, -0.0000000000000000000, -1.000000000000000000 ) ) ;
#110 = CARTESIAN_POINT ( 'NONE',  ( 2.671326928302177500E-013, 25.70441025397262200, 0.7985442881969784200 ) ) ;
#111 = ORIENTED_EDGE ( 'NONE', *, *, #15, .F. ) ;
#112 = EDGE_CURVE ( 'NONE', #134, #255, #43, .T. ) ;
#113 = PERSON_AND_ORGANIZATION_ROLE ( 'creator' ) ;
#114 = CC_DESIGN_DATE_AND_TIME_ASSIGNMENT ( #17, #23, ( #53 ) ) ;
#115 = APPROVAL_ROLE ( '' ) ;
#116 = APPROVAL_DATE_TIME ( #177, #214 ) ;
#117 = APPLICATION_CONTEXT ( 'configuration controlled 3d designs of mechanical parts and assemblies' ) ;
#118 = EDGE_LOOP ( 'NONE', ( #25, #198, #111 ) ) ;
#119 = PERSON_AND_ORGANIZATION_ROLE ( 'classification_officer' ) ;
#120 = LOCAL_TIME ( 9, 58, 43.00000000000000000, #243 ) ;
#121 = VERTEX_POINT ( 'NONE', #242 ) ;
#122 = CLOSED_SHELL ( 'NONE', ( #140, #41, #236, #96, #209, #45 ) ) ;
#123 = DIRECTION ( 'NONE',  ( 1.000000000000000000, -8.881784197001252300E-016, 0.0000000000000000000 ) ) ;
#124 = DIRECTION ( 'NONE',  ( 1.000000000000000000, 0.0000000000000000000, 0.0000000000000000000 ) ) ;
#125 = CARTESIAN_POINT ( 'NONE',  ( 9.992007221626412800E-016, 4.884981308350691100E-015, 0.7797246686294010400 ) ) ;
#126 = CC_DESIGN_SECURITY_CLASSIFICATION ( #94, ( #201 ) ) ;
#127 = CARTESIAN_POINT ( 'NONE',  ( -25.56865283442470400, 8.579166042220892400, 4.476909730430500100 ) ) ;
#128 = ORIENTED_EDGE ( 'NONE', *, *, #151, .T. ) ;
#129 = CARTESIAN_POINT ( 'NONE',  ( -8.529657127180362500, -8.579166042221004300, 5.266524070103907100 ) ) ;
#130 = CARTESIAN_POINT ( 'NONE',  ( -17.01141175287290600, -25.70441025397265400, 1.061155963895994600 ) ) ;
#131 = CARTESIAN_POINT ( 'NONE',  ( 1.769417945496343200E-013, -25.70441025397265000, 0.7985442881969608800 ) ) ;
#132 = ORIENTED_EDGE ( 'NONE', *, *, #47, .F. ) ;
#133 = PRODUCT_DEFINITION_SHAPE ( 'NONE', 'NONE',  #53 ) ;
#134 = VERTEX_POINT ( 'NONE', #222 ) ;
#135 = DIRECTION ( 'NONE',  ( 2.806913884359530700E-016, -1.000000000000000000, -2.681050530367439000E-016 ) ) ;
#136 = EDGE_LOOP ( 'NONE', ( #132, #128, #287, #181, #212, #144 ) ) ;
#137 = LOCAL_TIME ( 9, 58, 43.00000000000000000, #81 ) ;
#138 = CIRCLE ( 'NONE', #106, 414.1000000000000200 ) ;
#139 =( GEOMETRIC_REPRESENTATION_CONTEXT ( 3 ) GLOBAL_UNCERTAINTY_ASSIGNED_CONTEXT ( ( #256 ) ) GLOBAL_UNIT_ASSIGNED_CONTEXT ( ( #39, #67, #227 ) ) REPRESENTATION_CONTEXT ( 'NONE', 'WORKASPACE' ) );
#140 = ADVANCED_FACE ( 'NONE', ( #168 ), #164, .T. ) ;
#141 = EDGE_CURVE ( 'NONE', #255, #192, #99, .T. ) ;
#142 = CALENDAR_DATE ( 2019, 11, 1 ) ;
#143 = CARTESIAN_POINT ( 'NONE',  ( -5.684341886080800200E-014, -5.684341886080800200E-014, -409.1000000000000200 ) ) ;
#144 = ORIENTED_EDGE ( 'NONE', *, *, #74, .F. ) ;
#145 = APPROVAL_PERSON_ORGANIZATION ( #199, #254, #115 ) ;
#146 = ORIENTED_EDGE ( 'NONE', *, *, #47, .T. ) ;
#147 = CARTESIAN_POINT ( 'NONE',  ( -8.507732894923176300, -25.70441025397268600, 4.201455711803022000 ) ) ;
#148 = CARTESIAN_POINT ( 'NONE',  ( 8.507732894923101700, 25.70441025397257900, 4.201455711803048700 ) ) ;
#149 = DATE_AND_TIME ( #28, #137 ) ;
#150 = CARTESIAN_POINT ( 'NONE',  ( -17.01141175287292000, 25.70441025397257900, 3.938844036103993100 ) ) ;
#151 = EDGE_CURVE ( 'NONE', #64, #255, #276, .T. ) ;
#152 = CARTESIAN_POINT ( 'NONE',  ( -7.285838599102589800E-014, 8.579166042220892400, 5.266524070103934600 ) ) ;
#153 = CARTESIAN_POINT ( 'NONE',  ( -17.01141175287292000, 25.70441025397261800, 1.061155963895994600 ) ) ;
#154 = FACE_OUTER_BOUND ( 'NONE', #136, .T. ) ;
#155 = DIRECTION ( 'NONE',  ( 1.000000000000000000, 0.0000000000000000000, 0.0000000000000000000 ) ) ;
#156 = DIRECTION ( 'NONE',  ( 1.000000000000000000, 0.0000000000000000000, 0.0000000000000000000 ) ) ;
#157 = PERSON_AND_ORGANIZATION ( #207, #258 ) ;
#158 = DIRECTION ( 'NONE',  ( -0.0000000000000000000, -0.0000000000000000000, -1.000000000000000000 ) ) ;
#159 = PERSON_AND_ORGANIZATION_ROLE ( 'design_supplier' ) ;
#160 = APPROVAL ( #280, 'UNSPECIFIED' ) ;
#161 = SECURITY_CLASSIFICATION_LEVEL ( 'unclassified' ) ;
#162 = CALENDAR_DATE ( 2019, 11, 1 ) ;
#163 = CIRCLE ( 'NONE', #218, 25.39999999999999900 ) ;
#164 =( BOUNDED_SURFACE ( )  B_SPLINE_SURFACE ( 3, 3, ( 
 ( #182, #285, #82, #86 ),
 ( #87, #273, #248, #247 ),
 ( #268, #59, #288, #16 ),
 ( #110, #54, #270, #12 ) ),
 .UNSPECIFIED., .F., .F., .F. ) 
 B_SPLINE_SURFACE_WITH_KNOTS ( ( 4, 4 ),
 ( 4, 4 ),
 ( 0.0000000000000000000, 1.000000000000000000 ),
 ( 0.0000000000000000000, 1.000000000000000000 ),
 .UNSPECIFIED. ) 
 GEOMETRIC_REPRESENTATION_ITEM ( )  RATIONAL_B_SPLINE_SURFACE ( (
 ( 1.000000000000000000, 0.9996823253211065700, 0.9996823253211065700, 1.000000000000000000),
 ( 0.9987144099038927100, 0.9983971436244202200, 0.9983971436244202200, 0.9987144099038927100),
 ( 0.9987144099038927100, 0.9983971436244202200, 0.9983971436244202200, 0.9987144099038927100),
 ( 1.000000000000000000, 0.9996823253211065700, 0.9996823253211065700, 1.000000000000000000) ) ) 
 REPRESENTATION_ITEM ( '' )  SURFACE ( )  );
#165 = CARTESIAN_POINT ( 'NONE',  ( -25.39999999999999900, 7.995584178184967200E-015, 4.220275331370600300 ) ) ;
#166 = APPLICATION_PROTOCOL_DEFINITION ( 'international standard', 'config_control_design', 1994, #117 ) ;
#167 = DIRECTION ( 'NONE',  ( -0.0000000000000000000, -0.0000000000000000000, -1.000000000000000000 ) ) ;
#168 = FACE_OUTER_BOUND ( 'NONE', #232, .T. ) ;
#169 = CC_DESIGN_DATE_AND_TIME_ASSIGNMENT ( #230, #228, ( #94 ) ) ;
#170 = ORIENTED_EDGE ( 'NONE', *, *, #85, .F. ) ;
#171 = CARTESIAN_POINT ( 'NONE',  ( -8.507732894923176300, 25.70441025397257900, 4.201455711803022000 ) ) ;
#172 = CARTESIAN_POINT ( 'NONE',  ( 25.56865283442497000, 8.579166042220892400, 4.476909730430500100 ) ) ;
#173 = AXIS2_PLACEMENT_3D ( 'NONE', #125, #265, #102 ) ;
#174 = DIRECTION ( 'NONE',  ( 0.0000000000000000000, 0.0000000000000000000, 1.000000000000000000 ) ) ;
#175 = CC_DESIGN_APPROVAL ( #214, ( #94 ) ) ;
#176 = CARTESIAN_POINT ( 'NONE',  ( 9.992007221626412800E-016, 4.884981308350691100E-015, 0.7797246686294010400 ) ) ;
#177 = DATE_AND_TIME ( #46, #95 ) ;
#178 = CARTESIAN_POINT ( 'NONE',  ( 17.01141175287301600, 25.70441025397257900, 3.938844036104011300 ) ) ;
#179 = CARTESIAN_POINT ( 'NONE',  ( -17.05524977022712800, 8.579166042220931500, -0.003235650148508575700 ) ) ;
#180 = CARTESIAN_POINT ( 'NONE',  ( -25.56865283442487100, 8.579166042220927900, 0.5230902695695027700 ) ) ;
#181 = ORIENTED_EDGE ( 'NONE', *, *, #15, .T. ) ;
#182 = CARTESIAN_POINT ( 'NONE',  ( 2.815627060364476100E-013, -25.70441025397265000, 0.7985442881969784200 ) ) ;
#183 =( BOUNDED_SURFACE ( )  B_SPLINE_SURFACE ( 3, 3, ( 
 ( #105, #130, #251, #131 ),
 ( #37, #252, #225, #221 ),
 ( #180, #179, #79, #272 ),
 ( #31, #153, #286, #10 ) ),
 .UNSPECIFIED., .F., .F., .F. ) 
 B_SPLINE_SURFACE_WITH_KNOTS ( ( 4, 4 ),
 ( 4, 4 ),
 ( 0.0000000000000000000, 1.000000000000000000 ),
 ( 0.0000000000000000000, 1.000000000000000000 ),
 .UNSPECIFIED. ) 
 GEOMETRIC_REPRESENTATION_ITEM ( )  RATIONAL_B_SPLINE_SURFACE ( (
 ( 1.000000000000000000, 0.9996823253211065700, 0.9996823253211065700, 1.000000000000000000),
 ( 0.9987144099038927100, 0.9983971436244202200, 0.9983971436244202200, 0.9987144099038927100),
 ( 0.9987144099038927100, 0.9983971436244202200, 0.9983971436244202200, 0.9987144099038927100),
 ( 1.000000000000000000, 0.9996823253211065700, 0.9996823253211065700, 1.000000000000000000) ) ) 
 REPRESENTATION_ITEM ( '' )  SURFACE ( )  );
#184 = DATE_AND_TIME ( #88, #293 ) ;
#185 = AXIS2_PLACEMENT_3D ( 'NONE', #203, #202, #156 ) ;
#186 = VERTEX_POINT ( 'NONE', #271 ) ;
#187 = PRODUCT ( '111-0522E BK7 bi-cx 50.8 F400', '111-0522E BK7 bi-cx 50.8 F400', '', ( #290 ) ) ;
#188 = CIRCLE ( 'NONE', #27, 25.39999999999999900 ) ;
#189 = ORIENTED_EDGE ( 'NONE', *, *, #284, .F. ) ;
#190 = CARTESIAN_POINT ( 'NONE',  ( -1.740913114916201500E-013, -25.70441025397268600, 4.201455711803026500 ) ) ;
#191 = MANIFOLD_SOLID_BREP ( 'Imported1', #122 ) ;
#192 = VERTEX_POINT ( 'NONE', #13 ) ;
#193 = CARTESIAN_POINT ( 'NONE',  ( -1.740913114916201500E-013, 25.70441025397257900, 4.201455711803026500 ) ) ;
#194 = CARTESIAN_POINT ( 'NONE',  ( -25.50293236349757500, 25.70441025397257900, 3.413870959945220400 ) ) ;
#195 = CC_DESIGN_APPROVAL ( #254, ( #53 ) ) ;
#196 = CARTESIAN_POINT ( 'NONE',  ( 25.50293236349784100, 25.70441025397257900, 3.413870959945219900 ) ) ;
#197 = CARTESIAN_POINT ( 'NONE',  ( -1.743934566178778800E-013, -8.579166042221002500, 5.266524070103909800 ) ) ;
#198 = ORIENTED_EDGE ( 'NONE', *, *, #208, .F. ) ;
#199 = PERSON_AND_ORGANIZATION ( #207, #258 ) ;
#200 = CIRCLE ( 'NONE', #91, 414.1000000000000200 ) ;
#201 = PRODUCT_DEFINITION_FORMATION_WITH_SPECIFIED_SOURCE ( 'ANY', '', #187, .NOT_KNOWN. ) ;
#202 = DIRECTION ( 'NONE',  ( 0.0000000000000000000, 0.0000000000000000000, 1.000000000000000000 ) ) ;
#203 = CARTESIAN_POINT ( 'NONE',  ( 9.992007221626412800E-016, 4.884981308350691100E-015, 0.7797246686294010400 ) ) ;
#204 = DIRECTION ( 'NONE',  ( 1.000000000000000000, 2.806913884359530200E-016, 5.262606205872920400E-016 ) ) ;
#205 = PERSON_AND_ORGANIZATION ( #207, #258 ) ;
#206 = AXIS2_PLACEMENT_3D ( 'NONE', #38, #235, #97 ) ;
#207 = PERSON ( 'UNSPECIFIED', 'UNSPECIFIED', 'UNSPECIFIED', ('UNSPECIFIED'), ('UNSPECIFIED'), ('UNSPECIFIED') ) ;
#208 = EDGE_CURVE ( 'NONE', #55, #134, #108, .T. ) ;
#209 = ADVANCED_FACE ( 'NONE', ( #83 ), #260, .T. ) ;
#210 = CC_DESIGN_PERSON_AND_ORGANIZATION_ASSIGNMENT ( #205, #22, ( #53 ) ) ;
#211 = DIRECTION ( 'NONE',  ( 0.0000000000000000000, 0.0000000000000000000, 1.000000000000000000 ) ) ;
#212 = ORIENTED_EDGE ( 'NONE', *, *, #60, .F. ) ;
#213 = VECTOR ( 'NONE', #223, 1000.000000000000000 ) ;
#214 = APPROVAL ( #90, 'UNSPECIFIED' ) ;
#215 = DIRECTION ( 'NONE',  ( 1.000000000000000000, 8.881784197001252300E-016, 0.0000000000000000000 ) ) ;
#216 = APPROVAL_PERSON_ORGANIZATION ( #4, #160, #253 ) ;
#217 = CARTESIAN_POINT ( 'NONE',  ( -7.285838599102589800E-014, -25.70441025397268600, 4.201455711803050400 ) ) ;
#218 = AXIS2_PLACEMENT_3D ( 'NONE', #33, #158, #84 ) ;
#219 = CC_DESIGN_PERSON_AND_ORGANIZATION_ASSIGNMENT ( #157, #113, ( #201 ) ) ;
#220 = CARTESIAN_POINT ( 'NONE',  ( 17.05524977022722400, -8.579166042221004300, 5.003235650148512900 ) ) ;
#221 = CARTESIAN_POINT ( 'NONE',  ( 1.734723475976807300E-013, -8.579166042220961700, -0.2665240701039213700 ) ) ;
#222 = CARTESIAN_POINT ( 'NONE',  ( -1.740966503567606400E-013, -25.40000000000008400, 4.220275331370596700 ) ) ;
#223 = DIRECTION ( 'NONE',  ( 0.0000000000000000000, 0.0000000000000000000, 1.000000000000000000 ) ) ;
#224 = ORIENTED_EDGE ( 'NONE', *, *, #141, .F. ) ;
#225 = CARTESIAN_POINT ( 'NONE',  ( -8.529657127180186600, -8.579166042220967000, -0.2665240701039236500 ) ) ;
#226 = CC_DESIGN_PERSON_AND_ORGANIZATION_ASSIGNMENT ( #98, #119, ( #94 ) ) ;
#227 =( NAMED_UNIT ( * ) SI_UNIT ( $, .STERADIAN. ) SOLID_ANGLE_UNIT ( ) );
#228 = DATE_TIME_ROLE ( 'classification_date' ) ;
#229 = DIRECTION ( 'NONE',  ( 1.000000000000000000, 0.0000000000000000000, 0.0000000000000000000 ) ) ;
#230 = DATE_AND_TIME ( #162, #263 ) ;
#231 = AXIS2_PLACEMENT_3D ( 'NONE', #274, #211, #229 ) ;
#232 = EDGE_LOOP ( 'NONE', ( #69, #11, #80 ) ) ;
#233 = CARTESIAN_POINT ( 'NONE',  ( 5.684341886080800200E-014, -5.684341886080800200E-014, 414.1000000000000200 ) ) ;
#234 = AXIS2_PLACEMENT_3D ( 'NONE', #9, #262, #124 ) ;
#235 = DIRECTION ( 'NONE',  ( 0.0000000000000000000, 0.0000000000000000000, 1.000000000000000000 ) ) ;
#236 = ADVANCED_FACE ( 'NONE', ( #154 ), #56, .T. ) ;
#237 = APPROVAL_DATE_TIME ( #184, #160 ) ;
#238 = LINE ( 'NONE', #103, #244 ) ;
#239 = ORIENTED_EDGE ( 'NONE', *, *, #208, .T. ) ;
#240 = CARTESIAN_POINT ( 'NONE',  ( -17.01141175287292000, -25.70441025397268600, 3.938844036103993100 ) ) ;
#241 = CC_DESIGN_APPROVAL ( #160, ( #201 ) ) ;
#242 = CARTESIAN_POINT ( 'NONE',  ( 2.672280421917322300E-013, 25.40000000000003400, 0.7797246686294061500 ) ) ;
#243 = COORDINATED_UNIVERSAL_TIME_OFFSET ( 2, 0, .AHEAD. ) ;
#244 = VECTOR ( 'NONE', #174, 1000.000000000000000 ) ;
#245 = CARTESIAN_POINT ( 'NONE',  ( 8.529657127180287900, -8.579166042221004300, 5.266524070103935500 ) ) ;
#246 = EDGE_CURVE ( 'NONE', #134, #192, #200, .T. ) ;
#247 = CARTESIAN_POINT ( 'NONE',  ( 25.56865283442470400, -8.579166042220954600, 0.5230902695695127700 ) ) ;
#248 = CARTESIAN_POINT ( 'NONE',  ( 17.05524977022716000, -8.579166042220959900, -0.003235650148480169600 ) ) ;
#249 =( BOUNDED_SURFACE ( )  B_SPLINE_SURFACE ( 3, 3, ( 
 ( #190, #147, #240, #282 ),
 ( #197, #129, #78, #72 ),
 ( #29, #26, #101, #127 ),
 ( #193, #171, #150, #194 ) ),
 .UNSPECIFIED., .F., .F., .F. ) 
 B_SPLINE_SURFACE_WITH_KNOTS ( ( 4, 4 ),
 ( 4, 4 ),
 ( 0.0000000000000000000, 1.000000000000000000 ),
 ( 0.0000000000000000000, 1.000000000000000000 ),
 .UNSPECIFIED. ) 
 GEOMETRIC_REPRESENTATION_ITEM ( )  RATIONAL_B_SPLINE_SURFACE ( (
 ( 1.000000000000000000, 0.9996823253211065700, 0.9996823253211065700, 1.000000000000000000),
 ( 0.9987144099038927100, 0.9983971436244202200, 0.9983971436244202200, 0.9987144099038927100),
 ( 0.9987144099038927100, 0.9983971436244202200, 0.9983971436244202200, 0.9987144099038927100),
 ( 1.000000000000000000, 0.9996823253211065700, 0.9996823253211065700, 1.000000000000000000) ) ) 
 REPRESENTATION_ITEM ( '' )  SURFACE ( )  );
#250 = ORIENTED_EDGE ( 'NONE', *, *, #112, .F. ) ;
#251 = CARTESIAN_POINT ( 'NONE',  ( -8.507732894922996900, -25.70441025397265400, 0.7985442881969585500 ) ) ;
#252 = CARTESIAN_POINT ( 'NONE',  ( -17.05524977022712100, -8.579166042220970600, -0.003235650148504997900 ) ) ;
#253 = APPROVAL_ROLE ( '' ) ;
#254 = APPROVAL ( #61, 'UNSPECIFIED' ) ;
#255 = VERTEX_POINT ( 'NONE', #165 ) ;
#256 = UNCERTAINTY_MEASURE_WITH_UNIT (LENGTH_MEASURE( 1.000000000000000100E-005 ), #39, 'distance_accuracy_value', 'NONE');
#257 = APPROVAL_ROLE ( '' ) ;
#258 = ORGANIZATION ( 'UNSPECIFIED', 'UNSPECIFIED', '' ) ;
#259 = EDGE_LOOP ( 'NONE', ( #250, #283, #224 ) ) ;
#260 = CYLINDRICAL_SURFACE ( 'NONE', #185, 25.39999999999999900 ) ;
#261 = CARTESIAN_POINT ( 'NONE',  ( -7.285838599102589800E-014, -8.579166042221002500, 5.266524070103934600 ) ) ;
#262 = DIRECTION ( 'NONE',  ( -0.0000000000000000000, -0.0000000000000000000, -1.000000000000000000 ) ) ;
#263 = LOCAL_TIME ( 9, 58, 43.00000000000000000, #76 ) ;
#264 = CARTESIAN_POINT ( 'NONE',  ( 8.529657127180287900, 8.579166042220896000, 5.266524070103935500 ) ) ;
#265 = DIRECTION ( 'NONE',  ( -0.0000000000000000000, -0.0000000000000000000, -1.000000000000000000 ) ) ;
#266 = PRODUCT_RELATED_PRODUCT_CATEGORY ( 'detail', '', ( #187 ) ) ;
#267 = DIRECTION ( 'NONE',  ( -0.0000000000000000000, -0.0000000000000000000, -1.000000000000000000 ) ) ;
#268 = CARTESIAN_POINT ( 'NONE',  ( 2.725001049405263500E-013, 8.579166042220935000, -0.2665240701039070500 ) ) ;
#269 = ORIENTED_EDGE ( 'NONE', *, *, #85, .T. ) ;
#270 = CARTESIAN_POINT ( 'NONE',  ( 17.01141175287294200, 25.70441025397262500, 1.061155963896019300 ) ) ;
#271 = CARTESIAN_POINT ( 'NONE',  ( 25.39999999999999900, 4.884981308350691100E-015, 0.7797246686294010400 ) ) ;
#272 = CARTESIAN_POINT ( 'NONE',  ( 1.665334536937734800E-013, 8.579166042220935000, -0.2665240701039248200 ) ) ;
#273 = CARTESIAN_POINT ( 'NONE',  ( 8.529657127180433600, -8.579166042220963500, -0.2665240701038992200 ) ) ;
#274 = CARTESIAN_POINT ( 'NONE',  ( 9.992007221626412800E-016, 4.884981308350691100E-015, 0.7797246686294010400 ) ) ;
#275 = SHAPE_DEFINITION_REPRESENTATION ( #133, #104 ) ;
#276 = LINE ( 'NONE', #58, #213 ) ;
#277 = AXIS2_PLACEMENT_3D ( 'NONE', #34, #109, #155 ) ;
#278 = CC_DESIGN_PERSON_AND_ORGANIZATION_ASSIGNMENT ( #65, #89, ( #187 ) ) ;
#279 = APPROVAL_DATE_TIME ( #149, #254 ) ;
#280 = APPROVAL_STATUS ( 'not_yet_approved' ) ;
#281 = EDGE_LOOP ( 'NONE', ( #189, #269, #146 ) ) ;
#282 = CARTESIAN_POINT ( 'NONE',  ( -25.50293236349757500, -25.70441025397268600, 3.413870959945220400 ) ) ;
#283 = ORIENTED_EDGE ( 'NONE', *, *, #246, .T. ) ;
#284 = EDGE_CURVE ( 'NONE', #295, #121, #138, .T. ) ;
#285 = CARTESIAN_POINT ( 'NONE',  ( 8.507732894923250900, -25.70441025397264700, 0.7985442881969829800 ) ) ;
#286 = CARTESIAN_POINT ( 'NONE',  ( -8.507732894923011100, 25.70441025397261800, 0.7985442881969584400 ) ) ;
#287 = ORIENTED_EDGE ( 'NONE', *, *, #141, .T. ) ;
#288 = CARTESIAN_POINT ( 'NONE',  ( 17.05524977022715300, 8.579166042220942100, -0.003235650148483421800 ) ) ;
#289 = DESIGN_CONTEXT ( 'detailed design', #117, 'design' ) ;
#290 = MECHANICAL_CONTEXT ( 'NONE', #40, 'mechanical' ) ;
#291 = AXIS2_PLACEMENT_3D ( 'NONE', #1, #167, #63 ) ;
#292 = CARTESIAN_POINT ( 'NONE',  ( 2.814871647242787400E-013, -25.40000000000008400, 0.7797246686294061500 ) ) ;
#293 = LOCAL_TIME ( 9, 58, 43.00000000000000000, #68 ) ;
#294 = FACE_OUTER_BOUND ( 'NONE', #118, .T. ) ;
#295 = VERTEX_POINT ( 'NONE', #292 ) ;
ENDSEC;
END-ISO-10303-21;
