ISO-10303-21;
HEADER;
FILE_DESCRIPTION (( 'STEP AP203' ),
    '1' );
FILE_NAME ('111-0518E BK7 bi-cx 50.8 F300.STEP',
    '2019-01-11T07:44:30',
    ( '' ),
    ( '' ),
    'SwSTEP 2.0',
    'SolidWorks 2017',
    '' );
FILE_SCHEMA (( 'CONFIG_CONTROL_DESIGN' ));
ENDSEC;

DATA;
#1 = APPROVAL_DATE_TIME ( #65, #19 ) ;
#2 = CARTESIAN_POINT ( 'NONE',  ( 1.136868377216160000E-013, 25.40000000000010200, 1.040985261460343600 ) ) ;
#3 = CARTESIAN_POINT ( 'NONE',  ( 9.992007221626412800E-016, 4.884981308350691100E-015, 3.959014738539660300 ) ) ;
#4 = PRODUCT_DEFINITION_SHAPE ( 'NONE', 'NONE',  #204 ) ;
#5 = ORIENTED_EDGE ( 'NONE', *, *, #47, .T. ) ;
#6 = PRODUCT_DEFINITION_FORMATION_WITH_SPECIFIED_SOURCE ( 'ANY', '', #248, .NOT_KNOWN. ) ;
#7 = PERSON_AND_ORGANIZATION ( #67, #138 ) ;
#8 = AXIS2_PLACEMENT_3D ( 'NONE', #261, #219, #166 ) ;
#9 = CARTESIAN_POINT ( 'NONE',  ( -4.163336342344337000E-014, -25.70410552145839100, 3.933895587505439100 ) ) ;
#10 = MECHANICAL_CONTEXT ( 'NONE', #214, 'mechanical' ) ;
#11 = AXIS2_PLACEMENT_3D ( 'NONE', #109, #90, #129 ) ;
#12 = CARTESIAN_POINT ( 'NONE',  ( -17.07115653568253000, 8.587698798351521400, 5.004412512896602800 ) ) ;
#13 = APPLICATION_CONTEXT ( 'configuration controlled 3d designs of mechanical parts and assemblies' ) ;
#14 = CARTESIAN_POINT ( 'NONE',  ( -17.07115653568252300, -8.587698798351425500, 5.004412512896550400 ) ) ;
#15 = PERSON_AND_ORGANIZATION_ROLE ( 'creator' ) ;
#16 = EDGE_CURVE ( 'NONE', #82, #25, #294, .T. ) ;
#17 = CYLINDRICAL_SURFACE ( 'NONE', #284, 25.39999999999999900 ) ;
#18 = CARTESIAN_POINT ( 'NONE',  ( -25.58137680736769300, -8.587698798351427200, 0.6985326599289761700 ) ) ;
#19 = APPROVAL ( #85, 'UNSPECIFIED' ) ;
#20 = CARTESIAN_POINT ( 'NONE',  ( -8.539202596765076000, 8.587698798351509000, -0.3561837067021838000 ) ) ;
#21 = CARTESIAN_POINT ( 'NONE',  ( 25.46429438000666300, -25.70410552145836600, 2.115993488033680100 ) ) ;
#22 = AXIS2_PLACEMENT_3D ( 'NONE', #3, #206, #203 ) ;
#23 = CARTESIAN_POINT ( 'NONE',  ( 8.539202596765159500, -8.587698798351427200, -0.3561837067021498300 ) ) ;
#24 = CARTESIAN_POINT ( 'NONE',  ( 8.500119846243757500, 25.70410552145845200, 1.066104412494494900 ) ) ;
#25 = VERTEX_POINT ( 'NONE', #96 ) ;
#26 = COORDINATED_UNIVERSAL_TIME_OFFSET ( 2, 0, .AHEAD. ) ;
#27 = CIRCLE ( 'NONE', #241, 310.4000000000000300 ) ;
#28 = DIRECTION ( 'NONE',  ( 1.000000000000000000, 0.0000000000000000000, 0.0000000000000000000 ) ) ;
#29 = VERTEX_POINT ( 'NONE', #2 ) ;
#30 = COORDINATED_UNIVERSAL_TIME_OFFSET ( 2, 0, .AHEAD. ) ;
#31 = AXIS2_PLACEMENT_3D ( 'NONE', #250, #205, #175 ) ;
#32 = CARTESIAN_POINT ( 'NONE',  ( 9.992007221626412800E-016, 4.884981308350691100E-015, 1.040985261460340100 ) ) ;
#33 = CIRCLE ( 'NONE', #11, 25.39999999999999900 ) ;
#34 = DATE_TIME_ROLE ( 'classification_date' ) ;
#35 = UNCERTAINTY_MEASURE_WITH_UNIT (LENGTH_MEASURE( 1.000000000000000100E-005 ), #58, 'distance_accuracy_value', 'NONE');
#36 = CARTESIAN_POINT ( 'NONE',  ( -25.58137680736764000, 8.587698798351521400, 4.301467340071110500 ) ) ;
#37 = LOCAL_TIME ( 9, 44, 30.00000000000000000, #196 ) ;
#38 = VECTOR ( 'NONE', #176, 1000.000000000000000 ) ;
#39 = CARTESIAN_POINT ( 'NONE',  ( -4.163336342344336400E-014, -8.587698798351423700, 5.356183706702144500 ) ) ;
#40 = CARTESIAN_POINT ( 'NONE',  ( 3.816391647148975600E-014, -8.587698798351427200, -0.3561837067021353400 ) ) ;
#41 = CARTESIAN_POINT ( 'NONE',  ( 17.07115653568250800, 8.587698798351521400, 5.004412512896589500 ) ) ;
#42 = CARTESIAN_POINT ( 'NONE',  ( 25.39999999999999900, 4.884981308350691100E-015, 3.959014738539660300 ) ) ;
#43 = ORIENTED_EDGE ( 'NONE', *, *, #16, .T. ) ;
#44 = EDGE_CURVE ( 'NONE', #29, #74, #97, .T. ) ;
#45 = CARTESIAN_POINT ( 'NONE',  ( -25.46429438000666300, -25.70410552145839100, 2.884006511966324300 ) ) ;
#46 = CARTESIAN_POINT ( 'NONE',  ( 25.46429438000671700, -25.70410552145839100, 2.884006511966297200 ) ) ;
#47 = EDGE_CURVE ( 'NONE', #292, #99, #172, .T. ) ;
#48 = ORIENTED_EDGE ( 'NONE', *, *, #156, .F. ) ;
#49 = CALENDAR_DATE ( 2019, 11, 1 ) ;
#50 = VECTOR ( 'NONE', #222, 1000.000000000000000 ) ;
#51 = CC_DESIGN_PERSON_AND_ORGANIZATION_ASSIGNMENT ( #7, #15, ( #204 ) ) ;
#52 = CALENDAR_DATE ( 2019, 11, 1 ) ;
#53 = EDGE_LOOP ( 'NONE', ( #177, #170, #283 ) ) ;
#54 = DIRECTION ( 'NONE',  ( -0.0000000000000000000, -0.0000000000000000000, -1.000000000000000000 ) ) ;
#55 = PERSON_AND_ORGANIZATION_ROLE ( 'classification_officer' ) ;
#56 = EDGE_CURVE ( 'NONE', #292, #29, #199, .T. ) ;
#57 = CARTESIAN_POINT ( 'NONE',  ( -8.500119846243670500, -25.70410552145836300, 1.066104412494567100 ) ) ;
#58 =( LENGTH_UNIT ( ) NAMED_UNIT ( * ) SI_UNIT ( .MILLI., .METRE. ) );
#59 = AXIS2_PLACEMENT_3D ( 'NONE', #262, #217, #215 ) ;
#60 = APPROVAL_PERSON_ORGANIZATION ( #154, #223, #117 ) ;
#61 = ORIENTED_EDGE ( 'NONE', *, *, #64, .F. ) ;
#62 = CC_DESIGN_APPROVAL ( #133, ( #204 ) ) ;
#63 = CARTESIAN_POINT ( 'NONE',  ( -8.500119846243672200, 25.70410552145845200, 1.066104412494511400 ) ) ;
#64 = EDGE_CURVE ( 'NONE', #257, #292, #249, .T. ) ;
#65 = DATE_AND_TIME ( #288, #37 ) ;
#66 = CARTESIAN_POINT ( 'NONE',  ( 25.46429438000666700, 25.70410552145845200, 2.115993488033624600 ) ) ;
#67 = PERSON ( 'UNSPECIFIED', 'UNSPECIFIED', 'UNSPECIFIED', ('UNSPECIFIED'), ('UNSPECIFIED'), ('UNSPECIFIED') ) ;
#68 = ORIENTED_EDGE ( 'NONE', *, *, #134, .F. ) ;
#69 = DATE_AND_TIME ( #52, #131 ) ;
#70 = FACE_OUTER_BOUND ( 'NONE', #53, .T. ) ;
#71 = MANIFOLD_SOLID_BREP ( 'Imported1', #247 ) ;
#72 = EDGE_CURVE ( 'NONE', #25, #141, #165, .T. ) ;
#73 = ADVANCED_FACE ( 'NONE', ( #151 ), #286, .T. ) ;
#74 = VERTEX_POINT ( 'NONE', #201 ) ;
#75 = CARTESIAN_POINT ( 'NONE',  ( -16.99302421074519700, -25.70410552145836300, 1.416265598146327200 ) ) ;
#76 = AXIS2_PLACEMENT_3D ( 'NONE', #242, #126, #256 ) ;
#77 = DIRECTION ( 'NONE',  ( 1.000000000000000000, 0.0000000000000000000, 0.0000000000000000000 ) ) ;
#78 = SECURITY_CLASSIFICATION ( '', '', #140 ) ;
#79 =( BOUNDED_SURFACE ( )  B_SPLINE_SURFACE ( 3, 3, ( 
 ( #167, #267, #148, #21 ),
 ( #291, #23, #268, #127 ),
 ( #149, #89, #246, #245 ),
 ( #193, #24, #244, #66 ) ),
 .UNSPECIFIED., .F., .F., .T. ) 
 B_SPLINE_SURFACE_WITH_KNOTS ( ( 4, 4 ),
 ( 4, 4 ),
 ( 0.0000000000000000000, 1.000000000000000000 ),
 ( 0.0000000000000000000, 1.000000000000000000 ),
 .UNSPECIFIED. ) 
 GEOMETRIC_REPRESENTATION_ITEM ( )  RATIONAL_B_SPLINE_SURFACE ( (
 ( 1.000000000000000000, 0.9994340878424697900, 0.9994340878424697900, 1.000000000000000000),
 ( 0.9977102568460170000, 0.9971456404819752900, 0.9971456404819752900, 0.9977102568460170000),
 ( 0.9977102568460170000, 0.9971456404819752900, 0.9971456404819752900, 0.9977102568460170000),
 ( 1.000000000000000000, 0.9994340878424697900, 0.9994340878424697900, 1.000000000000000000) ) ) 
 REPRESENTATION_ITEM ( '' )  SURFACE ( )  );
#80 = ORIENTED_EDGE ( 'NONE', *, *, #56, .F. ) ;
#81 = CARTESIAN_POINT ( 'NONE',  ( 25.58137680736769000, -8.587698798351425500, 4.301467340071032400 ) ) ;
#82 = VERTEX_POINT ( 'NONE', #42 ) ;
#83 = DIRECTION ( 'NONE',  ( 1.000000000000000000, 0.0000000000000000000, 0.0000000000000000000 ) ) ;
#84 = CARTESIAN_POINT ( 'NONE',  ( -25.58137680736769700, 8.587698798351507200, 0.6985326599289254400 ) ) ;
#85 = APPROVAL_STATUS ( 'not_yet_approved' ) ;
#86 = DIRECTION ( 'NONE',  ( 0.0000000000000000000, 0.0000000000000000000, 1.000000000000000000 ) ) ;
#87 = CARTESIAN_POINT ( 'NONE',  ( -25.58137680736763300, -8.587698798351425500, 4.301467340071059900 ) ) ;
#88 = ORIENTED_EDGE ( 'NONE', *, *, #253, .T. ) ;
#89 = CARTESIAN_POINT ( 'NONE',  ( 8.539202596765159500, 8.587698798351509000, -0.3561837067022004500 ) ) ;
#90 = DIRECTION ( 'NONE',  ( -0.0000000000000000000, -0.0000000000000000000, -1.000000000000000000 ) ) ;
#91 = CARTESIAN_POINT ( 'NONE',  ( 8.500119846243670500, -25.70410552145838800, 3.933895587505437300 ) ) ;
#92 = ORIENTED_EDGE ( 'NONE', *, *, #72, .T. ) ;
#93 = ADVANCED_FACE ( 'NONE', ( #136 ), #146, .T. ) ;
#94 = CARTESIAN_POINT ( 'NONE',  ( -25.39999999999999900, 7.995584178184967200E-015, 1.040985261460340100 ) ) ;
#95 = COORDINATED_UNIVERSAL_TIME_OFFSET ( 2, 0, .AHEAD. ) ;
#96 = CARTESIAN_POINT ( 'NONE',  ( -1.136868377216160000E-013, -25.40000000000001300, 3.959014738539658600 ) ) ;
#97 = CIRCLE ( 'NONE', #192, 25.39999999999999900 ) ;
#98 = CC_DESIGN_PERSON_AND_ORGANIZATION_ASSIGNMENT ( #282, #180, ( #6 ) ) ;
#99 = VERTEX_POINT ( 'NONE', #159 ) ;
#100 = CARTESIAN_POINT ( 'NONE',  ( 25.58137680736769300, 8.587698798351521400, 4.301467340071084800 ) ) ;
#101 = CC_DESIGN_SECURITY_CLASSIFICATION ( #78, ( #6 ) ) ;
#102 =( NAMED_UNIT ( * ) PLANE_ANGLE_UNIT ( ) SI_UNIT ( $, .RADIAN. ) );
#103 = PERSON_AND_ORGANIZATION ( #67, #138 ) ;
#104 = CC_DESIGN_APPROVAL ( #19, ( #78 ) ) ;
#105 = ORIENTED_EDGE ( 'NONE', *, *, #253, .F. ) ;
#106 = PERSON_AND_ORGANIZATION ( #67, #138 ) ;
#107 = LINE ( 'NONE', #168, #50 ) ;
#108 = DIRECTION ( 'NONE',  ( 1.000000000000000000, 0.0000000000000000000, 0.0000000000000000000 ) ) ;
#109 = CARTESIAN_POINT ( 'NONE',  ( 9.992007221626412800E-016, 4.884981308350691100E-015, 3.959014738539660300 ) ) ;
#110 = EDGE_LOOP ( 'NONE', ( #119, #228, #182 ) ) ;
#111 = CALENDAR_DATE ( 2019, 11, 1 ) ;
#112 = EDGE_LOOP ( 'NONE', ( #48, #92, #68 ) ) ;
#113 = CC_DESIGN_PERSON_AND_ORGANIZATION_ASSIGNMENT ( #145, #178, ( #248 ) ) ;
#114 = APPROVAL_PERSON_ORGANIZATION ( #103, #19, #278 ) ;
#115 = EDGE_CURVE ( 'NONE', #257, #29, #27, .T. ) ;
#116 = PERSON_AND_ORGANIZATION_ROLE ( 'design_supplier' ) ;
#117 = APPROVAL_ROLE ( '' ) ;
#118 = DIRECTION ( 'NONE',  ( 1.000000000000000000, 0.0000000000000000000, 0.0000000000000000000 ) ) ;
#119 = ORIENTED_EDGE ( 'NONE', *, *, #115, .F. ) ;
#120 = CARTESIAN_POINT ( 'NONE',  ( -25.46429438000672000, 25.70410552145845200, 2.115993488033651700 ) ) ;
#121 = APPROVAL_PERSON_ORGANIZATION ( #186, #133, #123 ) ;
#122 = ORIENTED_EDGE ( 'NONE', *, *, #174, .F. ) ;
#123 = APPROVAL_ROLE ( '' ) ;
#124 = CARTESIAN_POINT ( 'NONE',  ( 1.136868377216160000E-013, 8.526512829121199700E-014, 310.4000000000000300 ) ) ;
#125 = DESIGN_CONTEXT ( 'detailed design', #13, 'design' ) ;
#126 = DIRECTION ( 'NONE',  ( -0.0000000000000000000, -0.0000000000000000000, -1.000000000000000000 ) ) ;
#127 = CARTESIAN_POINT ( 'NONE',  ( 25.58137680736764000, -8.587698798351427200, 0.6985326599289493100 ) ) ;
#128 = DIRECTION ( 'NONE',  ( -0.0000000000000000000, -0.0000000000000000000, -1.000000000000000000 ) ) ;
#129 = DIRECTION ( 'NONE',  ( 1.000000000000000000, 8.881784197001252300E-016, 0.0000000000000000000 ) ) ;
#130 = ORIENTED_EDGE ( 'NONE', *, *, #174, .T. ) ;
#131 = LOCAL_TIME ( 9, 44, 30.00000000000000000, #164 ) ;
#132 = ADVANCED_FACE ( 'NONE', ( #251 ), #17, .T. ) ;
#133 = APPROVAL ( #258, 'UNSPECIFIED' ) ;
#134 = EDGE_CURVE ( 'NONE', #99, #141, #274, .T. ) ;
#135 = CARTESIAN_POINT ( 'NONE',  ( 9.992007221626412800E-016, 4.884981308350691100E-015, 1.040985261460340100 ) ) ;
#136 = FACE_OUTER_BOUND ( 'NONE', #195, .T. ) ;
#137 = CARTESIAN_POINT ( 'NONE',  ( -8.539202596765161200, 8.587698798351521400, 5.356183706702210200 ) ) ;
#138 = ORGANIZATION ( 'UNSPECIFIED', 'UNSPECIFIED', '' ) ;
#139 = ADVANCED_BREP_SHAPE_REPRESENTATION ( '111-0518E BK7 bi-cx 50.8 F300', ( #71, #209 ), #200 ) ;
#140 = SECURITY_CLASSIFICATION_LEVEL ( 'unclassified' ) ;
#141 = VERTEX_POINT ( 'NONE', #188 ) ;
#142 = CARTESIAN_POINT ( 'NONE',  ( -16.99302421074520100, 25.70410552145845200, 1.416265598146272000 ) ) ;
#143 = CARTESIAN_POINT ( 'NONE',  ( 25.46429438000672000, 25.70410552145849100, 2.884006511966352700 ) ) ;
#144 = CARTESIAN_POINT ( 'NONE',  ( -8.500119846243757500, -25.70410552145838800, 3.933895587505454200 ) ) ;
#145 = PERSON_AND_ORGANIZATION ( #67, #138 ) ;
#146 = CYLINDRICAL_SURFACE ( 'NONE', #59, 25.39999999999999900 ) ;
#147 = CC_DESIGN_DATE_AND_TIME_ASSIGNMENT ( #272, #254, ( #204 ) ) ;
#148 = CARTESIAN_POINT ( 'NONE',  ( 16.99302421074521500, -25.70410552145836300, 1.416265598146313700 ) ) ;
#149 = CARTESIAN_POINT ( 'NONE',  ( 1.136868377216160500E-013, 8.587698798351507200, -0.3561837067022004000 ) ) ;
#150 = PERSON_AND_ORGANIZATION ( #67, #138 ) ;
#151 = FACE_OUTER_BOUND ( 'NONE', #110, .T. ) ;
#152 = AXIS2_PLACEMENT_3D ( 'NONE', #266, #128, #287 ) ;
#153 = DIRECTION ( 'NONE',  ( 1.000000000000000000, 0.0000000000000000000, 0.0000000000000000000 ) ) ;
#154 = PERSON_AND_ORGANIZATION ( #67, #138 ) ;
#155 = ORIENTED_EDGE ( 'NONE', *, *, #16, .F. ) ;
#156 = EDGE_CURVE ( 'NONE', #25, #99, #231, .T. ) ;
#157 = CARTESIAN_POINT ( 'NONE',  ( 17.07115653568250800, -8.587698798351425500, 5.004412512896538000 ) ) ;
#158 = CARTESIAN_POINT ( 'NONE',  ( -4.163336342344336400E-014, 8.587698798351523200, 5.356183706702196900 ) ) ;
#159 = CARTESIAN_POINT ( 'NONE',  ( -25.39999999999999900, 7.995584178184967200E-015, 3.959014738539660300 ) ) ;
#160 = CARTESIAN_POINT ( 'NONE',  ( -8.500119846243757500, 25.70410552145849100, 3.933895587505509700 ) ) ;
#161 = CARTESIAN_POINT ( 'NONE',  ( -17.07115653568250800, -8.587698798351427200, -0.004412512896528495900 ) ) ;
#162 = ORIENTED_EDGE ( 'NONE', *, *, #265, .F. ) ;
#163 = CARTESIAN_POINT ( 'NONE',  ( 8.539202596765076000, 8.587698798351523200, 5.356183706702195100 ) ) ;
#164 = COORDINATED_UNIVERSAL_TIME_OFFSET ( 2, 0, .AHEAD. ) ;
#165 = CIRCLE ( 'NONE', #31, 310.4000000000000300 ) ;
#166 = DIRECTION ( 'NONE',  ( 1.000000000000000000, 0.0000000000000000000, 0.0000000000000000000 ) ) ;
#167 = CARTESIAN_POINT ( 'NONE',  ( 1.136868377216160000E-013, -25.70410552145836600, 1.066104412494550700 ) ) ;
#168 = CARTESIAN_POINT ( 'NONE',  ( 25.39999999999999900, 4.884981308350691100E-015, 1.040985261460340100 ) ) ;
#169 = CARTESIAN_POINT ( 'NONE',  ( 0.0000000000000000000, 0.0000000000000000000, 0.0000000000000000000 ) ) ;
#170 = ORIENTED_EDGE ( 'NONE', *, *, #115, .T. ) ;
#171 = APPROVAL_DATE_TIME ( #239, #223 ) ;
#172 = LINE ( 'NONE', #94, #38 ) ;
#173 = ADVANCED_FACE ( 'NONE', ( #187 ), #276, .T. ) ;
#174 = EDGE_CURVE ( 'NONE', #141, #82, #33, .T. ) ;
#175 = DIRECTION ( 'NONE',  ( 0.0000000000000000000, -1.000000000000000000, 7.153498870007451200E-016 ) ) ;
#176 = DIRECTION ( 'NONE',  ( 0.0000000000000000000, 0.0000000000000000000, 1.000000000000000000 ) ) ;
#177 = ORIENTED_EDGE ( 'NONE', *, *, #265, .T. ) ;
#178 = PERSON_AND_ORGANIZATION_ROLE ( 'design_owner' ) ;
#179 = CARTESIAN_POINT ( 'NONE',  ( -4.163336342344337000E-014, 25.70410552145849100, 3.933895587505495500 ) ) ;
#180 = PERSON_AND_ORGANIZATION_ROLE ( 'creator' ) ;
#181 = CARTESIAN_POINT ( 'NONE',  ( -1.136868377216160000E-013, 25.70410552145849100, 3.933895587505509300 ) ) ;
#182 = ORIENTED_EDGE ( 'NONE', *, *, #56, .T. ) ;
#183 = APPROVAL_STATUS ( 'not_yet_approved' ) ;
#184 = PRODUCT_RELATED_PRODUCT_CATEGORY ( 'detail', '', ( #248 ) ) ;
#185 = CARTESIAN_POINT ( 'NONE',  ( -16.99302421074522200, 25.70410552145849100, 3.583734401853744700 ) ) ;
#186 = PERSON_AND_ORGANIZATION ( #67, #138 ) ;
#187 = FACE_OUTER_BOUND ( 'NONE', #112, .T. ) ;
#188 = CARTESIAN_POINT ( 'NONE',  ( -1.136868377216160000E-013, 25.40000000000010200, 3.959014738539658600 ) ) ;
#189 = CARTESIAN_POINT ( 'NONE',  ( -1.136868377216160500E-013, -8.587698798351425500, 5.356183706702159600 ) ) ;
#190 = CARTESIAN_POINT ( 'NONE',  ( -25.39999999999999900, 7.995584178184967200E-015, 1.040985261460340100 ) ) ;
#191 = CARTESIAN_POINT ( 'NONE',  ( 16.99302421074519700, -25.70410552145838800, 3.583734401853676800 ) ) ;
#192 = AXIS2_PLACEMENT_3D ( 'NONE', #135, #229, #28 ) ;
#193 = CARTESIAN_POINT ( 'NONE',  ( 1.136868377216160000E-013, 25.70410552145845200, 1.066104412494495200 ) ) ;
#194 =( BOUNDED_SURFACE ( )  B_SPLINE_SURFACE ( 3, 3, ( 
 ( #46, #191, #91, #9 ),
 ( #81, #157, #233, #39 ),
 ( #100, #41, #163, #158 ),
 ( #143, #232, #235, #179 ) ),
 .UNSPECIFIED., .F., .F., .T. ) 
 B_SPLINE_SURFACE_WITH_KNOTS ( ( 4, 4 ),
 ( 4, 4 ),
 ( 0.0000000000000000000, 1.000000000000000000 ),
 ( 0.0000000000000000000, 1.000000000000000000 ),
 .UNSPECIFIED. ) 
 GEOMETRIC_REPRESENTATION_ITEM ( )  RATIONAL_B_SPLINE_SURFACE ( (
 ( 1.000000000000000000, 0.9994340878424697900, 0.9994340878424697900, 1.000000000000000000),
 ( 0.9977102568460167700, 0.9971456404819750700, 0.9971456404819750700, 0.9977102568460167700),
 ( 0.9977102568460167700, 0.9971456404819750700, 0.9971456404819750700, 0.9977102568460167700),
 ( 1.000000000000000000, 0.9994340878424697900, 0.9994340878424697900, 1.000000000000000000) ) ) 
 REPRESENTATION_ITEM ( '' )  SURFACE ( )  );
#195 = EDGE_LOOP ( 'NONE', ( #80, #5, #202, #130, #105, #216 ) ) ;
#196 = COORDINATED_UNIVERSAL_TIME_OFFSET ( 2, 0, .AHEAD. ) ;
#197 = CC_DESIGN_DATE_AND_TIME_ASSIGNMENT ( #207, #34, ( #78 ) ) ;
#198 = ADVANCED_FACE ( 'NONE', ( #70 ), #79, .T. ) ;
#199 = CIRCLE ( 'NONE', #220, 25.39999999999999900 ) ;
#200 =( GEOMETRIC_REPRESENTATION_CONTEXT ( 3 ) GLOBAL_UNCERTAINTY_ASSIGNED_CONTEXT ( ( #35 ) ) GLOBAL_UNIT_ASSIGNED_CONTEXT ( ( #58, #102, #210 ) ) REPRESENTATION_CONTEXT ( 'NONE', 'WORKASPACE' ) );
#201 = CARTESIAN_POINT ( 'NONE',  ( 25.39999999999999900, 4.884981308350691100E-015, 1.040985261460340100 ) ) ;
#202 = ORIENTED_EDGE ( 'NONE', *, *, #134, .T. ) ;
#203 = DIRECTION ( 'NONE',  ( 1.000000000000000000, 0.0000000000000000000, 0.0000000000000000000 ) ) ;
#204 = PRODUCT_DEFINITION ( 'UNKNOWN', '', #6, #125 ) ;
#205 = DIRECTION ( 'NONE',  ( -1.000000000000000000, 0.0000000000000000000, 0.0000000000000000000 ) ) ;
#206 = DIRECTION ( 'NONE',  ( -0.0000000000000000000, -0.0000000000000000000, -1.000000000000000000 ) ) ;
#207 = DATE_AND_TIME ( #49, #230 ) ;
#208 = ORIENTED_EDGE ( 'NONE', *, *, #47, .F. ) ;
#209 = AXIS2_PLACEMENT_3D ( 'NONE', #169, #212, #83 ) ;
#210 =( NAMED_UNIT ( * ) SI_UNIT ( $, .STERADIAN. ) SOLID_ANGLE_UNIT ( ) );
#211 = CALENDAR_DATE ( 2019, 11, 1 ) ;
#212 = DIRECTION ( 'NONE',  ( 0.0000000000000000000, 0.0000000000000000000, 1.000000000000000000 ) ) ;
#213 = CARTESIAN_POINT ( 'NONE',  ( -25.46429438000667000, 25.70410552145849100, 2.884006511966378900 ) ) ;
#214 = APPLICATION_CONTEXT ( 'configuration controlled 3d designs of mechanical parts and assemblies' ) ;
#215 = DIRECTION ( 'NONE',  ( 1.000000000000000000, 0.0000000000000000000, 0.0000000000000000000 ) ) ;
#216 = ORIENTED_EDGE ( 'NONE', *, *, #44, .F. ) ;
#217 = DIRECTION ( 'NONE',  ( 0.0000000000000000000, 0.0000000000000000000, 1.000000000000000000 ) ) ;
#218 = CIRCLE ( 'NONE', #152, 25.39999999999999900 ) ;
#219 = DIRECTION ( 'NONE',  ( -0.0000000000000000000, -0.0000000000000000000, -1.000000000000000000 ) ) ;
#220 = AXIS2_PLACEMENT_3D ( 'NONE', #32, #227, #153 ) ;
#221 = LOCAL_TIME ( 9, 44, 30.00000000000000000, #30 ) ;
#222 = DIRECTION ( 'NONE',  ( 0.0000000000000000000, 0.0000000000000000000, 1.000000000000000000 ) ) ;
#223 = APPROVAL ( #183, 'UNSPECIFIED' ) ;
#224 = EDGE_LOOP ( 'NONE', ( #238, #155, #122 ) ) ;
#225 = FACE_OUTER_BOUND ( 'NONE', #224, .T. ) ;
#226 = CARTESIAN_POINT ( 'NONE',  ( -25.46429438000671700, -25.70410552145836600, 2.115993488033707200 ) ) ;
#227 = DIRECTION ( 'NONE',  ( -0.0000000000000000000, -0.0000000000000000000, -1.000000000000000000 ) ) ;
#228 = ORIENTED_EDGE ( 'NONE', *, *, #64, .T. ) ;
#229 = DIRECTION ( 'NONE',  ( -0.0000000000000000000, -0.0000000000000000000, -1.000000000000000000 ) ) ;
#230 = LOCAL_TIME ( 9, 44, 30.00000000000000000, #95 ) ;
#231 = CIRCLE ( 'NONE', #76, 25.39999999999999900 ) ;
#232 = CARTESIAN_POINT ( 'NONE',  ( 16.99302421074520100, 25.70410552145849100, 3.583734401853732300 ) ) ;
#233 = CARTESIAN_POINT ( 'NONE',  ( 8.539202596765074200, -8.587698798351423700, 5.356183706702142700 ) ) ;
#234 = CARTESIAN_POINT ( 'NONE',  ( 4.163336342344337000E-014, 8.587698798351507200, -0.3561837067021858500 ) ) ;
#235 = CARTESIAN_POINT ( 'NONE',  ( 8.500119846243672200, 25.70410552145849100, 3.933895587505493700 ) ) ;
#236 = CC_DESIGN_PERSON_AND_ORGANIZATION_ASSIGNMENT ( #150, #116, ( #6 ) ) ;
#237 = CARTESIAN_POINT ( 'NONE',  ( -17.07115653568250800, 8.587698798351509000, -0.004412512896579345900 ) ) ;
#238 = ORIENTED_EDGE ( 'NONE', *, *, #72, .F. ) ;
#239 = DATE_AND_TIME ( #111, #293 ) ;
#240 = CARTESIAN_POINT ( 'NONE',  ( -1.136868377216160500E-013, 8.587698798351521400, 5.356183706702210200 ) ) ;
#241 = AXIS2_PLACEMENT_3D ( 'NONE', #124, #108, #281 ) ;
#242 = CARTESIAN_POINT ( 'NONE',  ( 9.992007221626412800E-016, 4.884981308350691100E-015, 3.959014738539660300 ) ) ;
#243 = CARTESIAN_POINT ( 'NONE',  ( 4.163336342344337000E-014, -25.70410552145836600, 1.066104412494565100 ) ) ;
#244 = CARTESIAN_POINT ( 'NONE',  ( 16.99302421074521500, 25.70410552145845200, 1.416265598146258600 ) ) ;
#245 = CARTESIAN_POINT ( 'NONE',  ( 25.58137680736764400, 8.587698798351507200, 0.6985326599288990100 ) ) ;
#246 = CARTESIAN_POINT ( 'NONE',  ( 17.07115653568252300, 8.587698798351509000, -0.004412512896592356300 ) ) ;
#247 = CLOSED_SHELL ( 'NONE', ( #198, #173, #93, #73, #132, #290 ) ) ;
#248 = PRODUCT ( '111-0518E BK7 bi-cx 50.8 F300', '111-0518E BK7 bi-cx 50.8 F300', '', ( #10 ) ) ;
#249 = CIRCLE ( 'NONE', #269, 25.39999999999999900 ) ;
#250 = CARTESIAN_POINT ( 'NONE',  ( -1.136868377216160000E-013, 8.526512829121199700E-014, -305.3999999999999800 ) ) ;
#251 = FACE_OUTER_BOUND ( 'NONE', #271, .T. ) ;
#252 = CC_DESIGN_PERSON_AND_ORGANIZATION_ASSIGNMENT ( #106, #55, ( #78 ) ) ;
#253 = EDGE_CURVE ( 'NONE', #74, #82, #107, .T. ) ;
#254 = DATE_TIME_ROLE ( 'creation_date' ) ;
#255 = APPLICATION_PROTOCOL_DEFINITION ( 'international standard', 'config_control_design', 1994, #214 ) ;
#256 = DIRECTION ( 'NONE',  ( 1.000000000000000000, 0.0000000000000000000, 0.0000000000000000000 ) ) ;
#257 = VERTEX_POINT ( 'NONE', #289 ) ;
#258 = APPROVAL_STATUS ( 'not_yet_approved' ) ;
#259 = CARTESIAN_POINT ( 'NONE',  ( -8.539202596765077800, -8.587698798351427200, -0.3561837067021332300 ) ) ;
#260 = APPLICATION_PROTOCOL_DEFINITION ( 'international standard', 'config_control_design', 1994, #13 ) ;
#261 = CARTESIAN_POINT ( 'NONE',  ( 9.992007221626412800E-016, 4.884981308350691100E-015, 3.959014738539660300 ) ) ;
#262 = CARTESIAN_POINT ( 'NONE',  ( 9.992007221626412800E-016, 4.884981308350691100E-015, 1.040985261460340100 ) ) ;
#263 = SHAPE_DEFINITION_REPRESENTATION ( #4, #139 ) ;
#264 = CARTESIAN_POINT ( 'NONE',  ( 9.992007221626412800E-016, 4.884981308350691100E-015, 1.040985261460340100 ) ) ;
#265 = EDGE_CURVE ( 'NONE', #74, #257, #218, .T. ) ;
#266 = CARTESIAN_POINT ( 'NONE',  ( 9.992007221626412800E-016, 4.884981308350691100E-015, 1.040985261460340100 ) ) ;
#267 = CARTESIAN_POINT ( 'NONE',  ( 8.500119846243757500, -25.70410552145836300, 1.066104412494550700 ) ) ;
#268 = CARTESIAN_POINT ( 'NONE',  ( 17.07115653568252300, -8.587698798351427200, -0.004412512896541940900 ) ) ;
#269 = AXIS2_PLACEMENT_3D ( 'NONE', #270, #54, #77 ) ;
#270 = CARTESIAN_POINT ( 'NONE',  ( 9.992007221626412800E-016, 4.884981308350691100E-015, 1.040985261460340100 ) ) ;
#271 = EDGE_LOOP ( 'NONE', ( #208, #61, #162, #88, #43, #280 ) ) ;
#272 = DATE_AND_TIME ( #211, #221 ) ;
#273 = CARTESIAN_POINT ( 'NONE',  ( -8.539202596765159500, -8.587698798351425500, 5.356183706702159600 ) ) ;
#274 = CIRCLE ( 'NONE', #8, 25.39999999999999900 ) ;
#275 = APPROVAL_DATE_TIME ( #69, #133 ) ;
#276 =( BOUNDED_SURFACE ( )  B_SPLINE_SURFACE ( 3, 3, ( 
 ( #285, #144, #277, #45 ),
 ( #189, #273, #14, #87 ),
 ( #240, #137, #12, #36 ),
 ( #181, #160, #185, #213 ) ),
 .UNSPECIFIED., .F., .F., .T. ) 
 B_SPLINE_SURFACE_WITH_KNOTS ( ( 4, 4 ),
 ( 4, 4 ),
 ( 0.0000000000000000000, 1.000000000000000000 ),
 ( 0.0000000000000000000, 1.000000000000000000 ),
 .UNSPECIFIED. ) 
 GEOMETRIC_REPRESENTATION_ITEM ( )  RATIONAL_B_SPLINE_SURFACE ( (
 ( 1.000000000000000000, 0.9994340878424697900, 0.9994340878424697900, 1.000000000000000000),
 ( 0.9977102568460167700, 0.9971456404819750700, 0.9971456404819750700, 0.9977102568460167700),
 ( 0.9977102568460167700, 0.9971456404819750700, 0.9971456404819750700, 0.9977102568460167700),
 ( 1.000000000000000000, 0.9994340878424697900, 0.9994340878424697900, 1.000000000000000000) ) ) 
 REPRESENTATION_ITEM ( '' )  SURFACE ( )  );
#277 = CARTESIAN_POINT ( 'NONE',  ( -16.99302421074521500, -25.70410552145838800, 3.583734401853690100 ) ) ;
#278 = APPROVAL_ROLE ( '' ) ;
#279 = CARTESIAN_POINT ( 'NONE',  ( 4.163336342344337000E-014, 25.70410552145845200, 1.066104412494509600 ) ) ;
#280 = ORIENTED_EDGE ( 'NONE', *, *, #156, .T. ) ;
#281 = DIRECTION ( 'NONE',  ( 0.0000000000000000000, -1.000000000000000000, -3.576749435003725600E-016 ) ) ;
#282 = PERSON_AND_ORGANIZATION ( #67, #138 ) ;
#283 = ORIENTED_EDGE ( 'NONE', *, *, #44, .T. ) ;
#284 = AXIS2_PLACEMENT_3D ( 'NONE', #264, #86, #118 ) ;
#285 = CARTESIAN_POINT ( 'NONE',  ( -1.136868377216160000E-013, -25.70410552145839100, 3.933895587505453800 ) ) ;
#286 =( BOUNDED_SURFACE ( )  B_SPLINE_SURFACE ( 3, 3, ( 
 ( #226, #75, #57, #243 ),
 ( #18, #161, #259, #40 ),
 ( #84, #237, #20, #234 ),
 ( #120, #142, #63, #279 ) ),
 .UNSPECIFIED., .F., .F., .F. ) 
 B_SPLINE_SURFACE_WITH_KNOTS ( ( 4, 4 ),
 ( 4, 4 ),
 ( 0.0000000000000000000, 1.000000000000000000 ),
 ( 0.0000000000000000000, 1.000000000000000000 ),
 .UNSPECIFIED. ) 
 GEOMETRIC_REPRESENTATION_ITEM ( )  RATIONAL_B_SPLINE_SURFACE ( (
 ( 1.000000000000000000, 0.9994340878424697900, 0.9994340878424697900, 1.000000000000000000),
 ( 0.9977102568460170000, 0.9971456404819752900, 0.9971456404819752900, 0.9977102568460170000),
 ( 0.9977102568460170000, 0.9971456404819752900, 0.9971456404819752900, 0.9977102568460170000),
 ( 1.000000000000000000, 0.9994340878424697900, 0.9994340878424697900, 1.000000000000000000) ) ) 
 REPRESENTATION_ITEM ( '' )  SURFACE ( )  );
#287 = DIRECTION ( 'NONE',  ( 1.000000000000000000, 0.0000000000000000000, 0.0000000000000000000 ) ) ;
#288 = CALENDAR_DATE ( 2019, 11, 1 ) ;
#289 = CARTESIAN_POINT ( 'NONE',  ( 1.136868377216160000E-013, -25.40000000000001300, 1.040985261460343600 ) ) ;
#290 = ADVANCED_FACE ( 'NONE', ( #225 ), #194, .T. ) ;
#291 = CARTESIAN_POINT ( 'NONE',  ( 1.136868377216160500E-013, -8.587698798351427200, -0.3561837067021499400 ) ) ;
#292 = VERTEX_POINT ( 'NONE', #190 ) ;
#293 = LOCAL_TIME ( 9, 44, 30.00000000000000000, #26 ) ;
#294 = CIRCLE ( 'NONE', #22, 25.39999999999999900 ) ;
#295 = CC_DESIGN_APPROVAL ( #223, ( #6 ) ) ;
ENDSEC;
END-ISO-10303-21;
