ISO-10303-21;
HEADER;
FILE_DESCRIPTION (( 'STEP AP203' ),
    '1' );
FILE_NAME ('111-0514E BK7 bi-cx 50.8 F200.STEP',
    '2019-01-11T07:28:18',
    ( '' ),
    ( '' ),
    'SwSTEP 2.0',
    'SolidWorks 2017',
    '' );
FILE_SCHEMA (( 'CONFIG_CONTROL_DESIGN' ));
ENDSEC;

DATA;
#1 = APPROVAL ( #272, 'UNSPECIFIED' ) ;
#2 = APPLICATION_PROTOCOL_DEFINITION ( 'international standard', 'config_control_design', 1994, #144 ) ;
#3 = APPLICATION_CONTEXT ( 'configuration controlled 3d designs of mechanical parts and assemblies' ) ;
#4 = PERSON_AND_ORGANIZATION ( #162, #294 ) ;
#5 = EDGE_LOOP ( 'NONE', ( #255, #113, #295 ) ) ;
#6 =( BOUNDED_SURFACE ( )  B_SPLINE_SURFACE ( 3, 3, ( 
 ( #21, #190, #94, #287 ),
 ( #119, #210, #234, #230 ),
 ( #97, #231, #270, #142 ),
 ( #92, #158, #36, #206 ) ),
 .UNSPECIFIED., .F., .F., .T. ) 
 B_SPLINE_SURFACE_WITH_KNOTS ( ( 4, 4 ),
 ( 4, 4 ),
 ( 0.0000000000000000000, 1.000000000000000000 ),
 ( 0.0000000000000000000, 1.000000000000000000 ),
 .UNSPECIFIED. ) 
 GEOMETRIC_REPRESENTATION_ITEM ( )  RATIONAL_B_SPLINE_SURFACE ( (
 ( 1.000000000000000000, 0.9987191957908283500, 0.9987191957908283500, 1.000000000000000000),
 ( 0.9948205486622161400, 0.9935463783161191400, 0.9935463783161191400, 0.9948205486622161400),
 ( 0.9948205486622161400, 0.9935463783161191400, 0.9935463783161191400, 0.9948205486622161400),
 ( 1.000000000000000000, 0.9987191957908283500, 0.9987191957908283500, 1.000000000000000000) ) ) 
 REPRESENTATION_ITEM ( '' )  SURFACE ( )  );
#7 = EDGE_CURVE ( 'NONE', #196, #103, #38, .T. ) ;
#8 = APPROVAL_DATE_TIME ( #80, #167 ) ;
#9 = CARTESIAN_POINT ( 'NONE',  ( -8.566788775285228800, 8.612349599619632200, 5.537822950996099000 ) ) ;
#10 = DIRECTION ( 'NONE',  ( -2.813027685172511800E-016, -1.000000000000000000, 2.686890185443263700E-016 ) ) ;
#11 = DIRECTION ( 'NONE',  ( -0.0000000000000000000, -0.0000000000000000000, -1.000000000000000000 ) ) ;
#12 = CC_DESIGN_SECURITY_CLASSIFICATION ( #129, ( #253 ) ) ;
#13 = CARTESIAN_POINT ( 'NONE',  ( 25.61813672304904800, -8.612349599619692600, 3.947534083280530600 ) ) ;
#14 = APPROVAL_PERSON_ORGANIZATION ( #43, #77, #237 ) ;
#15 = CYLINDRICAL_SURFACE ( 'NONE', #183, 25.39999999999999900 ) ;
#16 = CARTESIAN_POINT ( 'NONE',  ( 8.478161451881671700, 25.70322706189327600, 3.394888030420800900 ) ) ;
#17 = CARTESIAN_POINT ( 'NONE',  ( 25.39999999999999900, 4.884981308350691100E-015, 1.567319678057180100 ) ) ;
#18 = CARTESIAN_POINT ( 'NONE',  ( -25.61813672304904400, -8.612349599619648200, 1.052465916719503800 ) ) ;
#19 = CARTESIAN_POINT ( 'NONE',  ( 9.992007221626412800E-016, 4.884981308350691100E-015, 1.567319678057180100 ) ) ;
#20 = CARTESIAN_POINT ( 'NONE',  ( -25.61813672304905200, 8.612349599619655300, 1.052465916719493200 ) ) ;
#21 = CARTESIAN_POINT ( 'NONE',  ( 2.006112316195654000E-013, -25.70322706189330500, 1.605111969579214900 ) ) ;
#22 =( NAMED_UNIT ( * ) PLANE_ANGLE_UNIT ( ) SI_UNIT ( $, .RADIAN. ) );
#23 = FACE_OUTER_BOUND ( 'NONE', #5, .T. ) ;
#24 = DATE_TIME_ROLE ( 'creation_date' ) ;
#25 = AXIS2_PLACEMENT_3D ( 'NONE', #40, #209, #233 ) ;
#26 = PERSON_AND_ORGANIZATION ( #162, #294 ) ;
#27 = CLOSED_SHELL ( 'NONE', ( #273, #123, #239, #48, #72, #148 ) ) ;
#28 = EDGE_CURVE ( 'NONE', #215, #103, #259, .T. ) ;
#29 = CARTESIAN_POINT ( 'NONE',  ( -1.920883635227968200E-013, 8.612349599619630400, 5.537822950996102600 ) ) ;
#30 = VERTEX_POINT ( 'NONE', #235 ) ;
#31 = CARTESIAN_POINT ( 'NONE',  ( 25.39999999999999900, 4.884981308350691100E-015, 3.432680321942830100 ) ) ;
#32 = CARTESIAN_POINT ( 'NONE',  ( -8.566788775285234100, -8.612349599619657100, 5.537822950996091900 ) ) ;
#33 = AXIS2_PLACEMENT_3D ( 'NONE', #110, #11, #201 ) ;
#34 = CARTESIAN_POINT ( 'NONE',  ( -8.526512829121199700E-014, -5.684341886080800200E-014, -201.5999999999999900 ) ) ;
#35 = ORIENTED_EDGE ( 'NONE', *, *, #153, .T. ) ;
#36 = CARTESIAN_POINT ( 'NONE',  ( 16.94003460645308200, 25.70322706189328300, 2.130396959007382100 ) ) ;
#37 = CARTESIAN_POINT ( 'NONE',  ( -1.387778780781445700E-013, -8.612349599619685500, 5.537822950996111400 ) ) ;
#38 = LINE ( 'NONE', #207, #150 ) ;
#39 = DIRECTION ( 'NONE',  ( 2.813027685172511800E-016, -1.000000000000000000, -2.686890185443263700E-016 ) ) ;
#40 = CARTESIAN_POINT ( 'NONE',  ( 9.992007221626412800E-016, 4.884981308350691100E-015, 1.567319678057180100 ) ) ;
#41 = CARTESIAN_POINT ( 'NONE',  ( 9.992007221626412800E-016, 4.884981308350691100E-015, 3.432680321942830100 ) ) ;
#42 = PERSON_AND_ORGANIZATION_ROLE ( 'design_owner' ) ;
#43 = PERSON_AND_ORGANIZATION ( #162, #294 ) ;
#44 = VERTEX_POINT ( 'NONE', #269 ) ;
#45 = PERSON_AND_ORGANIZATION_ROLE ( 'creator' ) ;
#46 = CC_DESIGN_APPROVAL ( #1, ( #253 ) ) ;
#47 = APPROVAL_STATUS ( 'not_yet_approved' ) ;
#48 = ADVANCED_FACE ( 'NONE', ( #23 ), #58, .T. ) ;
#49 = EDGE_CURVE ( 'NONE', #164, #215, #89, .T. ) ;
#50 = ORIENTED_EDGE ( 'NONE', *, *, #49, .T. ) ;
#51 = MANIFOLD_SOLID_BREP ( 'Imported1', #27 ) ;
#52 = EDGE_CURVE ( 'NONE', #222, #164, #220, .T. ) ;
#53 = PERSON_AND_ORGANIZATION ( #162, #294 ) ;
#54 = ORIENTED_EDGE ( 'NONE', *, *, #7, .F. ) ;
#55 = AXIS2_PLACEMENT_3D ( 'NONE', #176, #57, #200 ) ;
#56 = ORIENTED_EDGE ( 'NONE', *, *, #108, .F. ) ;
#57 = DIRECTION ( 'NONE',  ( -0.0000000000000000000, -0.0000000000000000000, -1.000000000000000000 ) ) ;
#58 =( BOUNDED_SURFACE ( )  B_SPLINE_SURFACE ( 3, 3, ( 
 ( #116, #66, #98, #120 ),
 ( #18, #140, #211, #250 ),
 ( #20, #69, #189, #251 ),
 ( #290, #248, #266, #161 ) ),
 .UNSPECIFIED., .F., .F., .T. ) 
 B_SPLINE_SURFACE_WITH_KNOTS ( ( 4, 4 ),
 ( 4, 4 ),
 ( 0.0000000000000000000, 1.000000000000000000 ),
 ( 0.0000000000000000000, 1.000000000000000000 ),
 .UNSPECIFIED. ) 
 GEOMETRIC_REPRESENTATION_ITEM ( )  RATIONAL_B_SPLINE_SURFACE ( (
 ( 1.000000000000000000, 0.9987191957908283500, 0.9987191957908283500, 1.000000000000000000),
 ( 0.9948205486622161400, 0.9935463783161191400, 0.9935463783161191400, 0.9948205486622161400),
 ( 0.9948205486622161400, 0.9935463783161191400, 0.9935463783161191400, 0.9948205486622161400),
 ( 1.000000000000000000, 0.9987191957908283500, 0.9987191957908283500, 1.000000000000000000) ) ) 
 REPRESENTATION_ITEM ( '' )  SURFACE ( )  );
#59 = ORIENTED_EDGE ( 'NONE', *, *, #78, .F. ) ;
#60 = DIRECTION ( 'NONE',  ( -0.0000000000000000000, -0.0000000000000000000, -1.000000000000000000 ) ) ;
#61 = CC_DESIGN_PERSON_AND_ORGANIZATION_ASSIGNMENT ( #240, #45, ( #83 ) ) ;
#62 = CARTESIAN_POINT ( 'NONE',  ( 25.35310545545249300, 25.70322706189326900, 1.821051423812725100 ) ) ;
#63 = LOCAL_TIME ( 9, 28, 18.00000000000000000, #254 ) ;
#64 = CARTESIAN_POINT ( 'NONE',  ( 17.11711898188653400, -8.612349599619689000, 5.007046841482393000 ) ) ;
#65 = ORIENTED_EDGE ( 'NONE', *, *, #139, .T. ) ;
#66 = CARTESIAN_POINT ( 'NONE',  ( -16.94003460645305000, -25.70322706189330800, 2.130396959007397700 ) ) ;
#67 = CC_DESIGN_PERSON_AND_ORGANIZATION_ASSIGNMENT ( #274, #42, ( #271 ) ) ;
#68 = CARTESIAN_POINT ( 'NONE',  ( -25.39999999999999900, 7.995584178184967200E-015, 3.432680321942830100 ) ) ;
#69 = CARTESIAN_POINT ( 'NONE',  ( -17.11711898188654100, 8.612349599619657100, -0.007046841482367861700 ) ) ;
#70 = LOCAL_TIME ( 9, 28, 18.00000000000000000, #111 ) ;
#71 = AXIS2_PLACEMENT_3D ( 'NONE', #283, #128, #179 ) ;
#72 = ADVANCED_FACE ( 'NONE', ( #186 ), #15, .T. ) ;
#73 = AXIS2_PLACEMENT_3D ( 'NONE', #86, #260, #39 ) ;
#74 = APPROVAL_PERSON_ORGANIZATION ( #26, #167, #217 ) ;
#75 = FACE_OUTER_BOUND ( 'NONE', #100, .T. ) ;
#76 = PERSON_AND_ORGANIZATION_ROLE ( 'design_supplier' ) ;
#77 = APPROVAL ( #216, 'UNSPECIFIED' ) ;
#78 = EDGE_CURVE ( 'NONE', #30, #215, #204, .T. ) ;
#79 = APPROVAL_PERSON_ORGANIZATION ( #53, #1, #143 ) ;
#80 = DATE_AND_TIME ( #214, #185 ) ;
#81 = CIRCLE ( 'NONE', #33, 25.39999999999999900 ) ;
#82 = CARTESIAN_POINT ( 'NONE',  ( 16.94003460645304700, -25.70322706189335400, 2.869603040992633900 ) ) ;
#83 = PRODUCT_DEFINITION ( 'UNKNOWN', '', #253, #91 ) ;
#84 = CALENDAR_DATE ( 2019, 11, 1 ) ;
#85 = DIRECTION ( 'NONE',  ( 1.000000000000000000, 0.0000000000000000000, 0.0000000000000000000 ) ) ;
#86 = CARTESIAN_POINT ( 'NONE',  ( 8.526512829121199700E-014, -5.684341886080800200E-014, 206.5999999999999900 ) ) ;
#87 = DIRECTION ( 'NONE',  ( 1.000000000000000000, -8.881784197001252300E-016, 0.0000000000000000000 ) ) ;
#88 = AXIS2_PLACEMENT_3D ( 'NONE', #264, #133, #121 ) ;
#89 = CIRCLE ( 'NONE', #171, 25.39999999999999900 ) ;
#90 = CARTESIAN_POINT ( 'NONE',  ( 8.566788775285054700, 8.612349599619612700, 5.537822950996117700 ) ) ;
#91 = DESIGN_CONTEXT ( 'detailed design', #3, 'design' ) ;
#92 = CARTESIAN_POINT ( 'NONE',  ( 1.861504537548891800E-013, 25.70322706189327600, 1.605111969579214900 ) ) ;
#93 = DIRECTION ( 'NONE',  ( -0.0000000000000000000, -0.0000000000000000000, -1.000000000000000000 ) ) ;
#94 = CARTESIAN_POINT ( 'NONE',  ( 16.94003460645309300, -25.70322706189330100, 2.130396959007381700 ) ) ;
#95 = CIRCLE ( 'NONE', #88, 25.39999999999999900 ) ;
#96 = EDGE_CURVE ( 'NONE', #30, #164, #81, .T. ) ;
#97 = CARTESIAN_POINT ( 'NONE',  ( 1.920883635227970200E-013, 8.612349599619630400, -0.5378229509960976700 ) ) ;
#98 = CARTESIAN_POINT ( 'NONE',  ( -8.478161451881659300, -25.70322706189330800, 1.605111969579230400 ) ) ;
#99 = CALENDAR_DATE ( 2019, 11, 1 ) ;
#100 = EDGE_LOOP ( 'NONE', ( #59, #56, #134 ) ) ;
#101 = APPLICATION_PROTOCOL_DEFINITION ( 'international standard', 'config_control_design', 1994, #3 ) ;
#102 = PERSON_AND_ORGANIZATION_ROLE ( 'creator' ) ;
#103 = VERTEX_POINT ( 'NONE', #31 ) ;
#104 = ORIENTED_EDGE ( 'NONE', *, *, #52, .F. ) ;
#105 = AXIS2_PLACEMENT_3D ( 'NONE', #19, #182, #288 ) ;
#106 = FACE_OUTER_BOUND ( 'NONE', #238, .T. ) ;
#107 = CARTESIAN_POINT ( 'NONE',  ( 9.992007221626412800E-016, 4.884981308350691100E-015, 1.567319678057180100 ) ) ;
#108 = EDGE_CURVE ( 'NONE', #103, #30, #247, .T. ) ;
#109 = DIRECTION ( 'NONE',  ( 0.0000000000000000000, 0.0000000000000000000, 1.000000000000000000 ) ) ;
#110 = CARTESIAN_POINT ( 'NONE',  ( 9.992007221626412800E-016, 4.884981308350691100E-015, 3.432680321942830100 ) ) ;
#111 = COORDINATED_UNIVERSAL_TIME_OFFSET ( 2, 0, .AHEAD. ) ;
#112 = CARTESIAN_POINT ( 'NONE',  ( -8.478161451881851100, -25.70322706189330100, 3.394888030420784500 ) ) ;
#113 = ORIENTED_EDGE ( 'NONE', *, *, #282, .T. ) ;
#114 = CARTESIAN_POINT ( 'NONE',  ( -17.11711898188657300, -8.612349599619653500, 5.007046841482376100 ) ) ;
#115 = CARTESIAN_POINT ( 'NONE',  ( 16.94003460645306100, 25.70322706189327600, 2.869603040992633900 ) ) ;
#116 = CARTESIAN_POINT ( 'NONE',  ( -25.35310545545247900, -25.70322706189331200, 3.178948576187306900 ) ) ;
#117 = EDGE_LOOP ( 'NONE', ( #104, #280, #122, #174, #289, #241 ) ) ;
#118 = CARTESIAN_POINT ( 'NONE',  ( 0.0000000000000000000, 0.0000000000000000000, 0.0000000000000000000 ) ) ;
#119 = CARTESIAN_POINT ( 'NONE',  ( 1.969337190944199000E-013, -8.612349599619658800, -0.5378229509960907900 ) ) ;
#120 = CARTESIAN_POINT ( 'NONE',  ( 1.422473250300981800E-013, -25.70322706189330500, 1.605111969579232400 ) ) ;
#121 = DIRECTION ( 'NONE',  ( 1.000000000000000000, -8.881784197001252300E-016, 0.0000000000000000000 ) ) ;
#122 = ORIENTED_EDGE ( 'NONE', *, *, #124, .F. ) ;
#123 = ADVANCED_FACE ( 'NONE', ( #106 ), #199, .T. ) ;
#124 = EDGE_CURVE ( 'NONE', #196, #44, #170, .T. ) ;
#125 = DATE_AND_TIME ( #156, #258 ) ;
#126 = ORIENTED_EDGE ( 'NONE', *, *, #124, .T. ) ;
#127 = ORIENTED_EDGE ( 'NONE', *, *, #160, .F. ) ;
#128 = DIRECTION ( 'NONE',  ( -0.0000000000000000000, -0.0000000000000000000, -1.000000000000000000 ) ) ;
#129 = SECURITY_CLASSIFICATION ( '', '', #212 ) ;
#130 = CARTESIAN_POINT ( 'NONE',  ( 9.992007221626412800E-016, 4.884981308350691100E-015, 3.432680321942830100 ) ) ;
#131 = CARTESIAN_POINT ( 'NONE',  ( 25.35310545545247900, -25.70322706189335800, 1.821051423812725100 ) ) ;
#132 = COORDINATED_UNIVERSAL_TIME_OFFSET ( 2, 0, .AHEAD. ) ;
#133 = DIRECTION ( 'NONE',  ( -0.0000000000000000000, -0.0000000000000000000, -1.000000000000000000 ) ) ;
#134 = ORIENTED_EDGE ( 'NONE', *, *, #28, .F. ) ;
#135 = AXIS2_PLACEMENT_3D ( 'NONE', #265, #136, #291 ) ;
#136 = DIRECTION ( 'NONE',  ( -0.0000000000000000000, -0.0000000000000000000, -1.000000000000000000 ) ) ;
#137 = CARTESIAN_POINT ( 'NONE',  ( -1.387778780781445700E-013, 8.612349599619614400, 5.537822950996114100 ) ) ;
#138 = ADVANCED_BREP_SHAPE_REPRESENTATION ( '111-0514E BK7 bi-cx 50.8 F200', ( #51, #277 ), #194 ) ;
#139 = EDGE_CURVE ( 'NONE', #44, #285, #223, .T. ) ;
#140 = CARTESIAN_POINT ( 'NONE',  ( -17.11711898188653400, -8.612349599619644600, -0.007046841482357021400 ) ) ;
#141 = COORDINATED_UNIVERSAL_TIME_OFFSET ( 2, 0, .AHEAD. ) ;
#142 = CARTESIAN_POINT ( 'NONE',  ( 25.61813672304892400, 8.612349599619637500, 1.052465916719452300 ) ) ;
#143 = APPROVAL_ROLE ( '' ) ;
#144 = APPLICATION_CONTEXT ( 'configuration controlled 3d designs of mechanical parts and assemblies' ) ;
#145 =( NAMED_UNIT ( * ) SI_UNIT ( $, .STERADIAN. ) SOLID_ANGLE_UNIT ( ) );
#146 = PERSON_AND_ORGANIZATION ( #162, #294 ) ;
#147 = CC_DESIGN_PERSON_AND_ORGANIZATION_ASSIGNMENT ( #4, #76, ( #253 ) ) ;
#148 = ADVANCED_FACE ( 'NONE', ( #75 ), #219, .T. ) ;
#149 = SHAPE_DEFINITION_REPRESENTATION ( #208, #138 ) ;
#150 = VECTOR ( 'NONE', #249, 1000.000000000000000 ) ;
#151 = FACE_OUTER_BOUND ( 'NONE', #275, .T. ) ;
#152 = CARTESIAN_POINT ( 'NONE',  ( -16.94003460645309300, -25.70322706189330100, 2.869603040992622800 ) ) ;
#153 = EDGE_CURVE ( 'NONE', #285, #196, #95, .T. ) ;
#154 = CARTESIAN_POINT ( 'NONE',  ( -2.006112316195652000E-013, -25.70322706189330500, 3.394888030420789300 ) ) ;
#155 = CARTESIAN_POINT ( 'NONE',  ( -25.35310545545235800, 25.70322706189328300, 1.821051423812744000 ) ) ;
#156 = CALENDAR_DATE ( 2019, 11, 1 ) ;
#157 = EDGE_LOOP ( 'NONE', ( #126, #65, #35 ) ) ;
#158 = CARTESIAN_POINT ( 'NONE',  ( 8.478161451881836900, 25.70322706189328300, 1.605111969579219300 ) ) ;
#159 = CARTESIAN_POINT ( 'NONE',  ( 8.478161451881657500, -25.70322706189335400, 3.394888030420800900 ) ) ;
#160 = EDGE_CURVE ( 'NONE', #222, #285, #227, .T. ) ;
#161 = CARTESIAN_POINT ( 'NONE',  ( 1.283695372222837200E-013, 25.70322706189332600, 1.605111969579232400 ) ) ;
#162 = PERSON ( 'UNSPECIFIED', 'UNSPECIFIED', 'UNSPECIFIED', ('UNSPECIFIED'), ('UNSPECIFIED'), ('UNSPECIFIED') ) ;
#163 = CARTESIAN_POINT ( 'NONE',  ( 17.11711898188654100, 8.612349599619609100, 5.007046841482396500 ) ) ;
#164 = VERTEX_POINT ( 'NONE', #68 ) ;
#165 = CARTESIAN_POINT ( 'NONE',  ( -25.39999999999999900, 7.995584178184967200E-015, 1.567319678057180100 ) ) ;
#166 =( LENGTH_UNIT ( ) NAMED_UNIT ( * ) SI_UNIT ( .MILLI., .METRE. ) );
#167 = APPROVAL ( #47, 'UNSPECIFIED' ) ;
#168 = DATE_AND_TIME ( #192, #70 ) ;
#169 = DIRECTION ( 'NONE',  ( 1.000000000000000000, 0.0000000000000000000, 0.0000000000000000000 ) ) ;
#170 = CIRCLE ( 'NONE', #55, 25.39999999999999900 ) ;
#171 = AXIS2_PLACEMENT_3D ( 'NONE', #130, #60, #87 ) ;
#172 = DATE_AND_TIME ( #99, #246 ) ;
#173 = ORIENTED_EDGE ( 'NONE', *, *, #52, .T. ) ;
#174 = ORIENTED_EDGE ( 'NONE', *, *, #7, .T. ) ;
#175 = AXIS2_PLACEMENT_3D ( 'NONE', #41, #93, #293 ) ;
#176 = CARTESIAN_POINT ( 'NONE',  ( 9.992007221626412800E-016, 4.884981308350691100E-015, 1.567319678057180100 ) ) ;
#177 = DIRECTION ( 'NONE',  ( 0.0000000000000000000, 0.0000000000000000000, 1.000000000000000000 ) ) ;
#178 = CARTESIAN_POINT ( 'NONE',  ( -17.11711898188656600, 8.612349599619635800, 5.007046841482383200 ) ) ;
#179 = DIRECTION ( 'NONE',  ( 1.000000000000000000, 0.0000000000000000000, 0.0000000000000000000 ) ) ;
#180 = ORIENTED_EDGE ( 'NONE', *, *, #49, .F. ) ;
#181 = CC_DESIGN_APPROVAL ( #77, ( #129 ) ) ;
#182 = DIRECTION ( 'NONE',  ( -0.0000000000000000000, -0.0000000000000000000, -1.000000000000000000 ) ) ;
#183 = AXIS2_PLACEMENT_3D ( 'NONE', #107, #177, #85 ) ;
#184 = CARTESIAN_POINT ( 'NONE',  ( -1.457167719820518000E-013, -25.70322706189335100, 3.394888030420799100 ) ) ;
#185 = LOCAL_TIME ( 9, 28, 18.00000000000000000, #141 ) ;
#186 = FACE_OUTER_BOUND ( 'NONE', #117, .T. ) ;
#187 = CARTESIAN_POINT ( 'NONE',  ( 1.862556842814642800E-013, 25.39999999999996300, 1.567319678057178800 ) ) ;
#188 = CC_DESIGN_PERSON_AND_ORGANIZATION_ASSIGNMENT ( #146, #102, ( #253 ) ) ;
#189 = CARTESIAN_POINT ( 'NONE',  ( -8.566788775285056400, 8.612349599619660600, -0.5378229509960885700 ) ) ;
#190 = CARTESIAN_POINT ( 'NONE',  ( 8.478161451881851100, -25.70322706189330100, 1.605111969579219300 ) ) ;
#191 = DATE_TIME_ROLE ( 'classification_date' ) ;
#192 = CALENDAR_DATE ( 2019, 11, 1 ) ;
#193 = PERSON_AND_ORGANIZATION ( #162, #294 ) ;
#194 =( GEOMETRIC_REPRESENTATION_CONTEXT ( 3 ) GLOBAL_UNCERTAINTY_ASSIGNED_CONTEXT ( ( #252 ) ) GLOBAL_UNIT_ASSIGNED_CONTEXT ( ( #166, #22, #145 ) ) REPRESENTATION_CONTEXT ( 'NONE', 'WORKASPACE' ) );
#195 = CYLINDRICAL_SURFACE ( 'NONE', #25, 25.39999999999999900 ) ;
#196 = VERTEX_POINT ( 'NONE', #17 ) ;
#197 = PRODUCT_RELATED_PRODUCT_CATEGORY ( 'detail', '', ( #271 ) ) ;
#198 = CARTESIAN_POINT ( 'NONE',  ( -25.35310545545237200, -25.70322706189329800, 1.821051423812744000 ) ) ;
#199 =( BOUNDED_SURFACE ( )  B_SPLINE_SURFACE ( 3, 3, ( 
 ( #154, #112, #152, #198 ),
 ( #244, #32, #114, #225 ),
 ( #29, #9, #178, #226 ),
 ( #261, #224, #286, #155 ) ),
 .UNSPECIFIED., .F., .F., .F. ) 
 B_SPLINE_SURFACE_WITH_KNOTS ( ( 4, 4 ),
 ( 4, 4 ),
 ( 0.0000000000000000000, 1.000000000000000000 ),
 ( 0.0000000000000000000, 1.000000000000000000 ),
 .UNSPECIFIED. ) 
 GEOMETRIC_REPRESENTATION_ITEM ( )  RATIONAL_B_SPLINE_SURFACE ( (
 ( 1.000000000000000000, 0.9987191957908283500, 0.9987191957908283500, 1.000000000000000000),
 ( 0.9948205486622161400, 0.9935463783161191400, 0.9935463783161191400, 0.9948205486622161400),
 ( 0.9948205486622161400, 0.9935463783161191400, 0.9935463783161191400, 0.9948205486622161400),
 ( 1.000000000000000000, 0.9987191957908283500, 0.9987191957908283500, 1.000000000000000000) ) ) 
 REPRESENTATION_ITEM ( '' )  SURFACE ( )  );
#200 = DIRECTION ( 'NONE',  ( 1.000000000000000000, 0.0000000000000000000, 0.0000000000000000000 ) ) ;
#201 = DIRECTION ( 'NONE',  ( 1.000000000000000000, 0.0000000000000000000, 0.0000000000000000000 ) ) ;
#202 = APPROVAL_DATE_TIME ( #168, #1 ) ;
#203 = CARTESIAN_POINT ( 'NONE',  ( -1.862556842814640800E-013, 25.39999999999996300, 3.432680321942828800 ) ) ;
#204 = CIRCLE ( 'NONE', #229, 206.5999999999999900 ) ;
#205 = CARTESIAN_POINT ( 'NONE',  ( 8.566788775285054700, -8.612349599619685500, 5.537822950996114100 ) ) ;
#206 = CARTESIAN_POINT ( 'NONE',  ( 25.35310545545236100, 25.70322706189328300, 3.178948576187260700 ) ) ;
#207 = CARTESIAN_POINT ( 'NONE',  ( 25.39999999999999900, 4.884981308350691100E-015, 1.567319678057180100 ) ) ;
#208 = PRODUCT_DEFINITION_SHAPE ( 'NONE', 'NONE',  #83 ) ;
#209 = DIRECTION ( 'NONE',  ( 0.0000000000000000000, 0.0000000000000000000, 1.000000000000000000 ) ) ;
#210 = CARTESIAN_POINT ( 'NONE',  ( 8.566788775285234100, -8.612349599619657100, -0.5378229509960863500 ) ) ;
#211 = CARTESIAN_POINT ( 'NONE',  ( -8.566788775285049300, -8.612349599619641100, -0.5378229509960775800 ) ) ;
#212 = SECURITY_CLASSIFICATION_LEVEL ( 'unclassified' ) ;
#213 = CC_DESIGN_DATE_AND_TIME_ASSIGNMENT ( #125, #24, ( #83 ) ) ;
#214 = CALENDAR_DATE ( 2019, 11, 1 ) ;
#215 = VERTEX_POINT ( 'NONE', #203 ) ;
#216 = APPROVAL_STATUS ( 'not_yet_approved' ) ;
#217 = APPROVAL_ROLE ( '' ) ;
#218 = CC_DESIGN_APPROVAL ( #167, ( #83 ) ) ;
#219 =( BOUNDED_SURFACE ( )  B_SPLINE_SURFACE ( 3, 3, ( 
 ( #131, #82, #159, #184 ),
 ( #13, #64, #205, #37 ),
 ( #245, #163, #90, #137 ),
 ( #62, #115, #16, #268 ) ),
 .UNSPECIFIED., .F., .F., .F. ) 
 B_SPLINE_SURFACE_WITH_KNOTS ( ( 4, 4 ),
 ( 4, 4 ),
 ( 0.0000000000000000000, 1.000000000000000000 ),
 ( 0.0000000000000000000, 1.000000000000000000 ),
 .UNSPECIFIED. ) 
 GEOMETRIC_REPRESENTATION_ITEM ( )  RATIONAL_B_SPLINE_SURFACE ( (
 ( 1.000000000000000000, 0.9987191957908283500, 0.9987191957908283500, 1.000000000000000000),
 ( 0.9948205486622161400, 0.9935463783161191400, 0.9935463783161191400, 0.9948205486622161400),
 ( 0.9948205486622161400, 0.9935463783161191400, 0.9935463783161191400, 0.9948205486622161400),
 ( 1.000000000000000000, 0.9987191957908283500, 0.9987191957908283500, 1.000000000000000000) ) ) 
 REPRESENTATION_ITEM ( '' )  SURFACE ( )  );
#220 = LINE ( 'NONE', #165, #243 ) ;
#221 = FACE_OUTER_BOUND ( 'NONE', #157, .T. ) ;
#222 = VERTEX_POINT ( 'NONE', #292 ) ;
#223 = CIRCLE ( 'NONE', #73, 206.5999999999999900 ) ;
#224 = CARTESIAN_POINT ( 'NONE',  ( -8.478161451881836900, 25.70322706189328300, 3.394888030420784500 ) ) ;
#225 = CARTESIAN_POINT ( 'NONE',  ( -25.61813672304892700, -8.612349599619651700, 3.947534083280545200 ) ) ;
#226 = CARTESIAN_POINT ( 'NONE',  ( -25.61813672304892400, 8.612349599619637500, 3.947534083280552300 ) ) ;
#227 = CIRCLE ( 'NONE', #105, 25.39999999999999900 ) ;
#228 = ORIENTED_EDGE ( 'NONE', *, *, #153, .F. ) ;
#229 = AXIS2_PLACEMENT_3D ( 'NONE', #34, #281, #10 ) ;
#230 = CARTESIAN_POINT ( 'NONE',  ( 25.61813672304892700, -8.612349599619651700, 1.052465916719459200 ) ) ;
#231 = CARTESIAN_POINT ( 'NONE',  ( 8.566788775285228800, 8.612349599619632200, -0.5378229509960931200 ) ) ;
#232 = ORIENTED_EDGE ( 'NONE', *, *, #78, .T. ) ;
#233 = DIRECTION ( 'NONE',  ( 1.000000000000000000, 0.0000000000000000000, 0.0000000000000000000 ) ) ;
#234 = CARTESIAN_POINT ( 'NONE',  ( 17.11711898188657300, -8.612349599619653500, -0.007046841482370682300 ) ) ;
#235 = CARTESIAN_POINT ( 'NONE',  ( -2.005458649221404300E-013, -25.40000000000001300, 3.432680321942828800 ) ) ;
#236 = ORIENTED_EDGE ( 'NONE', *, *, #28, .T. ) ;
#237 = APPROVAL_ROLE ( '' ) ;
#238 = EDGE_LOOP ( 'NONE', ( #267, #232, #180 ) ) ;
#239 = ADVANCED_FACE ( 'NONE', ( #151 ), #195, .T. ) ;
#240 = PERSON_AND_ORGANIZATION ( #162, #294 ) ;
#241 = ORIENTED_EDGE ( 'NONE', *, *, #96, .T. ) ;
#242 = APPROVAL_DATE_TIME ( #279, #77 ) ;
#243 = VECTOR ( 'NONE', #109, 1000.000000000000000 ) ;
#244 = CARTESIAN_POINT ( 'NONE',  ( -1.969337190944197000E-013, -8.612349599619658800, 5.537822950996095500 ) ) ;
#245 = CARTESIAN_POINT ( 'NONE',  ( 25.61813672304905200, 8.612349599619607300, 3.947534083280534100 ) ) ;
#246 = LOCAL_TIME ( 9, 28, 18.00000000000000000, #284 ) ;
#247 = CIRCLE ( 'NONE', #71, 25.39999999999999900 ) ;
#248 = CARTESIAN_POINT ( 'NONE',  ( -16.94003460645306400, 25.70322706189332300, 2.130396959007397700 ) ) ;
#249 = DIRECTION ( 'NONE',  ( 0.0000000000000000000, 0.0000000000000000000, 1.000000000000000000 ) ) ;
#250 = CARTESIAN_POINT ( 'NONE',  ( 1.422473250300981800E-013, -8.612349599619639300, -0.5378229509960753600 ) ) ;
#251 = CARTESIAN_POINT ( 'NONE',  ( 1.353084311261909500E-013, 8.612349599619664200, -0.5378229509960862400 ) ) ;
#252 = UNCERTAINTY_MEASURE_WITH_UNIT (LENGTH_MEASURE( 1.000000000000000100E-005 ), #166, 'distance_accuracy_value', 'NONE');
#253 = PRODUCT_DEFINITION_FORMATION_WITH_SPECIFIED_SOURCE ( 'ANY', '', #271, .NOT_KNOWN. ) ;
#254 = COORDINATED_UNIVERSAL_TIME_OFFSET ( 2, 0, .AHEAD. ) ;
#255 = ORIENTED_EDGE ( 'NONE', *, *, #139, .F. ) ;
#256 = MECHANICAL_CONTEXT ( 'NONE', #144, 'mechanical' ) ;
#257 = CC_DESIGN_DATE_AND_TIME_ASSIGNMENT ( #172, #191, ( #129 ) ) ;
#258 = LOCAL_TIME ( 9, 28, 18.00000000000000000, #132 ) ;
#259 = CIRCLE ( 'NONE', #175, 25.39999999999999900 ) ;
#260 = DIRECTION ( 'NONE',  ( 1.000000000000000000, 2.813027685172509800E-016, 5.274068804094820100E-016 ) ) ;
#261 = CARTESIAN_POINT ( 'NONE',  ( -1.861504537548889800E-013, 25.70322706189327600, 3.394888030420789300 ) ) ;
#262 = CC_DESIGN_PERSON_AND_ORGANIZATION_ASSIGNMENT ( #193, #278, ( #129 ) ) ;
#263 = CIRCLE ( 'NONE', #135, 25.39999999999999900 ) ;
#264 = CARTESIAN_POINT ( 'NONE',  ( 9.992007221626412800E-016, 4.884981308350691100E-015, 1.567319678057180100 ) ) ;
#265 = CARTESIAN_POINT ( 'NONE',  ( 9.992007221626412800E-016, 4.884981308350691100E-015, 1.567319678057180100 ) ) ;
#266 = CARTESIAN_POINT ( 'NONE',  ( -8.478161451881673500, 25.70322706189332300, 1.605111969579230200 ) ) ;
#267 = ORIENTED_EDGE ( 'NONE', *, *, #96, .F. ) ;
#268 = CARTESIAN_POINT ( 'NONE',  ( -1.318389841742373400E-013, 25.70322706189327600, 3.394888030420799100 ) ) ;
#269 = CARTESIAN_POINT ( 'NONE',  ( 2.005458649221406400E-013, -25.40000000000001300, 1.567319678057178800 ) ) ;
#270 = CARTESIAN_POINT ( 'NONE',  ( 17.11711898188656600, 8.612349599619635800, -0.007046841482377621200 ) ) ;
#271 = PRODUCT ( '111-0514E BK7 bi-cx 50.8 F200', '111-0514E BK7 bi-cx 50.8 F200', '', ( #256 ) ) ;
#272 = APPROVAL_STATUS ( 'not_yet_approved' ) ;
#273 = ADVANCED_FACE ( 'NONE', ( #221 ), #6, .T. ) ;
#274 = PERSON_AND_ORGANIZATION ( #162, #294 ) ;
#275 = EDGE_LOOP ( 'NONE', ( #127, #173, #50, #236, #54, #228 ) ) ;
#276 = DIRECTION ( 'NONE',  ( 0.0000000000000000000, 0.0000000000000000000, 1.000000000000000000 ) ) ;
#277 = AXIS2_PLACEMENT_3D ( 'NONE', #118, #276, #169 ) ;
#278 = PERSON_AND_ORGANIZATION_ROLE ( 'classification_officer' ) ;
#279 = DATE_AND_TIME ( #84, #63 ) ;
#280 = ORIENTED_EDGE ( 'NONE', *, *, #282, .F. ) ;
#281 = DIRECTION ( 'NONE',  ( -1.000000000000000000, 2.813027685172509800E-016, -5.274068804094810300E-016 ) ) ;
#282 = EDGE_CURVE ( 'NONE', #44, #222, #263, .T. ) ;
#283 = CARTESIAN_POINT ( 'NONE',  ( 9.992007221626412800E-016, 4.884981308350691100E-015, 3.432680321942830100 ) ) ;
#284 = COORDINATED_UNIVERSAL_TIME_OFFSET ( 2, 0, .AHEAD. ) ;
#285 = VERTEX_POINT ( 'NONE', #187 ) ;
#286 = CARTESIAN_POINT ( 'NONE',  ( -16.94003460645307900, 25.70322706189328300, 2.869603040992623200 ) ) ;
#287 = CARTESIAN_POINT ( 'NONE',  ( 25.35310545545237200, -25.70322706189329800, 3.178948576187260200 ) ) ;
#288 = DIRECTION ( 'NONE',  ( 1.000000000000000000, 0.0000000000000000000, 0.0000000000000000000 ) ) ;
#289 = ORIENTED_EDGE ( 'NONE', *, *, #108, .T. ) ;
#290 = CARTESIAN_POINT ( 'NONE',  ( -25.35310545545249300, 25.70322706189331900, 3.178948576187306900 ) ) ;
#291 = DIRECTION ( 'NONE',  ( 1.000000000000000000, 0.0000000000000000000, 0.0000000000000000000 ) ) ;
#292 = CARTESIAN_POINT ( 'NONE',  ( -25.39999999999999900, 7.995584178184967200E-015, 1.567319678057180100 ) ) ;
#293 = DIRECTION ( 'NONE',  ( 1.000000000000000000, 8.881784197001252300E-016, 0.0000000000000000000 ) ) ;
#294 = ORGANIZATION ( 'UNSPECIFIED', 'UNSPECIFIED', '' ) ;
#295 = ORIENTED_EDGE ( 'NONE', *, *, #160, .T. ) ;
ENDSEC;
END-ISO-10303-21;
