ISO-10303-21;
HEADER;
FILE_DESCRIPTION (( 'STEP AP203' ),
    '1' );
FILE_NAME ('111-0512E BK7 bi-cx 50.8 F150.STEP',
    '2019-01-11T07:21:14',
    ( '' ),
    ( '' ),
    'SwSTEP 2.0',
    'SolidWorks 2017',
    '' );
FILE_SCHEMA (( 'CONFIG_CONTROL_DESIGN' ));
ENDSEC;

DATA;
#1 = CARTESIAN_POINT ( 'NONE',  ( 8.606208395281653300, -8.647552423581712900, -0.7238567920452500000 ) ) ;
#2 = DIRECTION ( 'NONE',  ( 1.000000000000000000, 0.0000000000000000000, 0.0000000000000000000 ) ) ;
#3 = FACE_OUTER_BOUND ( 'NONE', #211, .T. ) ;
#4 = ORIENTED_EDGE ( 'NONE', *, *, #106, .F. ) ;
#5 = CC_DESIGN_APPROVAL ( #223, ( #87 ) ) ;
#6 = CARTESIAN_POINT ( 'NONE',  ( 25.39999999999999900, 4.884981308350691100E-015, 2.100819674333980600 ) ) ;
#7 = CARTESIAN_POINT ( 'NONE',  ( 0.0000000000000000000, -2.842170943040400100E-014, 154.5999999999999900 ) ) ;
#8 = VECTOR ( 'NONE', #263, 1000.000000000000000 ) ;
#9 = AXIS2_PLACEMENT_3D ( 'NONE', #102, #197, #74 ) ;
#10 = CARTESIAN_POINT ( 'NONE',  ( 8.326672684688674100E-014, 8.647552423581693400, 6.823856792045241100 ) ) ;
#11 = EDGE_LOOP ( 'NONE', ( #4, #85, #59 ) ) ;
#12 = CARTESIAN_POINT ( 'NONE',  ( -8.606208395281656800, 8.647552423581689900, 6.823856792045220700 ) ) ;
#13 = CC_DESIGN_PERSON_AND_ORGANIZATION_ASSIGNMENT ( #110, #292, ( #87 ) ) ;
#14 = MECHANICAL_CONTEXT ( 'NONE', #54, 'mechanical' ) ;
#15 = CIRCLE ( 'NONE', #135, 154.5999999999999900 ) ;
#16 = CC_DESIGN_DATE_AND_TIME_ASSIGNMENT ( #108, #17, ( #39 ) ) ;
#17 = DATE_TIME_ROLE ( 'classification_date' ) ;
#18 = PERSON_AND_ORGANIZATION_ROLE ( 'classification_officer' ) ;
#19 = AXIS2_PLACEMENT_3D ( 'NONE', #238, #221, #101 ) ;
#20 = DATE_AND_TIME ( #290, #201 ) ;
#21 = EDGE_LOOP ( 'NONE', ( #149, #204, #188 ) ) ;
#22 = CARTESIAN_POINT ( 'NONE',  ( -17.18277777845849700, 8.647552423581698700, -0.01021783670999846000 ) ) ;
#23 = ORGANIZATION ( 'UNSPECIFIED', 'UNSPECIFIED', '' ) ;
#24 = ORIENTED_EDGE ( 'NONE', *, *, #289, .F. ) ;
#25 = CARTESIAN_POINT ( 'NONE',  ( -16.86469844306829900, -25.70197743971366900, 2.851852310975291800 ) ) ;
#26 = CARTESIAN_POINT ( 'NONE',  ( -25.19543181243996700, -25.70197743971366600, 4.247884712342192300 ) ) ;
#27 = UNCERTAINTY_MEASURE_WITH_UNIT (LENGTH_MEASURE( 1.000000000000000100E-005 ), #259, 'distance_accuracy_value', 'NONE');
#28 = CARTESIAN_POINT ( 'NONE',  ( 17.18277777845843300, 8.647552423581684500, -0.01021783670998393200 ) ) ;
#29 = ORIENTED_EDGE ( 'NONE', *, *, #271, .T. ) ;
#30 = CARTESIAN_POINT ( 'NONE',  ( 8.446894396003193300, 25.70197743971366200, 3.948576102528569700 ) ) ;
#31 = PERSON_AND_ORGANIZATION ( #280, #23 ) ;
#32 = ORIENTED_EDGE ( 'NONE', *, *, #232, .T. ) ;
#33 = ADVANCED_FACE ( 'NONE', ( #124 ), #99, .T. ) ;
#34 = CARTESIAN_POINT ( 'NONE',  ( 25.39999999999999900, 4.884981308350691100E-015, 3.999180325666019900 ) ) ;
#35 = CARTESIAN_POINT ( 'NONE',  ( 4.720942381074524300E-014, 8.647552423581693400, 6.823856792045218000 ) ) ;
#36 = VERTEX_POINT ( 'NONE', #139 ) ;
#37 = AXIS2_PLACEMENT_3D ( 'NONE', #218, #72, #195 ) ;
#38 = DATE_AND_TIME ( #224, #235 ) ;
#39 = SECURITY_CLASSIFICATION ( '', '', #155 ) ;
#40 = APPROVAL_DATE_TIME ( #20, #217 ) ;
#41 = AXIS2_PLACEMENT_3D ( 'NONE', #282, #120, #64 ) ;
#42 = PRODUCT_DEFINITION ( 'UNKNOWN', '', #87, #179 ) ;
#43 = CARTESIAN_POINT ( 'NONE',  ( 17.18277777845843000, -8.647552423581714700, -0.01021783670997981200 ) ) ;
#44 = CARTESIAN_POINT ( 'NONE',  ( -25.67063427353491200, -8.647552423581697000, 1.412144656470229600 ) ) ;
#45 = CIRCLE ( 'NONE', #37, 25.39999999999999900 ) ;
#46 = CIRCLE ( 'NONE', #203, 25.39999999999999900 ) ;
#47 = CARTESIAN_POINT ( 'NONE',  ( 9.992007221626412800E-016, 4.884981308350691100E-015, 3.999180325666019900 ) ) ;
#48 = DIRECTION ( 'NONE',  ( 1.000000000000000000, 0.0000000000000000000, 0.0000000000000000000 ) ) ;
#49 = AXIS2_PLACEMENT_3D ( 'NONE', #50, #234, #144 ) ;
#50 = CARTESIAN_POINT ( 'NONE',  ( 9.992007221626412800E-016, 4.884981308350691100E-015, 2.100819674333980600 ) ) ;
#51 = CARTESIAN_POINT ( 'NONE',  ( -5.909090679739345700E-014, -25.39999999999999900, 2.100819674333981100 ) ) ;
#52 = CARTESIAN_POINT ( 'NONE',  ( -8.446894396003113300, 25.70197743971365500, 3.948576102528554200 ) ) ;
#53 = CIRCLE ( 'NONE', #49, 25.39999999999999900 ) ;
#54 = APPLICATION_CONTEXT ( 'configuration controlled 3d designs of mechanical parts and assemblies' ) ;
#55 = PERSON_AND_ORGANIZATION_ROLE ( 'design_owner' ) ;
#56 = EDGE_CURVE ( 'NONE', #138, #66, #46, .T. ) ;
#57 = PERSON_AND_ORGANIZATION ( #280, #23 ) ;
#58 = CC_DESIGN_PERSON_AND_ORGANIZATION_ASSIGNMENT ( #31, #156, ( #42 ) ) ;
#59 = ORIENTED_EDGE ( 'NONE', *, *, #131, .F. ) ;
#60 = CARTESIAN_POINT ( 'NONE',  ( 25.19543181243993500, 25.70197743971364800, 4.247884712342211000 ) ) ;
#61 = EDGE_LOOP ( 'NONE', ( #157, #230, #253 ) ) ;
#62 = CARTESIAN_POINT ( 'NONE',  ( -8.326672684688674100E-014, 8.647552423581689900, -0.7238567920452733100 ) ) ;
#63 = CARTESIAN_POINT ( 'NONE',  ( -25.67063427353490500, 8.647552423581702300, 1.412144656470225100 ) ) ;
#64 = DIRECTION ( 'NONE',  ( 3.759194823781642300E-016, -1.000000000000000000, 7.181261478817312700E-016 ) ) ;
#65 = DIRECTION ( 'NONE',  ( -0.0000000000000000000, -0.0000000000000000000, -1.000000000000000000 ) ) ;
#66 = VERTEX_POINT ( 'NONE', #162 ) ;
#67 = DIRECTION ( 'NONE',  ( 1.000000000000000000, 0.0000000000000000000, 0.0000000000000000000 ) ) ;
#68 = CARTESIAN_POINT ( 'NONE',  ( 8.606208395281761600, -8.647552423581709400, 6.823856792045286400 ) ) ;
#69 = LOCAL_TIME ( 9, 21, 14.00000000000000000, #172 ) ;
#70 = CC_DESIGN_DATE_AND_TIME_ASSIGNMENT ( #207, #152, ( #42 ) ) ;
#71 =( NAMED_UNIT ( * ) SI_UNIT ( $, .STERADIAN. ) SOLID_ANGLE_UNIT ( ) );
#72 = DIRECTION ( 'NONE',  ( -0.0000000000000000000, -0.0000000000000000000, -1.000000000000000000 ) ) ;
#73 = APPROVAL ( #241, 'UNSPECIFIED' ) ;
#74 = DIRECTION ( 'NONE',  ( 1.000000000000000000, 0.0000000000000000000, 0.0000000000000000000 ) ) ;
#75 = APPLICATION_CONTEXT ( 'configuration controlled 3d designs of mechanical parts and assemblies' ) ;
#76 = FACE_OUTER_BOUND ( 'NONE', #11, .T. ) ;
#77 = CARTESIAN_POINT ( 'NONE',  ( 25.39999999999999900, 4.884981308350691100E-015, 2.100819674333980600 ) ) ;
#78 = ADVANCED_FACE ( 'NONE', ( #202 ), #269, .T. ) ;
#79 = VECTOR ( 'NONE', #174, 1000.000000000000000 ) ;
#80 = ORIENTED_EDGE ( 'NONE', *, *, #140, .F. ) ;
#81 = ORIENTED_EDGE ( 'NONE', *, *, #56, .T. ) ;
#82 = EDGE_CURVE ( 'NONE', #226, #138, #182, .T. ) ;
#83 = CARTESIAN_POINT ( 'NONE',  ( -4.720942381074525500E-014, 8.647552423581689900, -0.7238567920452516600 ) ) ;
#84 = CARTESIAN_POINT ( 'NONE',  ( 8.446894396003093800, -25.70197743971368000, 2.151423897471413500 ) ) ;
#85 = ORIENTED_EDGE ( 'NONE', *, *, #82, .F. ) ;
#86 =( BOUNDED_SURFACE ( )  B_SPLINE_SURFACE ( 3, 3, ( 
 ( #128, #237, #176, #147 ),
 ( #222, #177, #130, #261 ),
 ( #35, #12, #175, #103 ),
 ( #288, #52, #98, #171 ) ),
 .UNSPECIFIED., .F., .F., .F. ) 
 B_SPLINE_SURFACE_WITH_KNOTS ( ( 4, 4 ),
 ( 4, 4 ),
 ( 0.0000000000000000000, 1.000000000000000000 ),
 ( 0.0000000000000000000, 1.000000000000000000 ),
 .UNSPECIFIED. ) 
 GEOMETRIC_REPRESENTATION_ITEM ( )  RATIONAL_B_SPLINE_SURFACE ( (
 ( 1.000000000000000000, 0.9977040596165300800, 0.9977040596165300800, 1.000000000000000000),
 ( 0.9907226222618739100, 0.9884479821846056100, 0.9884479821846056100, 0.9907226222618739100),
 ( 0.9907226222618739100, 0.9884479821846056100, 0.9884479821846056100, 0.9907226222618739100),
 ( 1.000000000000000000, 0.9977040596165300800, 0.9977040596165300800, 1.000000000000000000) ) ) 
 REPRESENTATION_ITEM ( '' )  SURFACE ( )  );
#87 = PRODUCT_DEFINITION_FORMATION_WITH_SPECIFIED_SOURCE ( 'ANY', '', #277, .NOT_KNOWN. ) ;
#88 = CC_DESIGN_APPROVAL ( #73, ( #42 ) ) ;
#89 = EDGE_LOOP ( 'NONE', ( #250, #243, #32 ) ) ;
#90 = DIRECTION ( 'NONE',  ( -0.0000000000000000000, -0.0000000000000000000, -1.000000000000000000 ) ) ;
#91 = EDGE_CURVE ( 'NONE', #66, #36, #114, .T. ) ;
#92 = CARTESIAN_POINT ( 'NONE',  ( 9.992007221626412800E-016, 4.884981308350691100E-015, 3.999180325666019900 ) ) ;
#93 = CALENDAR_DATE ( 2019, 11, 1 ) ;
#94 = FACE_OUTER_BOUND ( 'NONE', #21, .T. ) ;
#95 = EDGE_CURVE ( 'NONE', #173, #109, #53, .T. ) ;
#96 = DIRECTION ( 'NONE',  ( 1.000000000000000000, 8.881784197001252300E-016, 0.0000000000000000000 ) ) ;
#97 = ADVANCED_FACE ( 'NONE', ( #76 ), #104, .T. ) ;
#98 = CARTESIAN_POINT ( 'NONE',  ( -16.86469844306823500, 25.70197743971365200, 3.248147689024661700 ) ) ;
#99 =( BOUNDED_SURFACE ( )  B_SPLINE_SURFACE ( 3, 3, ( 
 ( #275, #84, #161, #251 ),
 ( #113, #1, #43, #159 ),
 ( #83, #245, #28, #249 ),
 ( #111, #209, #185, #60 ) ),
 .UNSPECIFIED., .F., .F., .T. ) 
 B_SPLINE_SURFACE_WITH_KNOTS ( ( 4, 4 ),
 ( 4, 4 ),
 ( 0.0000000000000000000, 1.000000000000000000 ),
 ( 0.0000000000000000000, 1.000000000000000000 ),
 .UNSPECIFIED. ) 
 GEOMETRIC_REPRESENTATION_ITEM ( )  RATIONAL_B_SPLINE_SURFACE ( (
 ( 1.000000000000000000, 0.9977040596165300800, 0.9977040596165300800, 1.000000000000000000),
 ( 0.9907226222618739100, 0.9884479821846056100, 0.9884479821846056100, 0.9907226222618739100),
 ( 0.9907226222618739100, 0.9884479821846056100, 0.9884479821846056100, 0.9907226222618739100),
 ( 1.000000000000000000, 0.9977040596165300800, 0.9977040596165300800, 1.000000000000000000) ) ) 
 REPRESENTATION_ITEM ( '' )  SURFACE ( )  );
#100 = CYLINDRICAL_SURFACE ( 'NONE', #198, 25.39999999999999900 ) ;
#101 = DIRECTION ( 'NONE',  ( 1.000000000000000000, 0.0000000000000000000, 0.0000000000000000000 ) ) ;
#102 = CARTESIAN_POINT ( 'NONE',  ( 9.992007221626412800E-016, 4.884981308350691100E-015, 2.100819674333980600 ) ) ;
#103 = CARTESIAN_POINT ( 'NONE',  ( -25.67063427353488000, 8.647552423581682700, 4.687855343529723700 ) ) ;
#104 =( BOUNDED_SURFACE ( )  B_SPLINE_SURFACE ( 3, 3, ( 
 ( #166, #190, #278, #216 ),
 ( #212, #193, #68, #252 ),
 ( #119, #213, #116, #10 ),
 ( #170, #168, #30, #233 ) ),
 .UNSPECIFIED., .F., .F., .F. ) 
 B_SPLINE_SURFACE_WITH_KNOTS ( ( 4, 4 ),
 ( 4, 4 ),
 ( 0.0000000000000000000, 1.000000000000000000 ),
 ( 0.0000000000000000000, 1.000000000000000000 ),
 .UNSPECIFIED. ) 
 GEOMETRIC_REPRESENTATION_ITEM ( )  RATIONAL_B_SPLINE_SURFACE ( (
 ( 1.000000000000000000, 0.9977040596165300800, 0.9977040596165300800, 1.000000000000000000),
 ( 0.9907226222618739100, 0.9884479821846056100, 0.9884479821846056100, 0.9907226222618739100),
 ( 0.9907226222618739100, 0.9884479821846056100, 0.9884479821846056100, 0.9907226222618739100),
 ( 1.000000000000000000, 0.9977040596165300800, 0.9977040596165300800, 1.000000000000000000) ) ) 
 REPRESENTATION_ITEM ( '' )  SURFACE ( )  );
#105 = PERSON_AND_ORGANIZATION_ROLE ( 'creator' ) ;
#106 = EDGE_CURVE ( 'NONE', #138, #36, #164, .T. ) ;
#107 = APPROVAL_STATUS ( 'not_yet_approved' ) ;
#108 = DATE_AND_TIME ( #117, #69 ) ;
#109 = VERTEX_POINT ( 'NONE', #51 ) ;
#110 = PERSON_AND_ORGANIZATION ( #280, #23 ) ;
#111 = CARTESIAN_POINT ( 'NONE',  ( -3.986423804825576400E-014, 25.70197743971365900, 2.151423897471416200 ) ) ;
#112 = LINE ( 'NONE', #77, #8 ) ;
#113 = CARTESIAN_POINT ( 'NONE',  ( -5.371099067256698400E-014, -8.647552423581709400, -0.7238567920452472200 ) ) ;
#114 = CIRCLE ( 'NONE', #115, 25.39999999999999900 ) ;
#115 = AXIS2_PLACEMENT_3D ( 'NONE', #257, #65, #48 ) ;
#116 = CARTESIAN_POINT ( 'NONE',  ( 8.606208395281752700, 8.647552423581698700, 6.823856792045235800 ) ) ;
#117 = CALENDAR_DATE ( 2019, 11, 1 ) ;
#118 = CARTESIAN_POINT ( 'NONE',  ( -3.999419709258273200E-014, 25.39999999999997000, 2.100819674333981100 ) ) ;
#119 = CARTESIAN_POINT ( 'NONE',  ( 25.67063427353490100, 8.647552423581702300, 4.687855343529741400 ) ) ;
#120 = DIRECTION ( 'NONE',  ( -1.000000000000000000, -3.759194823781639800E-016, 3.248709392351400100E-016 ) ) ;
#121 = CC_DESIGN_PERSON_AND_ORGANIZATION_ASSIGNMENT ( #57, #55, ( #277 ) ) ;
#122 = PERSON_AND_ORGANIZATION ( #280, #23 ) ;
#123 = ADVANCED_FACE ( 'NONE', ( #294 ), #100, .T. ) ;
#124 = FACE_OUTER_BOUND ( 'NONE', #61, .T. ) ;
#125 = CARTESIAN_POINT ( 'NONE',  ( 9.992007221626412800E-016, 4.884981308350691100E-015, 2.100819674333980600 ) ) ;
#126 = EDGE_CURVE ( 'NONE', #109, #142, #15, .T. ) ;
#127 =( NAMED_UNIT ( * ) PLANE_ANGLE_UNIT ( ) SI_UNIT ( $, .RADIAN. ) );
#128 = CARTESIAN_POINT ( 'NONE',  ( 5.918798615872058900E-014, -25.70197743971368400, 3.948576102528606100 ) ) ;
#129 = CYLINDRICAL_SURFACE ( 'NONE', #246, 25.39999999999999900 ) ;
#130 = CARTESIAN_POINT ( 'NONE',  ( -17.18277777845843300, -8.647552423581720000, 6.110217836710004000 ) ) ;
#131 = EDGE_CURVE ( 'NONE', #36, #226, #158, .T. ) ;
#132 = APPROVAL_DATE_TIME ( #38, #73 ) ;
#133 = ORIENTED_EDGE ( 'NONE', *, *, #82, .T. ) ;
#134 = CC_DESIGN_APPROVAL ( #217, ( #39 ) ) ;
#135 = AXIS2_PLACEMENT_3D ( 'NONE', #7, #192, #255 ) ;
#136 = CARTESIAN_POINT ( 'NONE',  ( 9.992007221626412800E-016, 4.884981308350691100E-015, 3.999180325666019900 ) ) ;
#137 = APPROVAL_PERSON_ORGANIZATION ( #178, #223, #181 ) ;
#138 = VERTEX_POINT ( 'NONE', #279 ) ;
#139 = CARTESIAN_POINT ( 'NONE',  ( 3.999419709258273200E-014, 25.39999999999997000, 3.999180325666016300 ) ) ;
#140 = EDGE_CURVE ( 'NONE', #109, #194, #191, .T. ) ;
#141 = DIRECTION ( 'NONE',  ( 0.0000000000000000000, 0.0000000000000000000, 1.000000000000000000 ) ) ;
#142 = VERTEX_POINT ( 'NONE', #118 ) ;
#143 = DIRECTION ( 'NONE',  ( 1.000000000000000000, 8.881784197001252300E-016, 0.0000000000000000000 ) ) ;
#144 = DIRECTION ( 'NONE',  ( 1.000000000000000000, 0.0000000000000000000, 0.0000000000000000000 ) ) ;
#145 = LOCAL_TIME ( 9, 21, 14.00000000000000000, #229 ) ;
#146 = CARTESIAN_POINT ( 'NONE',  ( 9.992007221626412800E-016, 4.884981308350691100E-015, 2.100819674333980600 ) ) ;
#147 = CARTESIAN_POINT ( 'NONE',  ( -25.19543181243992100, -25.70197743971369400, 1.852115287657810900 ) ) ;
#148 = APPLICATION_PROTOCOL_DEFINITION ( 'international standard', 'config_control_design', 1994, #54 ) ;
#149 = ORIENTED_EDGE ( 'NONE', *, *, #56, .F. ) ;
#150 = CARTESIAN_POINT ( 'NONE',  ( 9.992007221626412800E-016, 4.884981308350691100E-015, 2.100819674333980600 ) ) ;
#151 = DIRECTION ( 'NONE',  ( 1.000000000000000000, 0.0000000000000000000, 0.0000000000000000000 ) ) ;
#152 = DATE_TIME_ROLE ( 'creation_date' ) ;
#153 = APPROVAL_PERSON_ORGANIZATION ( #285, #73, #265 ) ;
#154 = ORIENTED_EDGE ( 'NONE', *, *, #95, .F. ) ;
#155 = SECURITY_CLASSIFICATION_LEVEL ( 'unclassified' ) ;
#156 = PERSON_AND_ORGANIZATION_ROLE ( 'creator' ) ;
#157 = ORIENTED_EDGE ( 'NONE', *, *, #95, .T. ) ;
#158 = CIRCLE ( 'NONE', #283, 25.39999999999999900 ) ;
#159 = CARTESIAN_POINT ( 'NONE',  ( 25.67063427353487600, -8.647552423581716500, 1.412144656470248400 ) ) ;
#160 = PRODUCT_DEFINITION_SHAPE ( 'NONE', 'NONE',  #42 ) ;
#161 = CARTESIAN_POINT ( 'NONE',  ( 16.86469844306821400, -25.70197743971368400, 2.851852310975305600 ) ) ;
#162 = CARTESIAN_POINT ( 'NONE',  ( -25.39999999999999900, 7.995584178184967200E-015, 3.999180325666019900 ) ) ;
#163 = SHAPE_DEFINITION_REPRESENTATION ( #160, #295 ) ;
#164 = CIRCLE ( 'NONE', #41, 154.5999999999999900 ) ;
#165 = CARTESIAN_POINT ( 'NONE',  ( -16.86469844306827800, 25.70197743971366600, 2.851852310975291800 ) ) ;
#166 = CARTESIAN_POINT ( 'NONE',  ( 25.19543181243996700, -25.70197743971367600, 1.852115287657829500 ) ) ;
#167 = AXIS2_PLACEMENT_3D ( 'NONE', #47, #90, #254 ) ;
#168 = CARTESIAN_POINT ( 'NONE',  ( 16.86469844306827800, 25.70197743971366200, 3.248147689024675900 ) ) ;
#169 = CC_DESIGN_PERSON_AND_ORGANIZATION_ASSIGNMENT ( #122, #105, ( #87 ) ) ;
#170 = CARTESIAN_POINT ( 'NONE',  ( 25.19543181243994600, 25.70197743971366600, 1.852115287657774000 ) ) ;
#171 = CARTESIAN_POINT ( 'NONE',  ( -25.19543181243993500, 25.70197743971364800, 1.852115287657755300 ) ) ;
#172 = COORDINATED_UNIVERSAL_TIME_OFFSET ( 2, 0, .AHEAD. ) ;
#173 = VERTEX_POINT ( 'NONE', #6 ) ;
#174 = DIRECTION ( 'NONE',  ( 0.0000000000000000000, 0.0000000000000000000, 1.000000000000000000 ) ) ;
#175 = CARTESIAN_POINT ( 'NONE',  ( -17.18277777845843300, 8.647552423581686300, 6.110217836709951600 ) ) ;
#176 = CARTESIAN_POINT ( 'NONE',  ( -16.86469844306822100, -25.70197743971369100, 3.248147689024716300 ) ) ;
#177 = CARTESIAN_POINT ( 'NONE',  ( -8.606208395281655000, -8.647552423581716500, 6.823856792045274000 ) ) ;
#178 = PERSON_AND_ORGANIZATION ( #280, #23 ) ;
#179 = DESIGN_CONTEXT ( 'detailed design', #75, 'design' ) ;
#180 = LINE ( 'NONE', #284, #79 ) ;
#181 = APPROVAL_ROLE ( '' ) ;
#182 = CIRCLE ( 'NONE', #167, 25.39999999999999900 ) ;
#183 = AXIS2_PLACEMENT_3D ( 'NONE', #150, #219, #96 ) ;
#184 = CALENDAR_DATE ( 2019, 11, 1 ) ;
#185 = CARTESIAN_POINT ( 'NONE',  ( 16.86469844306823500, 25.70197743971365200, 2.851852310975306000 ) ) ;
#186 = APPROVAL_DATE_TIME ( #214, #223 ) ;
#187 = CARTESIAN_POINT ( 'NONE',  ( -9.367506770274758300E-014, -25.70197743971367600, 2.151423897471394800 ) ) ;
#188 = ORIENTED_EDGE ( 'NONE', *, *, #91, .F. ) ;
#189 = CARTESIAN_POINT ( 'NONE',  ( -8.446894396003214600, -25.70197743971367300, 2.151423897471399700 ) ) ;
#190 = CARTESIAN_POINT ( 'NONE',  ( 16.86469844306829900, -25.70197743971368000, 3.248147689024730500 ) ) ;
#191 = CIRCLE ( 'NONE', #183, 25.39999999999999900 ) ;
#192 = DIRECTION ( 'NONE',  ( 1.000000000000000000, -3.759194823781639800E-016, -3.248709392351400100E-016 ) ) ;
#193 = CARTESIAN_POINT ( 'NONE',  ( 17.18277777845850800, -8.647552423581707600, 6.110217836710016400 ) ) ;
#194 = VERTEX_POINT ( 'NONE', #262 ) ;
#195 = DIRECTION ( 'NONE',  ( 1.000000000000000000, 0.0000000000000000000, 0.0000000000000000000 ) ) ;
#196 = CIRCLE ( 'NONE', #9, 25.39999999999999900 ) ;
#197 = DIRECTION ( 'NONE',  ( -0.0000000000000000000, -0.0000000000000000000, -1.000000000000000000 ) ) ;
#198 = AXIS2_PLACEMENT_3D ( 'NONE', #146, #141, #67 ) ;
#199 = ADVANCED_FACE ( 'NONE', ( #94 ), #86, .T. ) ;
#200 = APPROVAL_STATUS ( 'not_yet_approved' ) ;
#201 = LOCAL_TIME ( 9, 21, 14.00000000000000000, #225 ) ;
#202 = FACE_OUTER_BOUND ( 'NONE', #89, .T. ) ;
#203 = AXIS2_PLACEMENT_3D ( 'NONE', #136, #247, #2 ) ;
#204 = ORIENTED_EDGE ( 'NONE', *, *, #106, .T. ) ;
#205 =( GEOMETRIC_REPRESENTATION_CONTEXT ( 3 ) GLOBAL_UNCERTAINTY_ASSIGNED_CONTEXT ( ( #27 ) ) GLOBAL_UNIT_ASSIGNED_CONTEXT ( ( #259, #127, #71 ) ) REPRESENTATION_CONTEXT ( 'NONE', 'WORKASPACE' ) );
#206 = CARTESIAN_POINT ( 'NONE',  ( -8.606208395281759800, -8.647552423581705800, -0.7238567920452641000 ) ) ;
#207 = DATE_AND_TIME ( #93, #266 ) ;
#208 = CLOSED_SHELL ( 'NONE', ( #33, #199, #123, #78, #291, #97 ) ) ;
#209 = CARTESIAN_POINT ( 'NONE',  ( 8.446894396003113300, 25.70197743971365500, 2.151423897471413500 ) ) ;
#210 = CARTESIAN_POINT ( 'NONE',  ( -9.020562075079396900E-014, -8.647552423581709400, -0.7238567920452688700 ) ) ;
#211 = EDGE_LOOP ( 'NONE', ( #274, #80, #154, #286, #133, #81 ) ) ;
#212 = CARTESIAN_POINT ( 'NONE',  ( 25.67063427353491500, -8.647552423581705800, 4.687855343529792100 ) ) ;
#213 = CARTESIAN_POINT ( 'NONE',  ( 17.18277777845849400, 8.647552423581700500, 6.110217836709965800 ) ) ;
#214 = DATE_AND_TIME ( #184, #145 ) ;
#215 = ORIENTED_EDGE ( 'NONE', *, *, #267, .F. ) ;
#216 = CARTESIAN_POINT ( 'NONE',  ( 9.020562075079396900E-014, -25.70197743971368400, 3.948576102528626600 ) ) ;
#217 = APPROVAL ( #107, 'UNSPECIFIED' ) ;
#218 = CARTESIAN_POINT ( 'NONE',  ( 9.992007221626412800E-016, 4.884981308350691100E-015, 2.100819674333980600 ) ) ;
#219 = DIRECTION ( 'NONE',  ( -0.0000000000000000000, -0.0000000000000000000, -1.000000000000000000 ) ) ;
#220 = EDGE_LOOP ( 'NONE', ( #242, #29, #270, #268, #24, #215 ) ) ;
#221 = DIRECTION ( 'NONE',  ( 0.0000000000000000000, 0.0000000000000000000, 1.000000000000000000 ) ) ;
#222 = CARTESIAN_POINT ( 'NONE',  ( 5.371099067256697800E-014, -8.647552423581712900, 6.823856792045270400 ) ) ;
#223 = APPROVAL ( #200, 'UNSPECIFIED' ) ;
#224 = CALENDAR_DATE ( 2019, 11, 1 ) ;
#225 = COORDINATED_UNIVERSAL_TIME_OFFSET ( 2, 0, .AHEAD. ) ;
#226 = VERTEX_POINT ( 'NONE', #34 ) ;
#227 = CARTESIAN_POINT ( 'NONE',  ( -17.18277777845850800, -8.647552423581702300, -0.01021783670999412500 ) ) ;
#228 = CARTESIAN_POINT ( 'NONE',  ( -25.19543181243994600, 25.70197743971366900, 4.247884712342192300 ) ) ;
#229 = COORDINATED_UNIVERSAL_TIME_OFFSET ( 2, 0, .AHEAD. ) ;
#230 = ORIENTED_EDGE ( 'NONE', *, *, #126, .T. ) ;
#231 = CARTESIAN_POINT ( 'NONE',  ( -8.606208395281754500, 8.647552423581693400, -0.7238567920452684300 ) ) ;
#232 = EDGE_CURVE ( 'NONE', #194, #142, #196, .T. ) ;
#233 = CARTESIAN_POINT ( 'NONE',  ( 7.285838599102589800E-014, 25.70197743971365900, 3.948576102528572800 ) ) ;
#234 = DIRECTION ( 'NONE',  ( -0.0000000000000000000, -0.0000000000000000000, -1.000000000000000000 ) ) ;
#235 = LOCAL_TIME ( 9, 21, 14.00000000000000000, #273 ) ;
#236 = PERSON_AND_ORGANIZATION ( #280, #23 ) ;
#237 = CARTESIAN_POINT ( 'NONE',  ( -8.446894396003093800, -25.70197743971368700, 3.948576102528609700 ) ) ;
#238 = CARTESIAN_POINT ( 'NONE',  ( 0.0000000000000000000, 0.0000000000000000000, 0.0000000000000000000 ) ) ;
#239 = APPLICATION_PROTOCOL_DEFINITION ( 'international standard', 'config_control_design', 1994, #75 ) ;
#240 = APPROVAL_ROLE ( '' ) ;
#241 = APPROVAL_STATUS ( 'not_yet_approved' ) ;
#242 = ORIENTED_EDGE ( 'NONE', *, *, #232, .F. ) ;
#243 = ORIENTED_EDGE ( 'NONE', *, *, #140, .T. ) ;
#244 = CC_DESIGN_SECURITY_CLASSIFICATION ( #39, ( #87 ) ) ;
#245 = CARTESIAN_POINT ( 'NONE',  ( 8.606208395281656800, 8.647552423581686300, -0.7238567920452543300 ) ) ;
#246 = AXIS2_PLACEMENT_3D ( 'NONE', #125, #287, #151 ) ;
#247 = DIRECTION ( 'NONE',  ( -0.0000000000000000000, -0.0000000000000000000, -1.000000000000000000 ) ) ;
#248 = APPROVAL_PERSON_ORGANIZATION ( #258, #217, #240 ) ;
#249 = CARTESIAN_POINT ( 'NONE',  ( 25.67063427353488000, 8.647552423581681000, 1.412144656470244000 ) ) ;
#250 = ORIENTED_EDGE ( 'NONE', *, *, #126, .F. ) ;
#251 = CARTESIAN_POINT ( 'NONE',  ( 25.19543181243991700, -25.70197743971368700, 4.247884712342211000 ) ) ;
#252 = CARTESIAN_POINT ( 'NONE',  ( 9.020562075079396900E-014, -8.647552423581712900, 6.823856792045289900 ) ) ;
#253 = ORIENTED_EDGE ( 'NONE', *, *, #267, .T. ) ;
#254 = DIRECTION ( 'NONE',  ( 1.000000000000000000, 0.0000000000000000000, 0.0000000000000000000 ) ) ;
#255 = DIRECTION ( 'NONE',  ( -3.759194823781638300E-016, -1.000000000000000000, 3.590630739408656400E-016 ) ) ;
#256 = CARTESIAN_POINT ( 'NONE',  ( -7.285838599102589800E-014, 25.70197743971365900, 2.151423897471394800 ) ) ;
#257 = CARTESIAN_POINT ( 'NONE',  ( 9.992007221626412800E-016, 4.884981308350691100E-015, 3.999180325666019900 ) ) ;
#258 = PERSON_AND_ORGANIZATION ( #280, #23 ) ;
#259 =( LENGTH_UNIT ( ) NAMED_UNIT ( * ) SI_UNIT ( .MILLI., .METRE. ) );
#260 = PRODUCT_RELATED_PRODUCT_CATEGORY ( 'detail', '', ( #277 ) ) ;
#261 = CARTESIAN_POINT ( 'NONE',  ( -25.67063427353488000, -8.647552423581721800, 4.687855343529773400 ) ) ;
#262 = CARTESIAN_POINT ( 'NONE',  ( -25.39999999999999900, 7.995584178184967200E-015, 2.100819674333980600 ) ) ;
#263 = DIRECTION ( 'NONE',  ( 0.0000000000000000000, 0.0000000000000000000, 1.000000000000000000 ) ) ;
#264 = MANIFOLD_SOLID_BREP ( 'Imported1', #208 ) ;
#265 = APPROVAL_ROLE ( '' ) ;
#266 = LOCAL_TIME ( 9, 21, 14.00000000000000000, #293 ) ;
#267 = EDGE_CURVE ( 'NONE', #142, #173, #45, .T. ) ;
#268 = ORIENTED_EDGE ( 'NONE', *, *, #131, .T. ) ;
#269 =( BOUNDED_SURFACE ( )  B_SPLINE_SURFACE ( 3, 3, ( 
 ( #26, #25, #189, #187 ),
 ( #44, #227, #206, #210 ),
 ( #63, #22, #231, #62 ),
 ( #228, #165, #272, #256 ) ),
 .UNSPECIFIED., .F., .F., .F. ) 
 B_SPLINE_SURFACE_WITH_KNOTS ( ( 4, 4 ),
 ( 4, 4 ),
 ( 0.0000000000000000000, 1.000000000000000000 ),
 ( 0.0000000000000000000, 1.000000000000000000 ),
 .UNSPECIFIED. ) 
 GEOMETRIC_REPRESENTATION_ITEM ( )  RATIONAL_B_SPLINE_SURFACE ( (
 ( 1.000000000000000000, 0.9977040596165300800, 0.9977040596165300800, 1.000000000000000000),
 ( 0.9907226222618739100, 0.9884479821846056100, 0.9884479821846056100, 0.9907226222618739100),
 ( 0.9907226222618739100, 0.9884479821846056100, 0.9884479821846056100, 0.9907226222618739100),
 ( 1.000000000000000000, 0.9977040596165300800, 0.9977040596165300800, 1.000000000000000000) ) ) 
 REPRESENTATION_ITEM ( '' )  SURFACE ( )  );
#270 = ORIENTED_EDGE ( 'NONE', *, *, #91, .T. ) ;
#271 = EDGE_CURVE ( 'NONE', #194, #66, #180, .T. ) ;
#272 = CARTESIAN_POINT ( 'NONE',  ( -8.446894396003193300, 25.70197743971366200, 2.151423897471399700 ) ) ;
#273 = COORDINATED_UNIVERSAL_TIME_OFFSET ( 2, 0, .AHEAD. ) ;
#274 = ORIENTED_EDGE ( 'NONE', *, *, #271, .F. ) ;
#275 = CARTESIAN_POINT ( 'NONE',  ( -5.918798615872058900E-014, -25.70197743971367600, 2.151423897471416200 ) ) ;
#276 = CC_DESIGN_PERSON_AND_ORGANIZATION_ASSIGNMENT ( #236, #18, ( #39 ) ) ;
#277 = PRODUCT ( '111-0512E BK7 bi-cx 50.8 F150', '111-0512E BK7 bi-cx 50.8 F150', '', ( #14 ) ) ;
#278 = CARTESIAN_POINT ( 'NONE',  ( 8.446894396003211000, -25.70197743971368000, 3.948576102528623500 ) ) ;
#279 = CARTESIAN_POINT ( 'NONE',  ( 5.909090679739344400E-014, -25.39999999999999900, 3.999180325666016300 ) ) ;
#280 = PERSON ( 'UNSPECIFIED', 'UNSPECIFIED', 'UNSPECIFIED', ('UNSPECIFIED'), ('UNSPECIFIED'), ('UNSPECIFIED') ) ;
#281 = DIRECTION ( 'NONE',  ( -0.0000000000000000000, -0.0000000000000000000, -1.000000000000000000 ) ) ;
#282 = CARTESIAN_POINT ( 'NONE',  ( 0.0000000000000000000, -2.842170943040400100E-014, -148.5000000000000000 ) ) ;
#283 = AXIS2_PLACEMENT_3D ( 'NONE', #92, #281, #143 ) ;
#284 = CARTESIAN_POINT ( 'NONE',  ( -25.39999999999999900, 7.995584178184967200E-015, 2.100819674333980600 ) ) ;
#285 = PERSON_AND_ORGANIZATION ( #280, #23 ) ;
#286 = ORIENTED_EDGE ( 'NONE', *, *, #289, .T. ) ;
#287 = DIRECTION ( 'NONE',  ( 0.0000000000000000000, 0.0000000000000000000, 1.000000000000000000 ) ) ;
#288 = CARTESIAN_POINT ( 'NONE',  ( 3.986423804825575200E-014, 25.70197743971365900, 3.948576102528550200 ) ) ;
#289 = EDGE_CURVE ( 'NONE', #173, #226, #112, .T. ) ;
#290 = CALENDAR_DATE ( 2019, 11, 1 ) ;
#291 = ADVANCED_FACE ( 'NONE', ( #3 ), #129, .T. ) ;
#292 = PERSON_AND_ORGANIZATION_ROLE ( 'design_supplier' ) ;
#293 = COORDINATED_UNIVERSAL_TIME_OFFSET ( 2, 0, .AHEAD. ) ;
#294 = FACE_OUTER_BOUND ( 'NONE', #220, .T. ) ;
#295 = ADVANCED_BREP_SHAPE_REPRESENTATION ( '111-0512E BK7 bi-cx 50.8 F150', ( #264, #19 ), #205 ) ;
ENDSEC;
END-ISO-10303-21;
