ISO-10303-21;
HEADER;
FILE_DESCRIPTION (( 'STEP AP203' ),
    '1' );
FILE_NAME ('111-0508E BK7 bi-cx 50.8 F75.STEP',
    '2019-01-10T15:01:25',
    ( '' ),
    ( '' ),
    'SwSTEP 2.0',
    'SolidWorks 2017',
    '' );
FILE_SCHEMA (( 'CONFIG_CONTROL_DESIGN' ));
ENDSEC;

DATA;
#1 = APPROVAL_ROLE ( '' ) ;
#2 = COORDINATED_UNIVERSAL_TIME_OFFSET ( 2, 0, .AHEAD. ) ;
#3 = ORIENTED_EDGE ( 'NONE', *, *, #59, .T. ) ;
#4 = CARTESIAN_POINT ( 'NONE',  ( 0.0000000000000000000, -8.913533001462715400, -1.551061142755247200 ) ) ;
#5 = CARTESIAN_POINT ( 'NONE',  ( 0.0000000000000000000, 25.69271643499173100, 5.529160647343142700 ) ) ;
#6 = CARTESIAN_POINT ( 'NONE',  ( 0.0000000000000000000, -25.69271643499172700, 5.529160647343156000 ) ) ;
#7 = EDGE_CURVE ( 'NONE', #170, #148, #238, .T. ) ;
#8 = CARTESIAN_POINT ( 'NONE',  ( 26.06736927433291800, -8.913533001462697700, 7.042455983503462100 ) ) ;
#9 = DIRECTION ( 'NONE',  ( 1.000000000000000000, 0.0000000000000000000, 0.0000000000000000000 ) ) ;
#10 = CARTESIAN_POINT ( 'NONE',  ( -16.30791269534155000, -25.69271643499173800, 5.870752965751131000 ) ) ;
#11 = CARTESIAN_POINT ( 'NONE',  ( -8.214042459263915000, 25.69271643499173800, 4.470839352656848400 ) ) ;
#12 = CARTESIAN_POINT ( 'NONE',  ( -17.67969337626031400, -8.913533001462720800, -0.03339031049542440200 ) ) ;
#13 = APPROVAL_PERSON_ORGANIZATION ( #151, #181, #208 ) ;
#14 = ORIENTED_EDGE ( 'NONE', *, *, #280, .F. ) ;
#15 = CARTESIAN_POINT ( 'NONE',  ( 17.67969337626031700, 8.913533001462720800, 10.03339031049542000 ) ) ;
#16 =( NAMED_UNIT ( * ) SI_UNIT ( $, .STERADIAN. ) SOLID_ANGLE_UNIT ( ) );
#17 = PERSON_AND_ORGANIZATION ( #123, #57 ) ;
#18 = FACE_OUTER_BOUND ( 'NONE', #98, .T. ) ;
#19 = CARTESIAN_POINT ( 'NONE',  ( 9.992007221626412800E-016, 4.884981308350691100E-015, 4.366460542110210100 ) ) ;
#20 = DIRECTION ( 'NONE',  ( 1.000000000000000000, 0.0000000000000000000, 0.0000000000000000000 ) ) ;
#21 = APPROVAL_DATE_TIME ( #205, #276 ) ;
#22 = ORIENTED_EDGE ( 'NONE', *, *, #40, .F. ) ;
#23 = APPROVAL_STATUS ( 'not_yet_approved' ) ;
#24 = CIRCLE ( 'NONE', #93, 76.06000000000000200 ) ;
#25 = CARTESIAN_POINT ( 'NONE',  ( 24.04478252399250600, -25.69271643499174100, 8.629618453066648000 ) ) ;
#26 = CARTESIAN_POINT ( 'NONE',  ( 26.06736927433290800, -8.913533001462719000, 2.957544016496556100 ) ) ;
#27 = PERSON_AND_ORGANIZATION ( #123, #57 ) ;
#28 = DIRECTION ( 'NONE',  ( 1.000000000000000000, 0.0000000000000000000, 0.0000000000000000000 ) ) ;
#29 = CARTESIAN_POINT ( 'NONE',  ( 0.0000000000000000000, -7.105427357601000300E-015, 76.06000000000000200 ) ) ;
#30 = PRODUCT_DEFINITION ( 'UNKNOWN', '', #175, #173 ) ;
#31 = CARTESIAN_POINT ( 'NONE',  ( -24.04478252399250900, -25.69271643499172700, 1.370381546933358000 ) ) ;
#32 = CARTESIAN_POINT ( 'NONE',  ( 0.0000000000000000000, 25.39999999999999100, 5.633539457889782800 ) ) ;
#33 = LINE ( 'NONE', #63, #196 ) ;
#34 = UNCERTAINTY_MEASURE_WITH_UNIT (LENGTH_MEASURE( 1.000000000000000100E-005 ), #292, 'distance_accuracy_value', 'NONE');
#35 = CARTESIAN_POINT ( 'NONE',  ( -8.904987092606434700, 8.913533001462719000, -1.551061142755256300 ) ) ;
#36 = AXIS2_PLACEMENT_3D ( 'NONE', #114, #83, #111 ) ;
#37 = DIRECTION ( 'NONE',  ( 1.000000000000000000, 0.0000000000000000000, 0.0000000000000000000 ) ) ;
#38 =( NAMED_UNIT ( * ) PLANE_ANGLE_UNIT ( ) SI_UNIT ( $, .RADIAN. ) );
#39 = CC_DESIGN_DATE_AND_TIME_ASSIGNMENT ( #66, #265, ( #161 ) ) ;
#40 = EDGE_CURVE ( 'NONE', #270, #164, #226, .T. ) ;
#41 = APPLICATION_PROTOCOL_DEFINITION ( 'international standard', 'config_control_design', 1994, #108 ) ;
#42 = ORIENTED_EDGE ( 'NONE', *, *, #135, .T. ) ;
#43 = APPROVAL ( #129, 'UNSPECIFIED' ) ;
#44 = CARTESIAN_POINT ( 'NONE',  ( 0.0000000000000000000, 25.69271643499173800, 4.470839352656852800 ) ) ;
#45 = CARTESIAN_POINT ( 'NONE',  ( 16.30791269534155300, 25.69271643499173800, 5.870752965751134600 ) ) ;
#46 = CIRCLE ( 'NONE', #107, 25.39999999999999900 ) ;
#47 = CARTESIAN_POINT ( 'NONE',  ( -17.67969337626030700, 8.913533001462715400, 10.03339031049541700 ) ) ;
#48 = EDGE_LOOP ( 'NONE', ( #113, #185, #262, #295, #179, #294 ) ) ;
#49 = DIRECTION ( 'NONE',  ( -0.0000000000000000000, -0.0000000000000000000, -1.000000000000000000 ) ) ;
#50 = AXIS2_PLACEMENT_3D ( 'NONE', #287, #49, #51 ) ;
#51 = DIRECTION ( 'NONE',  ( 1.000000000000000000, 0.0000000000000000000, 0.0000000000000000000 ) ) ;
#52 = CARTESIAN_POINT ( 'NONE',  ( -8.214042459263907900, -25.69271643499172700, 5.529160647343156900 ) ) ;
#53 = LINE ( 'NONE', #233, #202 ) ;
#54 = AXIS2_PLACEMENT_3D ( 'NONE', #70, #94, #28 ) ;
#55 = CARTESIAN_POINT ( 'NONE',  ( 1.734723475976807100E-014, -8.913533001462695900, 11.55106114275526600 ) ) ;
#56 = CALENDAR_DATE ( 2019, 10, 1 ) ;
#57 = ORGANIZATION ( 'UNSPECIFIED', 'UNSPECIFIED', '' ) ;
#58 = COORDINATED_UNIVERSAL_TIME_OFFSET ( 2, 0, .AHEAD. ) ;
#59 = EDGE_CURVE ( 'NONE', #148, #206, #53, .T. ) ;
#60 = COORDINATED_UNIVERSAL_TIME_OFFSET ( 2, 0, .AHEAD. ) ;
#61 = ADVANCED_FACE ( 'NONE', ( #290 ), #213, .T. ) ;
#62 = APPROVAL_ROLE ( '' ) ;
#63 = CARTESIAN_POINT ( 'NONE',  ( 25.39999999999999900, 4.884981308350691100E-015, 4.366460542110210100 ) ) ;
#64 = PERSON_AND_ORGANIZATION_ROLE ( 'creator' ) ;
#65 = CARTESIAN_POINT ( 'NONE',  ( 0.0000000000000000000, 8.913533001462715400, -1.551061142755250800 ) ) ;
#66 = DATE_AND_TIME ( #56, #248 ) ;
#67 = ORIENTED_EDGE ( 'NONE', *, *, #291, .F. ) ;
#68 = CARTESIAN_POINT ( 'NONE',  ( 0.0000000000000000000, -8.913533001462706600, 11.55106114275525000 ) ) ;
#69 = CARTESIAN_POINT ( 'NONE',  ( 8.214042459263918500, -25.69271643499170900, 5.529160647343173800 ) ) ;
#70 = CARTESIAN_POINT ( 'NONE',  ( 9.992007221626412800E-016, 4.884981308350691100E-015, 5.633539457889789900 ) ) ;
#71 = CARTESIAN_POINT ( 'NONE',  ( -16.30791269534155000, -25.69271643499172700, 4.129247034248875200 ) ) ;
#72 = MANIFOLD_SOLID_BREP ( 'Imported1', #174 ) ;
#73 = CARTESIAN_POINT ( 'NONE',  ( -24.04478252399250600, -25.69271643499174100, 8.629618453066644400 ) ) ;
#74 = PRODUCT ( '111-0508E BK7 bi-cx 50.8 F75', '111-0508E BK7 bi-cx 50.8 F75', '', ( #211 ) ) ;
#75 = ORIENTED_EDGE ( 'NONE', *, *, #81, .F. ) ;
#76 = CARTESIAN_POINT ( 'NONE',  ( 0.0000000000000000000, 0.0000000000000000000, 0.0000000000000000000 ) ) ;
#77 = CARTESIAN_POINT ( 'NONE',  ( -8.214042459263915000, -25.69271643499173800, 4.470839352656849300 ) ) ;
#78 = APPROVAL_DATE_TIME ( #137, #181 ) ;
#79 = APPROVAL_PERSON_ORGANIZATION ( #147, #43, #1 ) ;
#80 = PRODUCT_RELATED_PRODUCT_CATEGORY ( 'detail', '', ( #74 ) ) ;
#81 = EDGE_CURVE ( 'NONE', #128, #230, #33, .T. ) ;
#82 = EDGE_LOOP ( 'NONE', ( #22, #232, #67 ) ) ;
#83 = DIRECTION ( 'NONE',  ( -1.000000000000000000, 0.0000000000000000000, 0.0000000000000000000 ) ) ;
#84 = SECURITY_CLASSIFICATION_LEVEL ( 'unclassified' ) ;
#85 = DIRECTION ( 'NONE',  ( 0.0000000000000000000, 0.0000000000000000000, 1.000000000000000000 ) ) ;
#86 = SHAPE_DEFINITION_REPRESENTATION ( #277, #228 ) ;
#87 = PERSON_AND_ORGANIZATION_ROLE ( 'design_supplier' ) ;
#88 = EDGE_LOOP ( 'NONE', ( #183, #160, #258 ) ) ;
#89 = ADVANCED_FACE ( 'NONE', ( #252 ), #219, .T. ) ;
#90 = CARTESIAN_POINT ( 'NONE',  ( -8.214042459263909600, 25.69271643499173100, 5.529160647343142700 ) ) ;
#91 = CARTESIAN_POINT ( 'NONE',  ( -17.67969337626030700, -8.913533001462706600, 10.03339031049542400 ) ) ;
#92 = FACE_OUTER_BOUND ( 'NONE', #48, .T. ) ;
#93 = AXIS2_PLACEMENT_3D ( 'NONE', #29, #194, #271 ) ;
#94 = DIRECTION ( 'NONE',  ( -0.0000000000000000000, -0.0000000000000000000, -1.000000000000000000 ) ) ;
#95 = DIRECTION ( 'NONE',  ( -0.0000000000000000000, -0.0000000000000000000, -1.000000000000000000 ) ) ;
#96 = CIRCLE ( 'NONE', #176, 25.39999999999999900 ) ;
#97 = CARTESIAN_POINT ( 'NONE',  ( 26.06736927433291500, 8.913533001462715400, 7.042455983503440800 ) ) ;
#98 = EDGE_LOOP ( 'NONE', ( #125, #214, #42 ) ) ;
#99 = CC_DESIGN_APPROVAL ( #276, ( #161 ) ) ;
#100 = CARTESIAN_POINT ( 'NONE',  ( 24.04478252399251700, 25.69271643499172700, 1.370381546933349800 ) ) ;
#101 = EDGE_LOOP ( 'NONE', ( #249, #3, #217, #106, #75, #253 ) ) ;
#102 = PERSON_AND_ORGANIZATION ( #123, #57 ) ;
#103 = CARTESIAN_POINT ( 'NONE',  ( 9.992007221626412800E-016, 4.884981308350691100E-015, 5.633539457889789900 ) ) ;
#104 =( GEOMETRIC_REPRESENTATION_CONTEXT ( 3 ) GLOBAL_UNCERTAINTY_ASSIGNED_CONTEXT ( ( #34 ) ) GLOBAL_UNIT_ASSIGNED_CONTEXT ( ( #292, #38, #16 ) ) REPRESENTATION_CONTEXT ( 'NONE', 'WORKASPACE' ) );
#105 = APPLICATION_CONTEXT ( 'configuration controlled 3d designs of mechanical parts and assemblies' ) ;
#106 = ORIENTED_EDGE ( 'NONE', *, *, #291, .T. ) ;
#107 = AXIS2_PLACEMENT_3D ( 'NONE', #275, #122, #153 ) ;
#108 = APPLICATION_CONTEXT ( 'configuration controlled 3d designs of mechanical parts and assemblies' ) ;
#109 = DATE_TIME_ROLE ( 'creation_date' ) ;
#110 = PERSON_AND_ORGANIZATION ( #123, #57 ) ;
#111 = DIRECTION ( 'NONE',  ( 0.0000000000000000000, -1.000000000000000000, 3.649168500608586900E-016 ) ) ;
#112 = CIRCLE ( 'NONE', #115, 25.39999999999999900 ) ;
#113 = ORIENTED_EDGE ( 'NONE', *, *, #59, .F. ) ;
#114 = CARTESIAN_POINT ( 'NONE',  ( 0.0000000000000000000, -7.105427357601000300E-015, -66.06000000000000200 ) ) ;
#115 = AXIS2_PLACEMENT_3D ( 'NONE', #19, #180, #126 ) ;
#116 = CARTESIAN_POINT ( 'NONE',  ( -26.06736927433290800, -8.913533001462708300, 7.042455983503447900 ) ) ;
#117 = CARTESIAN_POINT ( 'NONE',  ( -26.06736927433290800, 8.913533001462708300, 7.042455983503438200 ) ) ;
#118 = CARTESIAN_POINT ( 'NONE',  ( -1.387778780781445700E-014, -25.69271643499173800, 4.470839352656847500 ) ) ;
#119 = EDGE_CURVE ( 'NONE', #206, #164, #184, .T. ) ;
#120 = CARTESIAN_POINT ( 'NONE',  ( -17.67969337626031700, 8.913533001462717200, -0.03339031049542917600 ) ) ;
#121 = ORIENTED_EDGE ( 'NONE', *, *, #119, .F. ) ;
#122 = DIRECTION ( 'NONE',  ( -0.0000000000000000000, -0.0000000000000000000, -1.000000000000000000 ) ) ;
#123 = PERSON ( 'UNSPECIFIED', 'UNSPECIFIED', 'UNSPECIFIED', ('UNSPECIFIED'), ('UNSPECIFIED'), ('UNSPECIFIED') ) ;
#124 = CIRCLE ( 'NONE', #288, 25.39999999999999900 ) ;
#125 = ORIENTED_EDGE ( 'NONE', *, *, #235, .F. ) ;
#126 = DIRECTION ( 'NONE',  ( 1.000000000000000000, 0.0000000000000000000, 0.0000000000000000000 ) ) ;
#127 = CC_DESIGN_DATE_AND_TIME_ASSIGNMENT ( #177, #109, ( #30 ) ) ;
#128 = VERTEX_POINT ( 'NONE', #192 ) ;
#129 = APPROVAL_STATUS ( 'not_yet_approved' ) ;
#130 = DIRECTION ( 'NONE',  ( 0.0000000000000000000, 0.0000000000000000000, 1.000000000000000000 ) ) ;
#131 = CIRCLE ( 'NONE', #50, 25.39999999999999900 ) ;
#132 = CARTESIAN_POINT ( 'NONE',  ( 16.30791269534154600, -25.69271643499173800, 5.870752965751132800 ) ) ;
#133 = ADVANCED_FACE ( 'NONE', ( #223 ), #159, .T. ) ;
#134 = CARTESIAN_POINT ( 'NONE',  ( 8.214042459263904300, -25.69271643499173800, 4.470839352656853700 ) ) ;
#135 = EDGE_CURVE ( 'NONE', #148, #278, #281, .T. ) ;
#136 = CARTESIAN_POINT ( 'NONE',  ( 17.67969337626031700, 8.913533001462717200, -0.03339031049542527000 ) ) ;
#137 = DATE_AND_TIME ( #237, #229 ) ;
#138 = EDGE_CURVE ( 'NONE', #128, #170, #131, .T. ) ;
#139 = CARTESIAN_POINT ( 'NONE',  ( -25.39999999999999900, 7.995584178184967200E-015, 4.366460542110210100 ) ) ;
#140 = CARTESIAN_POINT ( 'NONE',  ( 0.0000000000000000000, 8.913533001462710100, 11.55106114275524300 ) ) ;
#141 = CC_DESIGN_PERSON_AND_ORGANIZATION_ASSIGNMENT ( #27, #259, ( #30 ) ) ;
#142 = CARTESIAN_POINT ( 'NONE',  ( 0.0000000000000000000, -25.39999999999999500, 4.366460542110215400 ) ) ;
#143 = FACE_OUTER_BOUND ( 'NONE', #82, .T. ) ;
#144 = CARTESIAN_POINT ( 'NONE',  ( 1.387778780781445700E-014, -25.69271643499170900, 5.529160647343175600 ) ) ;
#145 = CARTESIAN_POINT ( 'NONE',  ( -25.39999999999999900, 7.995584178184967200E-015, 5.633539457889789900 ) ) ;
#146 = CARTESIAN_POINT ( 'NONE',  ( 8.904987092606441800, 8.913533001462720800, 11.55106114275524700 ) ) ;
#147 = PERSON_AND_ORGANIZATION ( #123, #57 ) ;
#148 = VERTEX_POINT ( 'NONE', #139 ) ;
#149 = CC_DESIGN_PERSON_AND_ORGANIZATION_ASSIGNMENT ( #110, #64, ( #175 ) ) ;
#150 = CARTESIAN_POINT ( 'NONE',  ( 2.081668171172168500E-014, 8.913533001462717200, 11.55106114275524700 ) ) ;
#151 = PERSON_AND_ORGANIZATION ( #123, #57 ) ;
#152 = CALENDAR_DATE ( 2019, 10, 1 ) ;
#153 = DIRECTION ( 'NONE',  ( 1.000000000000000000, 0.0000000000000000000, 0.0000000000000000000 ) ) ;
#154 = PERSON_AND_ORGANIZATION ( #123, #57 ) ;
#155 = CARTESIAN_POINT ( 'NONE',  ( 9.992007221626412800E-016, 4.884981308350691100E-015, 4.366460542110210100 ) ) ;
#156 = ADVANCED_FACE ( 'NONE', ( #92 ), #261, .T. ) ;
#157 = CARTESIAN_POINT ( 'NONE',  ( 8.904987092606427600, -8.913533001462719000, -1.551061142755247400 ) ) ;
#158 = DIRECTION ( 'NONE',  ( 0.0000000000000000000, 0.0000000000000000000, 1.000000000000000000 ) ) ;
#159 =( BOUNDED_SURFACE ( )  B_SPLINE_SURFACE ( 3, 3, ( 
 ( #6, #52, #71, #31 ),
 ( #68, #216, #91, #116 ),
 ( #140, #285, #47, #117 ),
 ( #5, #90, #268, #215 ) ),
 .UNSPECIFIED., .F., .F., .T. ) 
 B_SPLINE_SURFACE_WITH_KNOTS ( ( 4, 4 ),
 ( 4, 4 ),
 ( 0.0000000000000000000, 1.000000000000000000 ),
 ( 0.0000000000000000000, 1.000000000000000000 ),
 .UNSPECIFIED. ) 
 GEOMETRIC_REPRESENTATION_ITEM ( )  RATIONAL_B_SPLINE_SURFACE ( (
 ( 1.000000000000000000, 0.9902466031975333300, 0.9902466031975333300, 1.000000000000000000),
 ( 0.9608130480089679400, 0.9514418570987490700, 0.9514418570987490700, 0.9608130480089679400),
 ( 0.9608130480089679400, 0.9514418570987490700, 0.9514418570987490700, 0.9608130480089679400),
 ( 1.000000000000000000, 0.9902466031975333300, 0.9902466031975333300, 1.000000000000000000) ) ) 
 REPRESENTATION_ITEM ( '' )  SURFACE ( )  );
#160 = ORIENTED_EDGE ( 'NONE', *, *, #235, .T. ) ;
#161 = SECURITY_CLASSIFICATION ( '', '', #84 ) ;
#162 = DIRECTION ( 'NONE',  ( -0.0000000000000000000, -0.0000000000000000000, -1.000000000000000000 ) ) ;
#163 = CALENDAR_DATE ( 2019, 10, 1 ) ;
#164 = VERTEX_POINT ( 'NONE', #32 ) ;
#165 = CARTESIAN_POINT ( 'NONE',  ( 0.0000000000000000000, -25.39999999999999100, 5.633539457889789000 ) ) ;
#166 = CARTESIAN_POINT ( 'NONE',  ( 17.67969337626031700, -8.913533001462694100, 10.03339031049544000 ) ) ;
#167 = CC_DESIGN_SECURITY_CLASSIFICATION ( #161, ( #175 ) ) ;
#168 = LOCAL_TIME ( 17, 1, 25.00000000000000000, #273 ) ;
#169 = CARTESIAN_POINT ( 'NONE',  ( -26.06736927433290800, -8.913533001462719000, 2.957544016496552100 ) ) ;
#170 = VERTEX_POINT ( 'NONE', #142 ) ;
#171 = AXIS2_PLACEMENT_3D ( 'NONE', #155, #85, #283 ) ;
#172 = CARTESIAN_POINT ( 'NONE',  ( -1.387778780781445700E-014, 8.913533001462715400, -1.551061142755257400 ) ) ;
#173 = DESIGN_CONTEXT ( 'detailed design', #108, 'design' ) ;
#174 = CLOSED_SHELL ( 'NONE', ( #89, #133, #61, #264, #156, #236 ) ) ;
#175 = PRODUCT_DEFINITION_FORMATION_WITH_SPECIFIED_SOURCE ( 'ANY', '', #74, .NOT_KNOWN. ) ;
#176 = AXIS2_PLACEMENT_3D ( 'NONE', #222, #95, #289 ) ;
#177 = DATE_AND_TIME ( #152, #168 ) ;
#178 = DATE_AND_TIME ( #163, #243 ) ;
#179 = ORIENTED_EDGE ( 'NONE', *, *, #250, .T. ) ;
#180 = DIRECTION ( 'NONE',  ( -0.0000000000000000000, -0.0000000000000000000, -1.000000000000000000 ) ) ;
#181 = APPROVAL ( #23, 'UNSPECIFIED' ) ;
#182 = CALENDAR_DATE ( 2019, 10, 1 ) ;
#183 = ORIENTED_EDGE ( 'NONE', *, *, #138, .T. ) ;
#184 = CIRCLE ( 'NONE', #54, 25.39999999999999900 ) ;
#185 = ORIENTED_EDGE ( 'NONE', *, *, #7, .F. ) ;
#186 = CARTESIAN_POINT ( 'NONE',  ( 8.904987092606427600, 8.913533001462719000, -1.551061142755251000 ) ) ;
#187 = CARTESIAN_POINT ( 'NONE',  ( 26.06736927433291800, 8.913533001462710100, 2.957544016496553000 ) ) ;
#188 = CARTESIAN_POINT ( 'NONE',  ( 17.67969337626030700, -8.913533001462720800, -0.03339031049542181400 ) ) ;
#189 = AXIS2_PLACEMENT_3D ( 'NONE', #269, #162, #195 ) ;
#190 = LOCAL_TIME ( 17, 1, 25.00000000000000000, #242 ) ;
#191 = CARTESIAN_POINT ( 'NONE',  ( 24.04478252399251700, -25.69271643499171300, 1.370381546933377300 ) ) ;
#192 = CARTESIAN_POINT ( 'NONE',  ( 25.39999999999999900, 4.884981308350691100E-015, 4.366460542110210100 ) ) ;
#193 = CC_DESIGN_APPROVAL ( #181, ( #175 ) ) ;
#194 = DIRECTION ( 'NONE',  ( 1.000000000000000000, 0.0000000000000000000, 0.0000000000000000000 ) ) ;
#195 = DIRECTION ( 'NONE',  ( 1.000000000000000000, 0.0000000000000000000, 0.0000000000000000000 ) ) ;
#196 = VECTOR ( 'NONE', #158, 1000.000000000000000 ) ;
#197 = CARTESIAN_POINT ( 'NONE',  ( 8.904987092606440100, -8.913533001462694100, 11.55106114275526400 ) ) ;
#198 =( BOUNDED_SURFACE ( )  B_SPLINE_SURFACE ( 3, 3, ( 
 ( #73, #10, #77, #118 ),
 ( #169, #12, #274, #245 ),
 ( #272, #120, #35, #172 ),
 ( #221, #246, #11, #220 ) ),
 .UNSPECIFIED., .F., .F., .T. ) 
 B_SPLINE_SURFACE_WITH_KNOTS ( ( 4, 4 ),
 ( 4, 4 ),
 ( 0.0000000000000000000, 1.000000000000000000 ),
 ( 0.0000000000000000000, 1.000000000000000000 ),
 .UNSPECIFIED. ) 
 GEOMETRIC_REPRESENTATION_ITEM ( )  RATIONAL_B_SPLINE_SURFACE ( (
 ( 1.000000000000000000, 0.9902466031975333300, 0.9902466031975333300, 1.000000000000000000),
 ( 0.9608130480089679400, 0.9514418570987490700, 0.9514418570987490700, 0.9608130480089679400),
 ( 0.9608130480089679400, 0.9514418570987490700, 0.9514418570987490700, 0.9608130480089679400),
 ( 1.000000000000000000, 0.9902466031975333300, 0.9902466031975333300, 1.000000000000000000) ) ) 
 REPRESENTATION_ITEM ( '' )  SURFACE ( )  );
#199 = CARTESIAN_POINT ( 'NONE',  ( 0.0000000000000000000, 25.39999999999999100, 4.366460542110201200 ) ) ;
#200 = CARTESIAN_POINT ( 'NONE',  ( 8.214042459263922100, 25.69271643499173100, 5.529160647343148000 ) ) ;
#201 = CARTESIAN_POINT ( 'NONE',  ( 16.30791269534155700, 25.69271643499172700, 4.129247034248867200 ) ) ;
#202 = VECTOR ( 'NONE', #130, 1000.000000000000000 ) ;
#203 = ORIENTED_EDGE ( 'NONE', *, *, #40, .T. ) ;
#204 = APPLICATION_PROTOCOL_DEFINITION ( 'international standard', 'config_control_design', 1994, #105 ) ;
#205 = DATE_AND_TIME ( #182, #190 ) ;
#206 = VERTEX_POINT ( 'NONE', #145 ) ;
#207 = AXIS2_PLACEMENT_3D ( 'NONE', #210, #231, #234 ) ;
#208 = APPROVAL_ROLE ( '' ) ;
#209 = AXIS2_PLACEMENT_3D ( 'NONE', #76, #225, #37 ) ;
#210 = CARTESIAN_POINT ( 'NONE',  ( 9.992007221626412800E-016, 4.884981308350691100E-015, 4.366460542110210100 ) ) ;
#211 = MECHANICAL_CONTEXT ( 'NONE', #105, 'mechanical' ) ;
#212 = PERSON_AND_ORGANIZATION_ROLE ( 'classification_officer' ) ;
#213 = CYLINDRICAL_SURFACE ( 'NONE', #171, 25.39999999999999900 ) ;
#214 = ORIENTED_EDGE ( 'NONE', *, *, #7, .T. ) ;
#215 = CARTESIAN_POINT ( 'NONE',  ( -24.04478252399251300, 25.69271643499173100, 1.370381546933343100 ) ) ;
#216 = CARTESIAN_POINT ( 'NONE',  ( -8.904987092606427600, -8.913533001462706600, 11.55106114275525500 ) ) ;
#217 = ORIENTED_EDGE ( 'NONE', *, *, #119, .T. ) ;
#218 = CARTESIAN_POINT ( 'NONE',  ( 9.992007221626412800E-016, 4.884981308350691100E-015, 4.366460542110210100 ) ) ;
#219 =( BOUNDED_SURFACE ( )  B_SPLINE_SURFACE ( 3, 3, ( 
 ( #282, #134, #132, #25 ),
 ( #4, #157, #188, #26 ),
 ( #65, #186, #136, #187 ),
 ( #44, #266, #45, #239 ) ),
 .UNSPECIFIED., .F., .F., .F. ) 
 B_SPLINE_SURFACE_WITH_KNOTS ( ( 4, 4 ),
 ( 4, 4 ),
 ( 0.0000000000000000000, 1.000000000000000000 ),
 ( 0.0000000000000000000, 1.000000000000000000 ),
 .UNSPECIFIED. ) 
 GEOMETRIC_REPRESENTATION_ITEM ( )  RATIONAL_B_SPLINE_SURFACE ( (
 ( 1.000000000000000000, 0.9902466031975333300, 0.9902466031975333300, 1.000000000000000000),
 ( 0.9608130480089679400, 0.9514418570987490700, 0.9514418570987490700, 0.9608130480089679400),
 ( 0.9608130480089679400, 0.9514418570987490700, 0.9514418570987490700, 0.9608130480089679400),
 ( 1.000000000000000000, 0.9902466031975333300, 0.9902466031975333300, 1.000000000000000000) ) ) 
 REPRESENTATION_ITEM ( '' )  SURFACE ( )  );
#220 = CARTESIAN_POINT ( 'NONE',  ( -1.040834085586084300E-014, 25.69271643499173800, 4.470839352656847500 ) ) ;
#221 = CARTESIAN_POINT ( 'NONE',  ( -24.04478252399251700, 25.69271643499173400, 8.629618453066644400 ) ) ;
#222 = CARTESIAN_POINT ( 'NONE',  ( 9.992007221626412800E-016, 4.884981308350691100E-015, 5.633539457889789900 ) ) ;
#223 = FACE_OUTER_BOUND ( 'NONE', #227, .T. ) ;
#224 = CC_DESIGN_PERSON_AND_ORGANIZATION_ASSIGNMENT ( #102, #256, ( #74 ) ) ;
#225 = DIRECTION ( 'NONE',  ( 0.0000000000000000000, 0.0000000000000000000, 1.000000000000000000 ) ) ;
#226 = CIRCLE ( 'NONE', #36, 76.06000000000000200 ) ;
#227 = EDGE_LOOP ( 'NONE', ( #14, #203, #121 ) ) ;
#228 = ADVANCED_BREP_SHAPE_REPRESENTATION ( '111-0508E BK7 bi-cx 50.8 F75', ( #72, #209 ), #104 ) ;
#229 = LOCAL_TIME ( 17, 1, 25.00000000000000000, #58 ) ;
#230 = VERTEX_POINT ( 'NONE', #241 ) ;
#231 = DIRECTION ( 'NONE',  ( -0.0000000000000000000, -0.0000000000000000000, -1.000000000000000000 ) ) ;
#232 = ORIENTED_EDGE ( 'NONE', *, *, #250, .F. ) ;
#233 = CARTESIAN_POINT ( 'NONE',  ( -25.39999999999999900, 7.995584178184967200E-015, 4.366460542110210100 ) ) ;
#234 = DIRECTION ( 'NONE',  ( 1.000000000000000000, 0.0000000000000000000, 0.0000000000000000000 ) ) ;
#235 = EDGE_CURVE ( 'NONE', #170, #278, #24, .T. ) ;
#236 = ADVANCED_FACE ( 'NONE', ( #143 ), #255, .T. ) ;
#237 = CALENDAR_DATE ( 2019, 10, 1 ) ;
#238 = CIRCLE ( 'NONE', #207, 25.39999999999999900 ) ;
#239 = CARTESIAN_POINT ( 'NONE',  ( 24.04478252399251700, 25.69271643499173400, 8.629618453066651500 ) ) ;
#240 = CC_DESIGN_APPROVAL ( #43, ( #30 ) ) ;
#241 = CARTESIAN_POINT ( 'NONE',  ( 25.39999999999999900, 4.884981308350691100E-015, 5.633539457889789900 ) ) ;
#242 = COORDINATED_UNIVERSAL_TIME_OFFSET ( 2, 0, .AHEAD. ) ;
#243 = LOCAL_TIME ( 17, 1, 25.00000000000000000, #2 ) ;
#244 = CARTESIAN_POINT ( 'NONE',  ( 16.30791269534155700, -25.69271643499171300, 4.129247034248894700 ) ) ;
#245 = CARTESIAN_POINT ( 'NONE',  ( -1.734723475976807100E-014, -8.913533001462715400, -1.551061142755251200 ) ) ;
#246 = CARTESIAN_POINT ( 'NONE',  ( -16.30791269534155700, 25.69271643499173800, 5.870752965751129300 ) ) ;
#247 = CARTESIAN_POINT ( 'NONE',  ( 1.734723475976807100E-014, 25.69271643499173100, 5.529160647343149800 ) ) ;
#248 = LOCAL_TIME ( 17, 1, 25.00000000000000000, #60 ) ;
#249 = ORIENTED_EDGE ( 'NONE', *, *, #135, .F. ) ;
#250 = EDGE_CURVE ( 'NONE', #230, #270, #96, .T. ) ;
#251 = APPROVAL_PERSON_ORGANIZATION ( #154, #276, #62 ) ;
#252 = FACE_OUTER_BOUND ( 'NONE', #88, .T. ) ;
#253 = ORIENTED_EDGE ( 'NONE', *, *, #293, .F. ) ;
#254 = DIRECTION ( 'NONE',  ( -0.0000000000000000000, -0.0000000000000000000, -1.000000000000000000 ) ) ;
#255 =( BOUNDED_SURFACE ( )  B_SPLINE_SURFACE ( 3, 3, ( 
 ( #191, #244, #69, #144 ),
 ( #8, #166, #197, #55 ),
 ( #97, #15, #146, #150 ),
 ( #100, #201, #200, #247 ) ),
 .UNSPECIFIED., .F., .F., .T. ) 
 B_SPLINE_SURFACE_WITH_KNOTS ( ( 4, 4 ),
 ( 4, 4 ),
 ( 0.0000000000000000000, 1.000000000000000000 ),
 ( 0.0000000000000000000, 1.000000000000000000 ),
 .UNSPECIFIED. ) 
 GEOMETRIC_REPRESENTATION_ITEM ( )  RATIONAL_B_SPLINE_SURFACE ( (
 ( 1.000000000000000000, 0.9902466031975333300, 0.9902466031975333300, 1.000000000000000000),
 ( 0.9608130480089679400, 0.9514418570987490700, 0.9514418570987490700, 0.9608130480089679400),
 ( 0.9608130480089679400, 0.9514418570987490700, 0.9514418570987490700, 0.9608130480089679400),
 ( 1.000000000000000000, 0.9902466031975333300, 0.9902466031975333300, 1.000000000000000000) ) ) 
 REPRESENTATION_ITEM ( '' )  SURFACE ( )  );
#256 = PERSON_AND_ORGANIZATION_ROLE ( 'design_owner' ) ;
#257 = PERSON_AND_ORGANIZATION ( #123, #57 ) ;
#258 = ORIENTED_EDGE ( 'NONE', *, *, #293, .T. ) ;
#259 = PERSON_AND_ORGANIZATION_ROLE ( 'creator' ) ;
#260 = CC_DESIGN_PERSON_AND_ORGANIZATION_ASSIGNMENT ( #17, #87, ( #175 ) ) ;
#261 = CYLINDRICAL_SURFACE ( 'NONE', #263, 25.39999999999999900 ) ;
#262 = ORIENTED_EDGE ( 'NONE', *, *, #138, .F. ) ;
#263 = AXIS2_PLACEMENT_3D ( 'NONE', #218, #267, #9 ) ;
#264 = ADVANCED_FACE ( 'NONE', ( #18 ), #198, .T. ) ;
#265 = DATE_TIME_ROLE ( 'classification_date' ) ;
#266 = CARTESIAN_POINT ( 'NONE',  ( 8.214042459263909600, 25.69271643499173800, 4.470839352656853700 ) ) ;
#267 = DIRECTION ( 'NONE',  ( 0.0000000000000000000, 0.0000000000000000000, 1.000000000000000000 ) ) ;
#268 = CARTESIAN_POINT ( 'NONE',  ( -16.30791269534155000, 25.69271643499173100, 4.129247034248862700 ) ) ;
#269 = CARTESIAN_POINT ( 'NONE',  ( 9.992007221626412800E-016, 4.884981308350691100E-015, 4.366460542110210100 ) ) ;
#270 = VERTEX_POINT ( 'NONE', #165 ) ;
#271 = DIRECTION ( 'NONE',  ( 0.0000000000000000000, -1.000000000000000000, -7.298337001217173900E-016 ) ) ;
#272 = CARTESIAN_POINT ( 'NONE',  ( -26.06736927433291500, 8.913533001462710100, 2.957544016496547600 ) ) ;
#273 = COORDINATED_UNIVERSAL_TIME_OFFSET ( 2, 0, .AHEAD. ) ;
#274 = CARTESIAN_POINT ( 'NONE',  ( -8.904987092606438300, -8.913533001462719000, -1.551061142755249900 ) ) ;
#275 = CARTESIAN_POINT ( 'NONE',  ( 9.992007221626412800E-016, 4.884981308350691100E-015, 5.633539457889789900 ) ) ;
#276 = APPROVAL ( #284, 'UNSPECIFIED' ) ;
#277 = PRODUCT_DEFINITION_SHAPE ( 'NONE', 'NONE',  #30 ) ;
#278 = VERTEX_POINT ( 'NONE', #199 ) ;
#279 = CC_DESIGN_PERSON_AND_ORGANIZATION_ASSIGNMENT ( #257, #212, ( #161 ) ) ;
#280 = EDGE_CURVE ( 'NONE', #270, #206, #124, .T. ) ;
#281 = CIRCLE ( 'NONE', #189, 25.39999999999999900 ) ;
#282 = CARTESIAN_POINT ( 'NONE',  ( 0.0000000000000000000, -25.69271643499173800, 4.470839352656852800 ) ) ;
#283 = DIRECTION ( 'NONE',  ( 1.000000000000000000, 0.0000000000000000000, 0.0000000000000000000 ) ) ;
#284 = APPROVAL_STATUS ( 'not_yet_approved' ) ;
#285 = CARTESIAN_POINT ( 'NONE',  ( -8.904987092606427600, 8.913533001462715400, 11.55106114275524500 ) ) ;
#286 = APPROVAL_DATE_TIME ( #178, #43 ) ;
#287 = CARTESIAN_POINT ( 'NONE',  ( 9.992007221626412800E-016, 4.884981308350691100E-015, 4.366460542110210100 ) ) ;
#288 = AXIS2_PLACEMENT_3D ( 'NONE', #103, #254, #20 ) ;
#289 = DIRECTION ( 'NONE',  ( 1.000000000000000000, 0.0000000000000000000, 0.0000000000000000000 ) ) ;
#290 = FACE_OUTER_BOUND ( 'NONE', #101, .T. ) ;
#291 = EDGE_CURVE ( 'NONE', #164, #230, #46, .T. ) ;
#292 =( LENGTH_UNIT ( ) NAMED_UNIT ( * ) SI_UNIT ( .MILLI., .METRE. ) );
#293 = EDGE_CURVE ( 'NONE', #278, #128, #112, .T. ) ;
#294 = ORIENTED_EDGE ( 'NONE', *, *, #280, .T. ) ;
#295 = ORIENTED_EDGE ( 'NONE', *, *, #81, .T. ) ;
ENDSEC;
END-ISO-10303-21;
