ISO-10303-21;
HEADER;
FILE_DESCRIPTION (( 'STEP AP203' ),
    '1' );
FILE_NAME ('111-0440E BK7 bi-cx 38.1 F700.STEP',
    '2019-01-10T13:36:53',
    ( '' ),
    ( '' ),
    'SwSTEP 2.0',
    'SolidWorks 2017',
    '' );
FILE_SCHEMA (( 'CONFIG_CONTROL_DESIGN' ));
ENDSEC;

DATA;
#1 = CARTESIAN_POINT ( 'NONE',  ( -12.77296994992854500, -19.27854648348890300, 4.659404210412235500 ) ) ;
#2 = APPROVAL_STATUS ( 'not_yet_approved' ) ;
#3 = CARTESIAN_POINT ( 'NONE',  ( 0.0000000000000000000, 0.0000000000000000000, 0.0000000000000000000 ) ) ;
#4 = APPROVAL_DATE_TIME ( #122, #29 ) ;
#5 = AXIS2_PLACEMENT_3D ( 'NONE', #49, #96, #287 ) ;
#6 = PERSON_AND_ORGANIZATION_ROLE ( 'design_supplier' ) ;
#7 = VERTEX_POINT ( 'NONE', #117 ) ;
#8 = ORIENTED_EDGE ( 'NONE', *, *, #40, .F. ) ;
#9 = VERTEX_POINT ( 'NONE', #283 ) ;
#10 = CARTESIAN_POINT ( 'NONE',  ( 5.620504062164855000E-013, -19.27854648348889600, 4.743777223168375000 ) ) ;
#11 = PRODUCT_DEFINITION_FORMATION_WITH_SPECIFIED_SOURCE ( 'ANY', '', #95, .NOT_KNOWN. ) ;
#12 = VERTEX_POINT ( 'NONE', #74 ) ;
#13 = DIRECTION ( 'NONE',  ( 1.000000000000000000, 0.0000000000000000000, 0.0000000000000000000 ) ) ;
#14 = CARTESIAN_POINT ( 'NONE',  ( 19.04999999999999700, -8.881784197001250400E-016, 0.2501827208394020200 ) ) ;
#15 = CARTESIAN_POINT ( 'NONE',  ( 19.15750435457502100, 19.27854648348891000, 0.5093270896718014000 ) ) ;
#16 = CARTESIAN_POINT ( 'NONE',  ( 6.386763641763118400, 19.27854648348882100, 4.743777223168368800 ) ) ;
#17 = APPROVAL ( #38, 'UNSPECIFIED' ) ;
#18 = CARTESIAN_POINT ( 'NONE',  ( -19.16653038619445200, 6.427695737167380400, 0.1677958540285782500 ) ) ;
#19 = CARTESIAN_POINT ( 'NONE',  ( -19.15750435457504300, -19.27854648348890300, 4.490672910328203000 ) ) ;
#20 = DIRECTION ( 'NONE',  ( 1.000000000000000000, 0.0000000000000000000, 0.0000000000000000000 ) ) ;
#21 = CARTESIAN_POINT ( 'NONE',  ( 3.811168361877727100E-013, -6.427695737167407100, 5.085427708557635800 ) ) ;
#22 = COORDINATED_UNIVERSAL_TIME_OFFSET ( 2, 0, .AHEAD. ) ;
#23 = ORIENTED_EDGE ( 'NONE', *, *, #227, .F. ) ;
#24 = PERSON_AND_ORGANIZATION_ROLE ( 'creator' ) ;
#25 = CARTESIAN_POINT ( 'NONE',  ( 3.849602522548174100E-013, -19.05000000000055100, 4.749817279160587300 ) ) ;
#26 = DATE_AND_TIME ( #247, #118 ) ;
#27 = FACE_OUTER_BOUND ( 'NONE', #251, .T. ) ;
#28 = EDGE_LOOP ( 'NONE', ( #232, #62, #230, #160, #111, #145 ) ) ;
#29 = APPROVAL ( #2, 'UNSPECIFIED' ) ;
#30 = CARTESIAN_POINT ( 'NONE',  ( -3.850298653375522100E-013, -19.27854648348895600, 0.2562227768316827100 ) ) ;
#31 = COORDINATED_UNIVERSAL_TIME_OFFSET ( 2, 0, .AHEAD. ) ;
#32 = CARTESIAN_POINT ( 'NONE',  ( 19.15750435457500700, -19.27854648348895900, 0.5093270896718014000 ) ) ;
#33 = CARTESIAN_POINT ( 'NONE',  ( -19.15750435457538000, 19.27854648348892400, 0.5093270896717738700 ) ) ;
#34 = PERSON_AND_ORGANIZATION ( #141, #165 ) ;
#35 = CIRCLE ( 'NONE', #162, 19.05000000000000100 ) ;
#36 = ADVANCED_FACE ( 'NONE', ( #81 ), #268, .T. ) ;
#37 = CIRCLE ( 'NONE', #153, 19.05000000000000100 ) ;
#38 = APPROVAL_STATUS ( 'not_yet_approved' ) ;
#39 = CC_DESIGN_APPROVAL ( #29, ( #11 ) ) ;
#40 = EDGE_CURVE ( 'NONE', #161, #189, #37, .T. ) ;
#41 = CARTESIAN_POINT ( 'NONE',  ( -4.662936703425659800E-015, -8.881784197001250400E-016, 4.749817279160599700 ) ) ;
#42 =( BOUNDED_SURFACE ( )  B_SPLINE_SURFACE ( 3, 3, ( 
 ( #199, #99, #53, #78 ),
 ( #51, #269, #121, #252 ),
 ( #18, #148, #174, #195 ),
 ( #33, #200, #55, #228 ) ),
 .UNSPECIFIED., .F., .F., .F. ) 
 B_SPLINE_SURFACE_WITH_KNOTS ( ( 4, 4 ),
 ( 4, 4 ),
 ( 0.0000000000000000000, 1.000000000000000000 ),
 ( 0.0000000000000000000, 1.000000000000000000 ),
 .UNSPECIFIED. ) 
 GEOMETRIC_REPRESENTATION_ITEM ( )  RATIONAL_B_SPLINE_SURFACE ( (
 ( 1.000000000000000000, 0.9999418240987280000, 0.9999418240987280000, 1.000000000000000000),
 ( 0.9997645227673634900, 0.9997063605651916900, 0.9997063605651916900, 0.9997645227673634900),
 ( 0.9997645227673634900, 0.9997063605651916900, 0.9997063605651916900, 0.9997645227673634900),
 ( 1.000000000000000000, 0.9999418240987280000, 0.9999418240987280000, 1.000000000000000000) ) ) 
 REPRESENTATION_ITEM ( '' )  SURFACE ( )  );
#43 = LINE ( 'NONE', #14, #134 ) ;
#44 = ORIENTED_EDGE ( 'NONE', *, *, #46, .F. ) ;
#45 = CC_DESIGN_PERSON_AND_ORGANIZATION_ASSIGNMENT ( #273, #158, ( #224 ) ) ;
#46 = EDGE_CURVE ( 'NONE', #189, #244, #255, .T. ) ;
#47 = CARTESIAN_POINT ( 'NONE',  ( 19.16653038619445900, -6.427695737167399900, 4.832204145971422400 ) ) ;
#48 = CIRCLE ( 'NONE', #281, 725.4000000000000900 ) ;
#49 = CARTESIAN_POINT ( 'NONE',  ( -5.684341886080800200E-014, -5.684341886080800200E-014, -720.4000000000000900 ) ) ;
#50 = PRODUCT_DEFINITION_SHAPE ( 'NONE', 'NONE',  #253 ) ;
#51 = CARTESIAN_POINT ( 'NONE',  ( -19.16653038619445900, -6.427695737167405300, 0.1677958540285795500 ) ) ;
#52 = APPROVAL_PERSON_ORGANIZATION ( #87, #208, #159 ) ;
#53 = CARTESIAN_POINT ( 'NONE',  ( -6.386763641763132600, -19.27854648348895200, 0.2562227768316345200 ) ) ;
#54 = ORIENTED_EDGE ( 'NONE', *, *, #245, .F. ) ;
#55 = CARTESIAN_POINT ( 'NONE',  ( -6.386763641763118400, 19.27854648348892400, 0.2562227768316343600 ) ) ;
#56 = EDGE_CURVE ( 'NONE', #9, #7, #103, .T. ) ;
#57 = EDGE_LOOP ( 'NONE', ( #178, #198, #114 ) ) ;
#58 = CARTESIAN_POINT ( 'NONE',  ( -19.05000000000000400, 1.444773732675583000E-015, 0.2501827208394020200 ) ) ;
#59 = ADVANCED_BREP_SHAPE_REPRESENTATION ( '111-0440E BK7 bi-cx 38.1 F700', ( #220, #285 ), #68 ) ;
#60 = DESIGN_CONTEXT ( 'detailed design', #157, 'design' ) ;
#61 = EDGE_CURVE ( 'NONE', #12, #9, #48, .T. ) ;
#62 = ORIENTED_EDGE ( 'NONE', *, *, #196, .F. ) ;
#63 = APPROVAL_ROLE ( '' ) ;
#64 = ADVANCED_FACE ( 'NONE', ( #97 ), #90, .T. ) ;
#65 = DIRECTION ( 'NONE',  ( 1.000000000000000000, 0.0000000000000000000, 0.0000000000000000000 ) ) ;
#66 = DIRECTION ( 'NONE',  ( 0.0000000000000000000, 0.0000000000000000000, 1.000000000000000000 ) ) ;
#67 = DATE_TIME_ROLE ( 'creation_date' ) ;
#68 =( GEOMETRIC_REPRESENTATION_CONTEXT ( 3 ) GLOBAL_UNCERTAINTY_ASSIGNED_CONTEXT ( ( #291 ) ) GLOBAL_UNIT_ASSIGNED_CONTEXT ( ( #185, #236, #105 ) ) REPRESENTATION_CONTEXT ( 'NONE', 'WORKASPACE' ) );
#69 = EDGE_CURVE ( 'NONE', #244, #161, #211, .T. ) ;
#70 = CALENDAR_DATE ( 2019, 10, 1 ) ;
#71 = AXIS2_PLACEMENT_3D ( 'NONE', #213, #135, #65 ) ;
#72 = CARTESIAN_POINT ( 'NONE',  ( 6.389772756599130700, -6.427695737167404400, 5.085427708557682000 ) ) ;
#73 = AXIS2_PLACEMENT_3D ( 'NONE', #234, #256, #275 ) ;
#74 = CARTESIAN_POINT ( 'NONE',  ( -3.849602522548175100E-013, -19.05000000000054800, 0.2501827208394166700 ) ) ;
#75 = ORIENTED_EDGE ( 'NONE', *, *, #129, .F. ) ;
#76 =( BOUNDED_SURFACE ( )  B_SPLINE_SURFACE ( 3, 3, ( 
 ( #235, #128, #1, #19 ),
 ( #21, #155, #293, #152 ),
 ( #180, #272, #150, #80 ),
 ( #175, #254, #292, #86 ) ),
 .UNSPECIFIED., .F., .F., .F. ) 
 B_SPLINE_SURFACE_WITH_KNOTS ( ( 4, 4 ),
 ( 4, 4 ),
 ( 0.0000000000000000000, 1.000000000000000000 ),
 ( 0.0000000000000000000, 1.000000000000000000 ),
 .UNSPECIFIED. ) 
 GEOMETRIC_REPRESENTATION_ITEM ( )  RATIONAL_B_SPLINE_SURFACE ( (
 ( 1.000000000000000000, 0.9999418240987280000, 0.9999418240987280000, 1.000000000000000000),
 ( 0.9997645227673634900, 0.9997063605651916900, 0.9997063605651916900, 0.9997645227673634900),
 ( 0.9997645227673634900, 0.9997063605651916900, 0.9997063605651916900, 0.9997645227673634900),
 ( 1.000000000000000000, 0.9999418240987280000, 0.9999418240987280000, 1.000000000000000000) ) ) 
 REPRESENTATION_ITEM ( '' )  SURFACE ( )  );
#77 = CARTESIAN_POINT ( 'NONE',  ( -3.726734913000464400E-013, 19.27854648348891700, 0.2562227768316827100 ) ) ;
#78 = CARTESIAN_POINT ( 'NONE',  ( -5.620504062164855000E-013, -19.27854648348895600, 0.2562227768316290800 ) ) ;
#79 = DATE_AND_TIME ( #70, #237 ) ;
#80 = CARTESIAN_POINT ( 'NONE',  ( -19.16653038619411800, 6.427695737167320900, 4.832204145971394900 ) ) ;
#81 = FACE_OUTER_BOUND ( 'NONE', #28, .T. ) ;
#82 = DIRECTION ( 'NONE',  ( -0.0000000000000000000, -0.0000000000000000000, -1.000000000000000000 ) ) ;
#83 = DIRECTION ( 'NONE',  ( -0.0000000000000000000, -0.0000000000000000000, -1.000000000000000000 ) ) ;
#84 = CC_DESIGN_PERSON_AND_ORGANIZATION_ASSIGNMENT ( #216, #277, ( #95 ) ) ;
#85 = ADVANCED_FACE ( 'NONE', ( #101 ), #233, .T. ) ;
#86 = CARTESIAN_POINT ( 'NONE',  ( -19.15750435457505700, 19.27854648348881000, 4.490672910328203000 ) ) ;
#87 = PERSON_AND_ORGANIZATION ( #141, #165 ) ;
#88 = DIRECTION ( 'NONE',  ( 1.000000000000000000, 0.0000000000000000000, 0.0000000000000000000 ) ) ;
#89 = ORIENTED_EDGE ( 'NONE', *, *, #166, .T. ) ;
#90 =( BOUNDED_SURFACE ( )  B_SPLINE_SURFACE ( 3, 3, ( 
 ( #116, #191, #138, #10 ),
 ( #47, #215, #72, #246 ),
 ( #93, #265, #249, #123 ),
 ( #271, #98, #16, #197 ) ),
 .UNSPECIFIED., .F., .F., .F. ) 
 B_SPLINE_SURFACE_WITH_KNOTS ( ( 4, 4 ),
 ( 4, 4 ),
 ( 0.0000000000000000000, 1.000000000000000000 ),
 ( 0.0000000000000000000, 1.000000000000000000 ),
 .UNSPECIFIED. ) 
 GEOMETRIC_REPRESENTATION_ITEM ( )  RATIONAL_B_SPLINE_SURFACE ( (
 ( 1.000000000000000000, 0.9999418240987280000, 0.9999418240987280000, 1.000000000000000000),
 ( 0.9997645227673634900, 0.9997063605651916900, 0.9997063605651916900, 0.9997645227673634900),
 ( 0.9997645227673634900, 0.9997063605651916900, 0.9997063605651916900, 0.9997645227673634900),
 ( 1.000000000000000000, 0.9999418240987280000, 0.9999418240987280000, 1.000000000000000000) ) ) 
 REPRESENTATION_ITEM ( '' )  SURFACE ( )  );
#91 = DIRECTION ( 'NONE',  ( -3.204695449443850000E-016, -1.000000000000000000, 0.0000000000000000000 ) ) ;
#92 = COORDINATED_UNIVERSAL_TIME_OFFSET ( 2, 0, .AHEAD. ) ;
#93 = CARTESIAN_POINT ( 'NONE',  ( 19.16653038619445200, 6.427695737167334200, 4.832204145971423300 ) ) ;
#94 = ORIENTED_EDGE ( 'NONE', *, *, #56, .F. ) ;
#95 = PRODUCT ( '111-0440E BK7 bi-cx 38.1 F700', '111-0440E BK7 bi-cx 38.1 F700', '', ( #260 ) ) ;
#96 = DIRECTION ( 'NONE',  ( -1.000000000000000000, -3.204695449443840200E-016, 6.008396001797570300E-016 ) ) ;
#97 = FACE_OUTER_BOUND ( 'NONE', #222, .T. ) ;
#98 = CARTESIAN_POINT ( 'NONE',  ( 12.77296994992908600, 19.27854648348882100, 4.659404210412262200 ) ) ;
#99 = CARTESIAN_POINT ( 'NONE',  ( -12.77296994992909900, -19.27854648348895200, 0.3405957895877422300 ) ) ;
#100 = CARTESIAN_POINT ( 'NONE',  ( 6.386763641762374100, -19.27854648348895900, 0.2562227768316788200 ) ) ;
#101 = FACE_OUTER_BOUND ( 'NONE', #57, .T. ) ;
#102 = EDGE_CURVE ( 'NONE', #7, #189, #43, .T. ) ;
#103 = CIRCLE ( 'NONE', #242, 19.05000000000000100 ) ;
#104 = DIRECTION ( 'NONE',  ( 0.0000000000000000000, 0.0000000000000000000, 1.000000000000000000 ) ) ;
#105 =( NAMED_UNIT ( * ) SI_UNIT ( $, .STERADIAN. ) SOLID_ANGLE_UNIT ( ) );
#106 = LOCAL_TIME ( 15, 36, 53.00000000000000000, #288 ) ;
#107 = PERSON_AND_ORGANIZATION_ROLE ( 'creator' ) ;
#108 = APPLICATION_PROTOCOL_DEFINITION ( 'international standard', 'config_control_design', 1994, #157 ) ;
#109 = LOCAL_TIME ( 15, 36, 53.00000000000000000, #168 ) ;
#110 = CC_DESIGN_SECURITY_CLASSIFICATION ( #224, ( #11 ) ) ;
#111 = ORIENTED_EDGE ( 'NONE', *, *, #46, .T. ) ;
#112 = CARTESIAN_POINT ( 'NONE',  ( -4.662936703425659800E-015, -8.881784197001250400E-016, 0.2501827208394020200 ) ) ;
#113 = PERSON_AND_ORGANIZATION ( #141, #165 ) ;
#114 = ORIENTED_EDGE ( 'NONE', *, *, #56, .T. ) ;
#115 = AXIS2_PLACEMENT_3D ( 'NONE', #238, #104, #209 ) ;
#116 = CARTESIAN_POINT ( 'NONE',  ( 19.15750435457539400, -19.27854648348888800, 4.490672910328230600 ) ) ;
#117 = CARTESIAN_POINT ( 'NONE',  ( 19.04999999999999700, -8.881784197001250400E-016, 0.2501827208394020200 ) ) ;
#118 = LOCAL_TIME ( 15, 36, 53.00000000000000000, #31 ) ;
#119 = FACE_OUTER_BOUND ( 'NONE', #263, .T. ) ;
#120 = CARTESIAN_POINT ( 'NONE',  ( 12.77898791701357300, -6.427695737167416800, -0.001014943573551514800 ) ) ;
#121 = CARTESIAN_POINT ( 'NONE',  ( -6.389772756599130700, -6.427695737167409700, -0.08542770855768200300 ) ) ;
#122 = DATE_AND_TIME ( #203, #109 ) ;
#123 = CARTESIAN_POINT ( 'NONE',  ( 5.551115123125782700E-013, 6.427695737167328000, 5.085427708557689100 ) ) ;
#124 = CLOSED_SHELL ( 'NONE', ( #85, #202, #231, #127, #36, #64 ) ) ;
#125 = CARTESIAN_POINT ( 'NONE',  ( 6.389772756598382000, 6.427695737167372400, -0.08542770855763892600 ) ) ;
#126 = DIRECTION ( 'NONE',  ( 0.0000000000000000000, 0.0000000000000000000, 1.000000000000000000 ) ) ;
#127 = ADVANCED_FACE ( 'NONE', ( #282 ), #42, .T. ) ;
#128 = CARTESIAN_POINT ( 'NONE',  ( -6.386763641762385600, -19.27854648348890300, 4.743777223168324400 ) ) ;
#129 = EDGE_CURVE ( 'NONE', #244, #295, #266, .T. ) ;
#130 = CARTESIAN_POINT ( 'NONE',  ( -19.05000000000000400, 1.444773732675583000E-015, 4.749817279160599700 ) ) ;
#131 = CC_DESIGN_DATE_AND_TIME_ASSIGNMENT ( #79, #163, ( #224 ) ) ;
#132 = SECURITY_CLASSIFICATION_LEVEL ( 'unclassified' ) ;
#133 = CALENDAR_DATE ( 2019, 10, 1 ) ;
#134 = VECTOR ( 'NONE', #250, 1000.000000000000000 ) ;
#135 = DIRECTION ( 'NONE',  ( -0.0000000000000000000, -0.0000000000000000000, -1.000000000000000000 ) ) ;
#136 = ORIENTED_EDGE ( 'NONE', *, *, #227, .T. ) ;
#137 = DIRECTION ( 'NONE',  ( -0.0000000000000000000, -0.0000000000000000000, -1.000000000000000000 ) ) ;
#138 = CARTESIAN_POINT ( 'NONE',  ( 6.386763641763132600, -19.27854648348889600, 4.743777223168368800 ) ) ;
#139 = PERSON_AND_ORGANIZATION ( #141, #165 ) ;
#140 = ORIENTED_EDGE ( 'NONE', *, *, #69, .T. ) ;
#141 = PERSON ( 'UNSPECIFIED', 'UNSPECIFIED', 'UNSPECIFIED', ('UNSPECIFIED'), ('UNSPECIFIED'), ('UNSPECIFIED') ) ;
#142 = DIRECTION ( 'NONE',  ( -0.0000000000000000000, -0.0000000000000000000, -1.000000000000000000 ) ) ;
#143 = CARTESIAN_POINT ( 'NONE',  ( 19.16653038619407900, -6.427695737167417700, 0.1677958540286071900 ) ) ;
#144 = AXIS2_PLACEMENT_3D ( 'NONE', #221, #142, #13 ) ;
#145 = ORIENTED_EDGE ( 'NONE', *, *, #129, .T. ) ;
#146 = CARTESIAN_POINT ( 'NONE',  ( 3.727503625924360300E-013, 19.05000000000049500, 4.749817279160587300 ) ) ;
#147 = CARTESIAN_POINT ( 'NONE',  ( 6.386763641762386500, 19.27854648348891700, 0.2562227768316788200 ) ) ;
#148 = CARTESIAN_POINT ( 'NONE',  ( -12.77898791701413600, 6.427695737167379500, -0.001014943573579757800 ) ) ;
#149 = CALENDAR_DATE ( 2019, 10, 1 ) ;
#150 = CARTESIAN_POINT ( 'NONE',  ( -12.77898791701360400, 6.427695737167322700, 5.001014943573553100 ) ) ;
#151 = PERSON_AND_ORGANIZATION ( #141, #165 ) ;
#152 = CARTESIAN_POINT ( 'NONE',  ( -19.16653038619411100, -6.427695737167412400, 4.832204145971394000 ) ) ;
#153 = AXIS2_PLACEMENT_3D ( 'NONE', #167, #217, #267 ) ;
#154 = CYLINDRICAL_SURFACE ( 'NONE', #115, 19.05000000000000100 ) ;
#155 = CARTESIAN_POINT ( 'NONE',  ( -6.389772756598389900, -6.427695737167408800, 5.085427708557637600 ) ) ;
#156 = APPROVAL_ROLE ( '' ) ;
#157 = APPLICATION_CONTEXT ( 'configuration controlled 3d designs of mechanical parts and assemblies' ) ;
#158 = PERSON_AND_ORGANIZATION_ROLE ( 'classification_officer' ) ;
#159 = APPROVAL_ROLE ( '' ) ;
#160 = ORIENTED_EDGE ( 'NONE', *, *, #102, .T. ) ;
#161 = VERTEX_POINT ( 'NONE', #146 ) ;
#162 = AXIS2_PLACEMENT_3D ( 'NONE', #179, #82, #20 ) ;
#163 = DATE_TIME_ROLE ( 'classification_date' ) ;
#164 = DIRECTION ( 'NONE',  ( 1.000000000000000000, -8.881784197001252300E-016, 0.0000000000000000000 ) ) ;
#165 = ORGANIZATION ( 'UNSPECIFIED', 'UNSPECIFIED', '' ) ;
#166 = EDGE_CURVE ( 'NONE', #207, #295, #192, .T. ) ;
#167 = CARTESIAN_POINT ( 'NONE',  ( -4.662936703425659800E-015, -8.881784197001250400E-016, 4.749817279160599700 ) ) ;
#168 = COORDINATED_UNIVERSAL_TIME_OFFSET ( 2, 0, .AHEAD. ) ;
#169 = CARTESIAN_POINT ( 'NONE',  ( -3.769970747319107700E-013, 6.427695737167373300, -0.08542770855763511000 ) ) ;
#170 = ORIENTED_EDGE ( 'NONE', *, *, #245, .T. ) ;
#171 = CC_DESIGN_PERSON_AND_ORGANIZATION_ASSIGNMENT ( #139, #107, ( #253 ) ) ;
#172 = CARTESIAN_POINT ( 'NONE',  ( 12.77296994992852100, -19.27854648348895900, 0.3405957895877690900 ) ) ;
#173 = LOCAL_TIME ( 15, 36, 53.00000000000000000, #92 ) ;
#174 = CARTESIAN_POINT ( 'NONE',  ( -6.389772756599123600, 6.427695737167376900, -0.08542770855768334900 ) ) ;
#175 = CARTESIAN_POINT ( 'NONE',  ( 3.726734913000464400E-013, 19.27854648348881400, 4.743777223168321700 ) ) ;
#176 = PERSON_AND_ORGANIZATION ( #141, #165 ) ;
#177 = ORIENTED_EDGE ( 'NONE', *, *, #40, .T. ) ;
#178 = ORIENTED_EDGE ( 'NONE', *, *, #204, .T. ) ;
#179 = CARTESIAN_POINT ( 'NONE',  ( -4.662936703425659800E-015, -8.881784197001250400E-016, 0.2501827208394020200 ) ) ;
#180 = CARTESIAN_POINT ( 'NONE',  ( 3.769970747319107200E-013, 6.427695737167327100, 5.085427708557636700 ) ) ;
#181 = ORIENTED_EDGE ( 'NONE', *, *, #102, .F. ) ;
#182 = CARTESIAN_POINT ( 'NONE',  ( -4.662936703425659800E-015, -8.881784197001250400E-016, 0.2501827208394020200 ) ) ;
#183 = CC_DESIGN_PERSON_AND_ORGANIZATION_ASSIGNMENT ( #176, #6, ( #11 ) ) ;
#184 = DIRECTION ( 'NONE',  ( 1.000000000000000000, 0.0000000000000000000, 0.0000000000000000000 ) ) ;
#185 =( LENGTH_UNIT ( ) NAMED_UNIT ( * ) SI_UNIT ( .MILLI., .METRE. ) );
#186 = VECTOR ( 'NONE', #126, 1000.000000000000000 ) ;
#187 = CC_DESIGN_PERSON_AND_ORGANIZATION_ASSIGNMENT ( #113, #24, ( #11 ) ) ;
#188 = DATE_AND_TIME ( #133, #173 ) ;
#189 = VERTEX_POINT ( 'NONE', #201 ) ;
#190 = CARTESIAN_POINT ( 'NONE',  ( 5.684341886080800200E-014, -5.684341886080800200E-014, 725.4000000000000900 ) ) ;
#191 = CARTESIAN_POINT ( 'NONE',  ( 12.77296994992909900, -19.27854648348889600, 4.659404210412262200 ) ) ;
#192 = LINE ( 'NONE', #58, #186 ) ;
#193 = CARTESIAN_POINT ( 'NONE',  ( -4.662936703425659800E-015, -8.881784197001250400E-016, 0.2501827208394020200 ) ) ;
#194 = CARTESIAN_POINT ( 'NONE',  ( 12.77296994992853600, 19.27854648348891700, 0.3405957895877690900 ) ) ;
#195 = CARTESIAN_POINT ( 'NONE',  ( -5.551115123125782700E-013, 6.427695737167374200, -0.08542770855768877500 ) ) ;
#196 = EDGE_CURVE ( 'NONE', #12, #207, #35, .T. ) ;
#197 = CARTESIAN_POINT ( 'NONE',  ( 5.481726184086710400E-013, 19.27854648348881400, 4.743777223168375000 ) ) ;
#198 = ORIENTED_EDGE ( 'NONE', *, *, #61, .T. ) ;
#199 = CARTESIAN_POINT ( 'NONE',  ( -19.15750435457539400, -19.27854648348894900, 0.5093270896717738700 ) ) ;
#200 = CARTESIAN_POINT ( 'NONE',  ( -12.77296994992908600, 19.27854648348892400, 0.3405957895877422800 ) ) ;
#201 = CARTESIAN_POINT ( 'NONE',  ( 19.04999999999999700, -8.881784197001250400E-016, 4.749817279160599700 ) ) ;
#202 = ADVANCED_FACE ( 'NONE', ( #119 ), #76, .T. ) ;
#203 = CALENDAR_DATE ( 2019, 10, 1 ) ;
#204 = EDGE_CURVE ( 'NONE', #7, #12, #284, .T. ) ;
#205 = ORIENTED_EDGE ( 'NONE', *, *, #61, .F. ) ;
#206 = CIRCLE ( 'NONE', #290, 19.05000000000000100 ) ;
#207 = VERTEX_POINT ( 'NONE', #276 ) ;
#208 = APPROVAL ( #262, 'UNSPECIFIED' ) ;
#209 = DIRECTION ( 'NONE',  ( 1.000000000000000000, 0.0000000000000000000, 0.0000000000000000000 ) ) ;
#210 = APPROVAL_PERSON_ORGANIZATION ( #151, #17, #63 ) ;
#211 = CIRCLE ( 'NONE', #5, 725.4000000000000900 ) ;
#212 = DIRECTION ( 'NONE',  ( 1.000000000000000000, 0.0000000000000000000, 0.0000000000000000000 ) ) ;
#213 = CARTESIAN_POINT ( 'NONE',  ( -4.662936703425659800E-015, -8.881784197001250400E-016, 0.2501827208394020200 ) ) ;
#214 = DIRECTION ( 'NONE',  ( 0.0000000000000000000, 0.0000000000000000000, 1.000000000000000000 ) ) ;
#215 = CARTESIAN_POINT ( 'NONE',  ( 12.77898791701414400, -6.427695737167401700, 5.001014943573578900 ) ) ;
#216 = PERSON_AND_ORGANIZATION ( #141, #165 ) ;
#217 = DIRECTION ( 'NONE',  ( -0.0000000000000000000, -0.0000000000000000000, -1.000000000000000000 ) ) ;
#218 = AXIS2_PLACEMENT_3D ( 'NONE', #193, #214, #219 ) ;
#219 = DIRECTION ( 'NONE',  ( 1.000000000000000000, 0.0000000000000000000, 0.0000000000000000000 ) ) ;
#220 = MANIFOLD_SOLID_BREP ( 'Imported1', #124 ) ;
#221 = CARTESIAN_POINT ( 'NONE',  ( -4.662936703425659800E-015, -8.881784197001250400E-016, 4.749817279160599700 ) ) ;
#222 = EDGE_LOOP ( 'NONE', ( #289, #44, #8 ) ) ;
#223 = CARTESIAN_POINT ( 'NONE',  ( 6.389772756598378400, -6.427695737167414200, -0.08542770855763762200 ) ) ;
#224 = SECURITY_CLASSIFICATION ( '', '', #132 ) ;
#225 = CARTESIAN_POINT ( 'NONE',  ( -3.811168361877728100E-013, -6.427695737167411500, -0.08542770855763380500 ) ) ;
#226 = CARTESIAN_POINT ( 'NONE',  ( 12.77898791701358000, 6.427695737167369700, -0.001014943573552843200 ) ) ;
#227 = EDGE_CURVE ( 'NONE', #295, #161, #279, .T. ) ;
#228 = CARTESIAN_POINT ( 'NONE',  ( -5.481726184086710400E-013, 19.27854648348891700, 0.2562227768316289700 ) ) ;
#229 = AXIS2_PLACEMENT_3D ( 'NONE', #41, #83, #212 ) ;
#230 = ORIENTED_EDGE ( 'NONE', *, *, #204, .F. ) ;
#231 = ADVANCED_FACE ( 'NONE', ( #27 ), #154, .T. ) ;
#232 = ORIENTED_EDGE ( 'NONE', *, *, #166, .F. ) ;
#233 =( BOUNDED_SURFACE ( )  B_SPLINE_SURFACE ( 3, 3, ( 
 ( #30, #100, #172, #32 ),
 ( #225, #223, #120, #143 ),
 ( #169, #125, #226, #286 ),
 ( #77, #147, #194, #15 ) ),
 .UNSPECIFIED., .F., .F., .F. ) 
 B_SPLINE_SURFACE_WITH_KNOTS ( ( 4, 4 ),
 ( 4, 4 ),
 ( 0.0000000000000000000, 1.000000000000000000 ),
 ( 0.0000000000000000000, 1.000000000000000000 ),
 .UNSPECIFIED. ) 
 GEOMETRIC_REPRESENTATION_ITEM ( )  RATIONAL_B_SPLINE_SURFACE ( (
 ( 1.000000000000000000, 0.9999418240987280000, 0.9999418240987280000, 1.000000000000000000),
 ( 0.9997645227673634900, 0.9997063605651916900, 0.9997063605651916900, 0.9997645227673634900),
 ( 0.9997645227673634900, 0.9997063605651916900, 0.9997063605651916900, 0.9997645227673634900),
 ( 1.000000000000000000, 0.9999418240987280000, 0.9999418240987280000, 1.000000000000000000) ) ) 
 REPRESENTATION_ITEM ( '' )  SURFACE ( )  );
#234 = CARTESIAN_POINT ( 'NONE',  ( -4.662936703425659800E-015, -8.881784197001250400E-016, 4.749817279160599700 ) ) ;
#235 = CARTESIAN_POINT ( 'NONE',  ( 3.850298653375521100E-013, -19.27854648348889600, 4.743777223168321700 ) ) ;
#236 =( NAMED_UNIT ( * ) PLANE_ANGLE_UNIT ( ) SI_UNIT ( $, .RADIAN. ) );
#237 = LOCAL_TIME ( 15, 36, 53.00000000000000000, #22 ) ;
#238 = CARTESIAN_POINT ( 'NONE',  ( -4.662936703425659800E-015, -8.881784197001250400E-016, 0.2501827208394020200 ) ) ;
#239 = APPLICATION_CONTEXT ( 'configuration controlled 3d designs of mechanical parts and assemblies' ) ;
#240 = CC_DESIGN_DATE_AND_TIME_ASSIGNMENT ( #257, #67, ( #253 ) ) ;
#241 = APPROVAL_DATE_TIME ( #188, #17 ) ;
#242 = AXIS2_PLACEMENT_3D ( 'NONE', #112, #137, #164 ) ;
#243 = PRODUCT_RELATED_PRODUCT_CATEGORY ( 'detail', '', ( #95 ) ) ;
#244 = VERTEX_POINT ( 'NONE', #25 ) ;
#245 = EDGE_CURVE ( 'NONE', #207, #9, #206, .T. ) ;
#246 = CARTESIAN_POINT ( 'NONE',  ( 5.620504062164855000E-013, -6.427695737167406200, 5.085427708557688200 ) ) ;
#247 = CALENDAR_DATE ( 2019, 10, 1 ) ;
#248 = ORIENTED_EDGE ( 'NONE', *, *, #196, .T. ) ;
#249 = CARTESIAN_POINT ( 'NONE',  ( 6.389772756599123600, 6.427695737167329800, 5.085427708557682900 ) ) ;
#250 = DIRECTION ( 'NONE',  ( 0.0000000000000000000, 0.0000000000000000000, 1.000000000000000000 ) ) ;
#251 = EDGE_LOOP ( 'NONE', ( #54, #89, #136, #177, #181, #94 ) ) ;
#252 = CARTESIAN_POINT ( 'NONE',  ( -5.620504062164855000E-013, -6.427695737167410600, -0.08542770855768747100 ) ) ;
#253 = PRODUCT_DEFINITION ( 'UNKNOWN', '', #11, #60 ) ;
#254 = CARTESIAN_POINT ( 'NONE',  ( -6.386763641762398100, 19.27854648348881400, 4.743777223168324400 ) ) ;
#255 = CIRCLE ( 'NONE', #144, 19.05000000000000100 ) ;
#256 = DIRECTION ( 'NONE',  ( -0.0000000000000000000, -0.0000000000000000000, -1.000000000000000000 ) ) ;
#257 = DATE_AND_TIME ( #149, #106 ) ;
#258 = APPLICATION_PROTOCOL_DEFINITION ( 'international standard', 'config_control_design', 1994, #239 ) ;
#259 = DIRECTION ( 'NONE',  ( -0.0000000000000000000, -0.0000000000000000000, -1.000000000000000000 ) ) ;
#260 = MECHANICAL_CONTEXT ( 'NONE', #239, 'mechanical' ) ;
#261 = EDGE_LOOP ( 'NONE', ( #205, #248, #170 ) ) ;
#262 = APPROVAL_STATUS ( 'not_yet_approved' ) ;
#263 = EDGE_LOOP ( 'NONE', ( #75, #140, #23 ) ) ;
#264 = CC_DESIGN_APPROVAL ( #17, ( #253 ) ) ;
#265 = CARTESIAN_POINT ( 'NONE',  ( 12.77898791701413600, 6.427695737167332400, 5.001014943573579800 ) ) ;
#266 = CIRCLE ( 'NONE', #73, 19.05000000000000100 ) ;
#267 = DIRECTION ( 'NONE',  ( 1.000000000000000000, -8.881784197001252300E-016, 0.0000000000000000000 ) ) ;
#268 = CYLINDRICAL_SURFACE ( 'NONE', #218, 19.05000000000000100 ) ;
#269 = CARTESIAN_POINT ( 'NONE',  ( -12.77898791701414400, -6.427695737167407100, -0.001014943573578483900 ) ) ;
#270 = CC_DESIGN_APPROVAL ( #208, ( #224 ) ) ;
#271 = CARTESIAN_POINT ( 'NONE',  ( 19.15750435457538000, 19.27854648348882100, 4.490672910328230600 ) ) ;
#272 = CARTESIAN_POINT ( 'NONE',  ( -6.389772756598393500, 6.427695737167325300, 5.085427708557638500 ) ) ;
#273 = PERSON_AND_ORGANIZATION ( #141, #165 ) ;
#274 = SHAPE_DEFINITION_REPRESENTATION ( #50, #59 ) ;
#275 = DIRECTION ( 'NONE',  ( 1.000000000000000000, 0.0000000000000000000, 0.0000000000000000000 ) ) ;
#276 = CARTESIAN_POINT ( 'NONE',  ( -19.05000000000000400, 1.444773732675583000E-015, 0.2501827208394020200 ) ) ;
#277 = PERSON_AND_ORGANIZATION_ROLE ( 'design_owner' ) ;
#278 = APPROVAL_DATE_TIME ( #26, #208 ) ;
#279 = CIRCLE ( 'NONE', #229, 19.05000000000000100 ) ;
#280 = DIRECTION ( 'NONE',  ( 1.000000000000000000, -3.204695449443850000E-016, -6.008396001797570300E-016 ) ) ;
#281 = AXIS2_PLACEMENT_3D ( 'NONE', #190, #280, #91 ) ;
#282 = FACE_OUTER_BOUND ( 'NONE', #261, .T. ) ;
#283 = CARTESIAN_POINT ( 'NONE',  ( -3.727503625924360300E-013, 19.05000000000049500, 0.2501827208394166700 ) ) ;
#284 = CIRCLE ( 'NONE', #71, 19.05000000000000100 ) ;
#285 = AXIS2_PLACEMENT_3D ( 'NONE', #3, #66, #88 ) ;
#286 = CARTESIAN_POINT ( 'NONE',  ( 19.16653038619408600, 6.427695737167368000, 0.1677958540286058900 ) ) ;
#287 = DIRECTION ( 'NONE',  ( 3.204695449443841600E-016, -1.000000000000000000, 3.060995380824804200E-016 ) ) ;
#288 = COORDINATED_UNIVERSAL_TIME_OFFSET ( 2, 0, .AHEAD. ) ;
#289 = ORIENTED_EDGE ( 'NONE', *, *, #69, .F. ) ;
#290 = AXIS2_PLACEMENT_3D ( 'NONE', #182, #259, #184 ) ;
#291 = UNCERTAINTY_MEASURE_WITH_UNIT (LENGTH_MEASURE( 1.000000000000000100E-005 ), #185, 'distance_accuracy_value', 'NONE');
#292 = CARTESIAN_POINT ( 'NONE',  ( -12.77296994992855900, 19.27854648348881400, 4.659404210412235500 ) ) ;
#293 = CARTESIAN_POINT ( 'NONE',  ( -12.77898791701359600, -6.427695737167411500, 5.001014943573552300 ) ) ;
#294 = APPROVAL_PERSON_ORGANIZATION ( #34, #29, #156 ) ;
#295 = VERTEX_POINT ( 'NONE', #130 ) ;
ENDSEC;
END-ISO-10303-21;
