ISO-10303-21;
HEADER;
FILE_DESCRIPTION (( 'STEP AP203' ),
    '1' );
FILE_NAME ('111-0434E BK7 bi-cx 38.1 F500.STEP',
    '2019-01-10T12:32:41',
    ( '' ),
    ( '' ),
    'SwSTEP 2.0',
    'SolidWorks 2017',
    '' );
FILE_SCHEMA (( 'CONFIG_CONTROL_DESIGN' ));
ENDSEC;

DATA;
#1 = MANIFOLD_SOLID_BREP ( 'Imported1', #260 ) ;
#2 = CARTESIAN_POINT ( 'NONE',  ( 6.391383025744590700, 6.429135539814210700, -0.1197017019409458000 ) ) ;
#3 = CIRCLE ( 'NONE', #27, 19.05000000000000100 ) ;
#4 = VERTEX_POINT ( 'NONE', #35 ) ;
#5 = DIRECTION ( 'NONE',  ( -0.0000000000000000000, -0.0000000000000000000, -1.000000000000000000 ) ) ;
#6 = EDGE_CURVE ( 'NONE', #259, #4, #274, .T. ) ;
#7 = CARTESIAN_POINT ( 'NONE',  ( 3.850927601890969800E-031, 19.27849498144244200, 4.641060816676145800 ) ) ;
#8 = LINE ( 'NONE', #223, #239 ) ;
#9 = CC_DESIGN_PERSON_AND_ORGANIZATION_ASSIGNMENT ( #132, #257, ( #89 ) ) ;
#10 = VERTEX_POINT ( 'NONE', #174 ) ;
#11 = DIRECTION ( 'NONE',  ( 0.0000000000000000000, 0.0000000000000000000, 1.000000000000000000 ) ) ;
#12 = SECURITY_CLASSIFICATION_LEVEL ( 'unclassified' ) ;
#13 = COORDINATED_UNIVERSAL_TIME_OFFSET ( 2, 0, .AHEAD. ) ;
#14 = CARTESIAN_POINT ( 'NONE',  ( -1.249000902703301100E-013, 6.429135539814210700, -0.1197017019409175500 ) ) ;
#15 = CARTESIAN_POINT ( 'NONE',  ( 0.0000000000000000000, 0.0000000000000000000, 517.8999999999999800 ) ) ;
#16 = ORIENTED_EDGE ( 'NONE', *, *, #245, .T. ) ;
#17 = AXIS2_PLACEMENT_3D ( 'NONE', #63, #228, #38 ) ;
#18 = CARTESIAN_POINT ( 'NONE',  ( 6.391383025744750600, -6.429135539814175200, 5.119701701940920600 ) ) ;
#19 = CARTESIAN_POINT ( 'NONE',  ( 3.850058678119177800E-031, -19.27849498144240700, 0.3589391833238586600 ) ) ;
#20 = CALENDAR_DATE ( 2019, 10, 1 ) ;
#21 = ORIENTED_EDGE ( 'NONE', *, *, #95, .F. ) ;
#22 = AXIS2_PLACEMENT_3D ( 'NONE', #56, #237, #74 ) ;
#23 = CARTESIAN_POINT ( 'NONE',  ( 12.76986160060383200, 19.27849498144243900, 0.4771027593669068800 ) ) ;
#24 = FACE_OUTER_BOUND ( 'NONE', #133, .T. ) ;
#25 = ORIENTED_EDGE ( 'NONE', *, *, #6, .T. ) ;
#26 = ORIENTED_EDGE ( 'NONE', *, *, #206, .F. ) ;
#27 = AXIS2_PLACEMENT_3D ( 'NONE', #188, #5, #166 ) ;
#28 = DATE_AND_TIME ( #20, #210 ) ;
#29 = ORIENTED_EDGE ( 'NONE', *, *, #95, .T. ) ;
#30 = CARTESIAN_POINT ( 'NONE',  ( -12.76986160060376800, -19.27849498144240700, 4.522897240633095200 ) ) ;
#31 = PRODUCT ( '111-0434E BK7 bi-cx 38.1 F500', '111-0434E BK7 bi-cx 38.1 F500', '', ( #76 ) ) ;
#32 = CARTESIAN_POINT ( 'NONE',  ( -19.15096585781059000, 19.27849498144244200, 4.286610555574442000 ) ) ;
#33 = AXIS2_PLACEMENT_3D ( 'NONE', #113, #92, #136 ) ;
#34 = DIRECTION ( 'NONE',  ( 1.000000000000000000, 0.0000000000000000000, 0.0000000000000000000 ) ) ;
#35 = CARTESIAN_POINT ( 'NONE',  ( -19.05000000000000400, 1.444773732675583000E-015, 4.649521785113820200 ) ) ;
#36 = VERTEX_POINT ( 'NONE', #102 ) ;
#37 = CARTESIAN_POINT ( 'NONE',  ( 19.04999999999999700, -8.881784197001250400E-016, 0.3504782148861820300 ) ) ;
#38 = DIRECTION ( 'NONE',  ( 1.000000000000000000, 0.0000000000000000000, 0.0000000000000000000 ) ) ;
#39 = CC_DESIGN_DATE_AND_TIME_ASSIGNMENT ( #177, #126, ( #89 ) ) ;
#40 = DIRECTION ( 'NONE',  ( -0.0000000000000000000, -0.0000000000000000000, -1.000000000000000000 ) ) ;
#41 =( BOUNDED_SURFACE ( )  B_SPLINE_SURFACE ( 3, 3, ( 
 ( #120, #251, #30, #123 ),
 ( #140, #211, #169, #275 ),
 ( #143, #192, #173, #147 ),
 ( #7, #236, #213, #32 ) ),
 .UNSPECIFIED., .F., .F., .F. ) 
 B_SPLINE_SURFACE_WITH_KNOTS ( ( 4, 4 ),
 ( 4, 4 ),
 ( 0.0000000000000000000, 1.000000000000000000 ),
 ( 0.0000000000000000000, 1.000000000000000000 ),
 .UNSPECIFIED. ) 
 GEOMETRIC_REPRESENTATION_ITEM ( )  RATIONAL_B_SPLINE_SURFACE ( (
 ( 1.000000000000000000, 0.9998858446097825800, 0.9998858446097825800, 1.000000000000000000),
 ( 0.9995379556113486200, 0.9994238529659886800, 0.9994238529659886800, 0.9995379556113486200),
 ( 0.9995379556113486200, 0.9994238529659886800, 0.9994238529659886800, 0.9995379556113486200),
 ( 1.000000000000000000, 0.9998858446097825800, 0.9998858446097825800, 1.000000000000000000) ) ) 
 REPRESENTATION_ITEM ( '' )  SURFACE ( )  );
#42 = CARTESIAN_POINT ( 'NONE',  ( 19.15096585781091300, 19.27849498144244200, 4.286610555574443800 ) ) ;
#43 = CARTESIAN_POINT ( 'NONE',  ( 19.16867737085931400, 6.429135539814210700, 0.2350763677147083600 ) ) ;
#44 = APPROVAL_DATE_TIME ( #75, #101 ) ;
#45 = CARTESIAN_POINT ( 'NONE',  ( 12.78167163525417700, 6.429135539814210700, -0.001428843904785557800 ) ) ;
#46 = ORIENTED_EDGE ( 'NONE', *, *, #168, .T. ) ;
#47 = EDGE_CURVE ( 'NONE', #104, #149, #50, .T. ) ;
#48 = EDGE_CURVE ( 'NONE', #10, #144, #218, .T. ) ;
#49 = CIRCLE ( 'NONE', #142, 19.05000000000000100 ) ;
#50 = CIRCLE ( 'NONE', #22, 19.05000000000000100 ) ;
#51 = CIRCLE ( 'NONE', #145, 19.05000000000000100 ) ;
#52 = DIRECTION ( 'NONE',  ( 1.000000000000000000, -8.881784197001252300E-016, 0.0000000000000000000 ) ) ;
#53 = APPROVAL_STATUS ( 'not_yet_approved' ) ;
#54 = AXIS2_PLACEMENT_3D ( 'NONE', #288, #200, #216 ) ;
#55 = CARTESIAN_POINT ( 'NONE',  ( -6.385477502809116900, -19.27849498144240700, 0.3589391833238884100 ) ) ;
#56 = CARTESIAN_POINT ( 'NONE',  ( -4.662936703425659800E-015, -8.881784197001250400E-016, 0.3504782148861820300 ) ) ;
#57 = LOCAL_TIME ( 14, 32, 41.00000000000000000, #289 ) ;
#58 = APPROVAL_ROLE ( '' ) ;
#59 = CARTESIAN_POINT ( 'NONE',  ( 1.249000902703301100E-013, -6.429135539814176100, 5.119701701940921400 ) ) ;
#60 = CARTESIAN_POINT ( 'NONE',  ( -12.76986160060402600, 19.27849498144243900, 0.4771027593669005500 ) ) ;
#61 = ADVANCED_FACE ( 'NONE', ( #243 ), #137, .T. ) ;
#62 = ORIENTED_EDGE ( 'NONE', *, *, #286, .F. ) ;
#63 = CARTESIAN_POINT ( 'NONE',  ( -4.662936703425659800E-015, -8.881784197001250400E-016, 0.3504782148861820300 ) ) ;
#64 = CARTESIAN_POINT ( 'NONE',  ( 19.15096585781067900, -19.27849498144240700, 0.7133894444255628500 ) ) ;
#65 = AXIS2_PLACEMENT_3D ( 'NONE', #269, #290, #158 ) ;
#66 = CALENDAR_DATE ( 2019, 10, 1 ) ;
#67 = ORIENTED_EDGE ( 'NONE', *, *, #206, .T. ) ;
#68 = CC_DESIGN_PERSON_AND_ORGANIZATION_ASSIGNMENT ( #69, #73, ( #31 ) ) ;
#69 = PERSON_AND_ORGANIZATION ( #193, #277 ) ;
#70 = ORIENTED_EDGE ( 'NONE', *, *, #6, .F. ) ;
#71 = ORIENTED_EDGE ( 'NONE', *, *, #234, .T. ) ;
#72 = CARTESIAN_POINT ( 'NONE',  ( -6.391383025744750600, -6.429135539814175200, -0.1197017019409151200 ) ) ;
#73 = PERSON_AND_ORGANIZATION_ROLE ( 'design_owner' ) ;
#74 = DIRECTION ( 'NONE',  ( 1.000000000000000000, -8.881784197001252300E-016, 0.0000000000000000000 ) ) ;
#75 = DATE_AND_TIME ( #217, #57 ) ;
#76 = MECHANICAL_CONTEXT ( 'NONE', #282, 'mechanical' ) ;
#77 = EDGE_LOOP ( 'NONE', ( #70, #21, #122, #46, #212, #91 ) ) ;
#78 = CARTESIAN_POINT ( 'NONE',  ( -12.78167163525437300, 6.429135539814210700, -0.001428843904791954200 ) ) ;
#79 = EDGE_CURVE ( 'NONE', #259, #104, #51, .T. ) ;
#80 = DIRECTION ( 'NONE',  ( 1.000000000000000000, 0.0000000000000000000, 0.0000000000000000000 ) ) ;
#81 = APPLICATION_PROTOCOL_DEFINITION ( 'international standard', 'config_control_design', 1994, #282 ) ;
#82 = CARTESIAN_POINT ( 'NONE',  ( 12.76986160060402600, 19.27849498144243900, 4.522897240633103200 ) ) ;
#83 = CC_DESIGN_APPROVAL ( #189, ( #89 ) ) ;
#84 = FACE_OUTER_BOUND ( 'NONE', #77, .T. ) ;
#85 = ORIENTED_EDGE ( 'NONE', *, *, #168, .F. ) ;
#86 = CARTESIAN_POINT ( 'NONE',  ( 19.04999999999999700, -8.881784197001250400E-016, 4.649521785113820200 ) ) ;
#87 = DIRECTION ( 'NONE',  ( 1.000000000000000000, 0.0000000000000000000, 0.0000000000000000000 ) ) ;
#88 = CARTESIAN_POINT ( 'NONE',  ( -4.662936703425659800E-015, -8.881784197001250400E-016, 0.3504782148861820300 ) ) ;
#89 = PRODUCT_DEFINITION ( 'UNKNOWN', '', #184, #155 ) ;
#90 = DATE_AND_TIME ( #152, #124 ) ;
#91 = ORIENTED_EDGE ( 'NONE', *, *, #286, .T. ) ;
#92 = DIRECTION ( 'NONE',  ( -1.000000000000000000, 0.0000000000000000000, 0.0000000000000000000 ) ) ;
#93 = CARTESIAN_POINT ( 'NONE',  ( 3.853619353075302600E-031, -6.429135539814176100, -0.1197017019409449300 ) ) ;
#94 = PRODUCT_DEFINITION_SHAPE ( 'NONE', 'NONE',  #89 ) ;
#95 = EDGE_CURVE ( 'NONE', #186, #259, #232, .T. ) ;
#96 =( BOUNDED_SURFACE ( )  B_SPLINE_SURFACE ( 3, 3, ( 
 ( #112, #161, #135, #201 ),
 ( #242, #268, #18, #59 ),
 ( #205, #202, #244, #225 ),
 ( #42, #82, #185, #130 ) ),
 .UNSPECIFIED., .F., .F., .T. ) 
 B_SPLINE_SURFACE_WITH_KNOTS ( ( 4, 4 ),
 ( 4, 4 ),
 ( 0.0000000000000000000, 1.000000000000000000 ),
 ( 0.0000000000000000000, 1.000000000000000000 ),
 .UNSPECIFIED. ) 
 GEOMETRIC_REPRESENTATION_ITEM ( )  RATIONAL_B_SPLINE_SURFACE ( (
 ( 1.000000000000000000, 0.9998858446097825800, 0.9998858446097825800, 1.000000000000000000),
 ( 0.9995379556113486200, 0.9994238529659886800, 0.9994238529659886800, 0.9995379556113486200),
 ( 0.9995379556113486200, 0.9994238529659886800, 0.9994238529659886800, 0.9995379556113486200),
 ( 1.000000000000000000, 0.9998858446097825800, 0.9998858446097825800, 1.000000000000000000) ) ) 
 REPRESENTATION_ITEM ( '' )  SURFACE ( )  );
#97 = APPROVAL_DATE_TIME ( #28, #110 ) ;
#98 = EDGE_CURVE ( 'NONE', #144, #36, #109, .T. ) ;
#99 = CYLINDRICAL_SURFACE ( 'NONE', #179, 19.05000000000000100 ) ;
#100 = ORIENTED_EDGE ( 'NONE', *, *, #48, .F. ) ;
#101 = APPROVAL ( #53, 'UNSPECIFIED' ) ;
#102 = CARTESIAN_POINT ( 'NONE',  ( 3.851859888774471700E-031, -19.05000000000052300, 4.649521785113809500 ) ) ;
#103 = APPROVAL_ROLE ( '' ) ;
#104 = VERTEX_POINT ( 'NONE', #182 ) ;
#105 = CARTESIAN_POINT ( 'NONE',  ( -19.16867737085954500, 6.429135539814210700, 0.2350763677147061400 ) ) ;
#106 = CARTESIAN_POINT ( 'NONE',  ( -19.15096585781091300, 19.27849498144244200, 0.7133894444255606300 ) ) ;
#107 = CARTESIAN_POINT ( 'NONE',  ( -4.662936703425659800E-015, -8.881784197001250400E-016, 0.3504782148861820300 ) ) ;
#108 = APPROVAL_ROLE ( '' ) ;
#109 = CIRCLE ( 'NONE', #183, 19.05000000000000100 ) ;
#110 = APPROVAL ( #157, 'UNSPECIFIED' ) ;
#111 = AXIS2_PLACEMENT_3D ( 'NONE', #15, #87, #271 ) ;
#112 = CARTESIAN_POINT ( 'NONE',  ( 19.15096585781091300, -19.27849498144240700, 4.286610555574443800 ) ) ;
#113 = CARTESIAN_POINT ( 'NONE',  ( 0.0000000000000000000, 0.0000000000000000000, -512.8999999999999800 ) ) ;
#114 =( BOUNDED_SURFACE ( )  B_SPLINE_SURFACE ( 3, 3, ( 
 ( #19, #229, #207, #64 ),
 ( #93, #230, #165, #246 ),
 ( #138, #2, #45, #43 ),
 ( #248, #117, #23, #209 ) ),
 .UNSPECIFIED., .F., .F., .F. ) 
 B_SPLINE_SURFACE_WITH_KNOTS ( ( 4, 4 ),
 ( 4, 4 ),
 ( 0.0000000000000000000, 1.000000000000000000 ),
 ( 0.0000000000000000000, 1.000000000000000000 ),
 .UNSPECIFIED. ) 
 GEOMETRIC_REPRESENTATION_ITEM ( )  RATIONAL_B_SPLINE_SURFACE ( (
 ( 1.000000000000000000, 0.9998858446097825800, 0.9998858446097825800, 1.000000000000000000),
 ( 0.9995379556113486200, 0.9994238529659886800, 0.9994238529659886800, 0.9995379556113486200),
 ( 0.9995379556113486200, 0.9994238529659886800, 0.9994238529659886800, 0.9995379556113486200),
 ( 1.000000000000000000, 0.9998858446097825800, 0.9998858446097825800, 1.000000000000000000) ) ) 
 REPRESENTATION_ITEM ( '' )  SURFACE ( )  );
#115 = AXIS2_PLACEMENT_3D ( 'NONE', #107, #221, #294 ) ;
#116 = PERSON_AND_ORGANIZATION ( #193, #277 ) ;
#117 = CARTESIAN_POINT ( 'NONE',  ( 6.385477502808958800, 19.27849498144243900, 0.3589391833238587100 ) ) ;
#118 = ORIENTED_EDGE ( 'NONE', *, *, #79, .F. ) ;
#119 = PRODUCT_RELATED_PRODUCT_CATEGORY ( 'detail', '', ( #31 ) ) ;
#120 = CARTESIAN_POINT ( 'NONE',  ( 3.850927601890969800E-031, -19.27849498144240700, 4.641060816676145800 ) ) ;
#121 = CC_DESIGN_APPROVAL ( #101, ( #267 ) ) ;
#122 = ORIENTED_EDGE ( 'NONE', *, *, #234, .F. ) ;
#123 = CARTESIAN_POINT ( 'NONE',  ( -19.15096585781059000, -19.27849498144240700, 4.286610555574442000 ) ) ;
#124 = LOCAL_TIME ( 14, 32, 41.00000000000000000, #128 ) ;
#125 = LOCAL_TIME ( 14, 32, 41.00000000000000000, #231 ) ;
#126 = DATE_TIME_ROLE ( 'creation_date' ) ;
#127 =( LENGTH_UNIT ( ) NAMED_UNIT ( * ) SI_UNIT ( .MILLI., .METRE. ) );
#128 = COORDINATED_UNIVERSAL_TIME_OFFSET ( 2, 0, .AHEAD. ) ;
#129 = FACE_OUTER_BOUND ( 'NONE', #141, .T. ) ;
#130 = CARTESIAN_POINT ( 'NONE',  ( 1.214306433183765000E-013, 19.27849498144244200, 4.641060816676117400 ) ) ;
#131 = CARTESIAN_POINT ( 'NONE',  ( 3.851859888774471700E-031, -19.05000000000052300, 0.3504782148861946300 ) ) ;
#132 = PERSON_AND_ORGANIZATION ( #193, #277 ) ;
#133 = EDGE_LOOP ( 'NONE', ( #62, #16, #281 ) ) ;
#134 = CARTESIAN_POINT ( 'NONE',  ( -4.662936703425659800E-015, -8.881784197001250400E-016, 0.3504782148861820300 ) ) ;
#135 = CARTESIAN_POINT ( 'NONE',  ( 6.385477502809116900, -19.27849498144240700, 4.641060816676115600 ) ) ;
#136 = DIRECTION ( 'NONE',  ( 0.0000000000000000000, -1.000000000000000000, 4.287403068643199900E-016 ) ) ;
#137 =( BOUNDED_SURFACE ( )  B_SPLINE_SURFACE ( 3, 3, ( 
 ( #215, #258, #55, #280 ),
 ( #156, #219, #72, #150 ),
 ( #105, #78, #287, #14 ),
 ( #106, #60, #227, #163 ) ),
 .UNSPECIFIED., .F., .F., .T. ) 
 B_SPLINE_SURFACE_WITH_KNOTS ( ( 4, 4 ),
 ( 4, 4 ),
 ( 0.0000000000000000000, 1.000000000000000000 ),
 ( 0.0000000000000000000, 1.000000000000000000 ),
 .UNSPECIFIED. ) 
 GEOMETRIC_REPRESENTATION_ITEM ( )  RATIONAL_B_SPLINE_SURFACE ( (
 ( 1.000000000000000000, 0.9998858446097825800, 0.9998858446097825800, 1.000000000000000000),
 ( 0.9995379556113486200, 0.9994238529659886800, 0.9994238529659886800, 0.9995379556113486200),
 ( 0.9995379556113486200, 0.9994238529659886800, 0.9994238529659886800, 0.9995379556113486200),
 ( 1.000000000000000000, 0.9998858446097825800, 0.9998858446097825800, 1.000000000000000000) ) ) 
 REPRESENTATION_ITEM ( '' )  SURFACE ( )  );
#138 = CARTESIAN_POINT ( 'NONE',  ( 3.853619353075302600E-031, 6.429135539814210700, -0.1197017019409457900 ) ) ;
#139 = PERSON_AND_ORGANIZATION ( #193, #277 ) ;
#140 = CARTESIAN_POINT ( 'NONE',  ( 3.854489080459553300E-031, -6.429135539814176100, 5.119701701940949900 ) ) ;
#141 = EDGE_LOOP ( 'NONE', ( #71, #67, #250 ) ) ;
#142 = AXIS2_PLACEMENT_3D ( 'NONE', #178, #154, #285 ) ;
#143 = CARTESIAN_POINT ( 'NONE',  ( 3.854489080459553300E-031, 6.429135539814210700, 5.119701701940950800 ) ) ;
#144 = VERTEX_POINT ( 'NONE', #86 ) ;
#145 = AXIS2_PLACEMENT_3D ( 'NONE', #134, #40, #80 ) ;
#146 = PERSON_AND_ORGANIZATION ( #193, #277 ) ;
#147 = CARTESIAN_POINT ( 'NONE',  ( -19.16867737085922500, 6.429135539814210700, 4.764923632285296600 ) ) ;
#148 = EDGE_CURVE ( 'NONE', #4, #10, #224, .T. ) ;
#149 = VERTEX_POINT ( 'NONE', #37 ) ;
#150 = CARTESIAN_POINT ( 'NONE',  ( -1.249000902703301100E-013, -6.429135539814176100, -0.1197017019409166900 ) ) ;
#151 = PERSON_AND_ORGANIZATION_ROLE ( 'design_supplier' ) ;
#152 = CALENDAR_DATE ( 2019, 10, 1 ) ;
#153 = EDGE_LOOP ( 'NONE', ( #208, #276, #100 ) ) ;
#154 = DIRECTION ( 'NONE',  ( -0.0000000000000000000, -0.0000000000000000000, -1.000000000000000000 ) ) ;
#155 = DESIGN_CONTEXT ( 'detailed design', #175, 'design' ) ;
#156 = CARTESIAN_POINT ( 'NONE',  ( -19.16867737085954500, -6.429135539814176100, 0.2350763677147070200 ) ) ;
#157 = APPROVAL_STATUS ( 'not_yet_approved' ) ;
#158 = DIRECTION ( 'NONE',  ( 1.000000000000000000, 0.0000000000000000000, 0.0000000000000000000 ) ) ;
#159 = DIRECTION ( 'NONE',  ( -0.0000000000000000000, -0.0000000000000000000, -1.000000000000000000 ) ) ;
#160 = ORIENTED_EDGE ( 'NONE', *, *, #47, .F. ) ;
#161 = CARTESIAN_POINT ( 'NONE',  ( 12.76986160060402600, -19.27849498144240700, 4.522897240633103200 ) ) ;
#162 = ADVANCED_FACE ( 'NONE', ( #265 ), #96, .T. ) ;
#163 = CARTESIAN_POINT ( 'NONE',  ( -1.214306433183765000E-013, 19.27849498144244200, 0.3589391833238868600 ) ) ;
#164 = VECTOR ( 'NONE', #238, 1000.000000000000000 ) ;
#165 = CARTESIAN_POINT ( 'NONE',  ( 12.78167163525417700, -6.429135539814175200, -0.001428843904784690000 ) ) ;
#166 = DIRECTION ( 'NONE',  ( 1.000000000000000000, 0.0000000000000000000, 0.0000000000000000000 ) ) ;
#167 = PERSON_AND_ORGANIZATION ( #193, #277 ) ;
#168 = EDGE_CURVE ( 'NONE', #149, #144, #8, .T. ) ;
#169 = CARTESIAN_POINT ( 'NONE',  ( -12.78167163525411700, -6.429135539814175200, 5.001428843904787600 ) ) ;
#170 = ORIENTED_EDGE ( 'NONE', *, *, #79, .T. ) ;
#171 =( GEOMETRIC_REPRESENTATION_CONTEXT ( 3 ) GLOBAL_UNCERTAINTY_ASSIGNED_CONTEXT ( ( #220 ) ) GLOBAL_UNIT_ASSIGNED_CONTEXT ( ( #127, #198, #222 ) ) REPRESENTATION_CONTEXT ( 'NONE', 'WORKASPACE' ) );
#172 = SHAPE_DEFINITION_REPRESENTATION ( #94, #254 ) ;
#173 = CARTESIAN_POINT ( 'NONE',  ( -12.78167163525411700, 6.429135539814210700, 5.001428843904788500 ) ) ;
#174 = CARTESIAN_POINT ( 'NONE',  ( 3.851859888774471700E-031, 19.05000000000052300, 4.649521785113809500 ) ) ;
#175 = APPLICATION_CONTEXT ( 'configuration controlled 3d designs of mechanical parts and assemblies' ) ;
#176 = APPROVAL_STATUS ( 'not_yet_approved' ) ;
#177 = DATE_AND_TIME ( #66, #125 ) ;
#178 = CARTESIAN_POINT ( 'NONE',  ( -4.662936703425659800E-015, -8.881784197001250400E-016, 4.649521785113820200 ) ) ;
#179 = AXIS2_PLACEMENT_3D ( 'NONE', #88, #11, #34 ) ;
#180 = DIRECTION ( 'NONE',  ( 1.000000000000000000, 0.0000000000000000000, 0.0000000000000000000 ) ) ;
#181 = PERSON_AND_ORGANIZATION_ROLE ( 'creator' ) ;
#182 = CARTESIAN_POINT ( 'NONE',  ( 3.851859888774471700E-031, 19.05000000000052300, 0.3504782148861946300 ) ) ;
#183 = AXIS2_PLACEMENT_3D ( 'NONE', #262, #159, #180 ) ;
#184 = PRODUCT_DEFINITION_FORMATION_WITH_SPECIFIED_SOURCE ( 'ANY', '', #31, .NOT_KNOWN. ) ;
#185 = CARTESIAN_POINT ( 'NONE',  ( 6.385477502809116900, 19.27849498144243900, 4.641060816676115600 ) ) ;
#186 = VERTEX_POINT ( 'NONE', #131 ) ;
#187 = CC_DESIGN_PERSON_AND_ORGANIZATION_ASSIGNMENT ( #272, #240, ( #267 ) ) ;
#188 = CARTESIAN_POINT ( 'NONE',  ( -4.662936703425659800E-015, -8.881784197001250400E-016, 0.3504782148861820300 ) ) ;
#189 = APPROVAL ( #176, 'UNSPECIFIED' ) ;
#190 = LOCAL_TIME ( 14, 32, 41.00000000000000000, #13 ) ;
#191 = CARTESIAN_POINT ( 'NONE',  ( -19.05000000000000400, 1.444773732675583000E-015, 0.3504782148861820300 ) ) ;
#192 = CARTESIAN_POINT ( 'NONE',  ( -6.391383025744560500, 6.429135539814210700, 5.119701701940951600 ) ) ;
#193 = PERSON ( 'UNSPECIFIED', 'UNSPECIFIED', 'UNSPECIFIED', ('UNSPECIFIED'), ('UNSPECIFIED'), ('UNSPECIFIED') ) ;
#194 = APPROVAL_DATE_TIME ( #247, #189 ) ;
#195 = AXIS2_PLACEMENT_3D ( 'NONE', #256, #283, #52 ) ;
#196 = APPROVAL_PERSON_ORGANIZATION ( #139, #189, #103 ) ;
#197 = DATE_TIME_ROLE ( 'classification_date' ) ;
#198 =( NAMED_UNIT ( * ) PLANE_ANGLE_UNIT ( ) SI_UNIT ( $, .RADIAN. ) );
#199 = APPROVAL_PERSON_ORGANIZATION ( #252, #101, #108 ) ;
#200 = DIRECTION ( 'NONE',  ( 0.0000000000000000000, 0.0000000000000000000, 1.000000000000000000 ) ) ;
#201 = CARTESIAN_POINT ( 'NONE',  ( 1.214306433183765000E-013, -19.27849498144240700, 4.641060816676117400 ) ) ;
#202 = CARTESIAN_POINT ( 'NONE',  ( 12.78167163525437300, 6.429135539814210700, 5.001428843904797400 ) ) ;
#203 = ORIENTED_EDGE ( 'NONE', *, *, #148, .T. ) ;
#204 = ORIENTED_EDGE ( 'NONE', *, *, #48, .T. ) ;
#205 = CARTESIAN_POINT ( 'NONE',  ( 19.16867737085954500, 6.429135539814210700, 4.764923632285298400 ) ) ;
#206 = EDGE_CURVE ( 'NONE', #186, #104, #279, .T. ) ;
#207 = CARTESIAN_POINT ( 'NONE',  ( 12.76986160060382900, -19.27849498144240700, 0.4771027593669069400 ) ) ;
#208 = ORIENTED_EDGE ( 'NONE', *, *, #245, .F. ) ;
#209 = CARTESIAN_POINT ( 'NONE',  ( 19.15096585781068200, 19.27849498144244200, 0.7133894444255628500 ) ) ;
#210 = LOCAL_TIME ( 14, 32, 41.00000000000000000, #264 ) ;
#211 = CARTESIAN_POINT ( 'NONE',  ( -6.391383025744560500, -6.429135539814175200, 5.119701701940950800 ) ) ;
#212 = ORIENTED_EDGE ( 'NONE', *, *, #98, .T. ) ;
#213 = CARTESIAN_POINT ( 'NONE',  ( -12.76986160060376800, 19.27849498144243900, 4.522897240633095200 ) ) ;
#214 = CYLINDRICAL_SURFACE ( 'NONE', #17, 19.05000000000000100 ) ;
#215 = CARTESIAN_POINT ( 'NONE',  ( -19.15096585781091300, -19.27849498144240700, 0.7133894444255606300 ) ) ;
#216 = DIRECTION ( 'NONE',  ( 1.000000000000000000, 0.0000000000000000000, 0.0000000000000000000 ) ) ;
#217 = CALENDAR_DATE ( 2019, 10, 1 ) ;
#218 = CIRCLE ( 'NONE', #195, 19.05000000000000100 ) ;
#219 = CARTESIAN_POINT ( 'NONE',  ( -12.78167163525437300, -6.429135539814175200, -0.001428843904791087100 ) ) ;
#220 = UNCERTAINTY_MEASURE_WITH_UNIT (LENGTH_MEASURE( 1.000000000000000100E-005 ), #127, 'distance_accuracy_value', 'NONE');
#221 = DIRECTION ( 'NONE',  ( -0.0000000000000000000, -0.0000000000000000000, -1.000000000000000000 ) ) ;
#222 =( NAMED_UNIT ( * ) SI_UNIT ( $, .STERADIAN. ) SOLID_ANGLE_UNIT ( ) );
#223 = CARTESIAN_POINT ( 'NONE',  ( 19.04999999999999700, -8.881784197001250400E-016, 0.3504782148861820300 ) ) ;
#224 = CIRCLE ( 'NONE', #65, 19.05000000000000100 ) ;
#225 = CARTESIAN_POINT ( 'NONE',  ( 1.249000902703301100E-013, 6.429135539814210700, 5.119701701940922300 ) ) ;
#226 = ADVANCED_FACE ( 'NONE', ( #292 ), #214, .T. ) ;
#227 = CARTESIAN_POINT ( 'NONE',  ( -6.385477502809116900, 19.27849498144243900, 0.3589391833238884100 ) ) ;
#228 = DIRECTION ( 'NONE',  ( 0.0000000000000000000, 0.0000000000000000000, 1.000000000000000000 ) ) ;
#229 = CARTESIAN_POINT ( 'NONE',  ( 6.385477502808958800, -19.27849498144240700, 0.3589391833238587100 ) ) ;
#230 = CARTESIAN_POINT ( 'NONE',  ( 6.391383025744590700, -6.429135539814175200, -0.1197017019409449400 ) ) ;
#231 = COORDINATED_UNIVERSAL_TIME_OFFSET ( 2, 0, .AHEAD. ) ;
#232 = CIRCLE ( 'NONE', #115, 19.05000000000000100 ) ;
#233 = CC_DESIGN_PERSON_AND_ORGANIZATION_ASSIGNMENT ( #116, #151, ( #184 ) ) ;
#234 = EDGE_CURVE ( 'NONE', #149, #186, #3, .T. ) ;
#235 = CARTESIAN_POINT ( 'NONE',  ( -19.05000000000000400, 1.444773732675583000E-015, 0.3504782148861820300 ) ) ;
#236 = CARTESIAN_POINT ( 'NONE',  ( -6.385477502808928600, 19.27849498144243900, 4.641060816676145800 ) ) ;
#237 = DIRECTION ( 'NONE',  ( -0.0000000000000000000, -0.0000000000000000000, -1.000000000000000000 ) ) ;
#238 = DIRECTION ( 'NONE',  ( 0.0000000000000000000, 0.0000000000000000000, 1.000000000000000000 ) ) ;
#239 = VECTOR ( 'NONE', #266, 1000.000000000000000 ) ;
#240 = PERSON_AND_ORGANIZATION_ROLE ( 'classification_officer' ) ;
#241 = CC_DESIGN_SECURITY_CLASSIFICATION ( #267, ( #184 ) ) ;
#242 = CARTESIAN_POINT ( 'NONE',  ( 19.16867737085954500, -6.429135539814176100, 4.764923632285297500 ) ) ;
#243 = FACE_OUTER_BOUND ( 'NONE', #249, .T. ) ;
#244 = CARTESIAN_POINT ( 'NONE',  ( 6.391383025744750600, 6.429135539814210700, 5.119701701940921400 ) ) ;
#245 = EDGE_CURVE ( 'NONE', #36, #10, #253, .T. ) ;
#246 = CARTESIAN_POINT ( 'NONE',  ( 19.16867737085931400, -6.429135539814176100, 0.2350763677147092200 ) ) ;
#247 = DATE_AND_TIME ( #291, #190 ) ;
#248 = CARTESIAN_POINT ( 'NONE',  ( 3.850058678119177800E-031, 19.27849498144244200, 0.3589391833238586600 ) ) ;
#249 = EDGE_LOOP ( 'NONE', ( #26, #29, #170 ) ) ;
#250 = ORIENTED_EDGE ( 'NONE', *, *, #47, .T. ) ;
#251 = CARTESIAN_POINT ( 'NONE',  ( -6.385477502808928600, -19.27849498144240700, 4.641060816676145800 ) ) ;
#252 = PERSON_AND_ORGANIZATION ( #193, #277 ) ;
#253 = CIRCLE ( 'NONE', #33, 517.8999999999999800 ) ;
#254 = ADVANCED_BREP_SHAPE_REPRESENTATION ( '111-0434E BK7 bi-cx 38.1 F500', ( #1, #54 ), #171 ) ;
#255 = CC_DESIGN_DATE_AND_TIME_ASSIGNMENT ( #90, #197, ( #267 ) ) ;
#256 = CARTESIAN_POINT ( 'NONE',  ( -4.662936703425659800E-015, -8.881784197001250400E-016, 4.649521785113820200 ) ) ;
#257 = PERSON_AND_ORGANIZATION_ROLE ( 'creator' ) ;
#258 = CARTESIAN_POINT ( 'NONE',  ( -12.76986160060402600, -19.27849498144240700, 0.4771027593669005500 ) ) ;
#259 = VERTEX_POINT ( 'NONE', #191 ) ;
#260 = CLOSED_SHELL ( 'NONE', ( #261, #284, #226, #61, #295, #162 ) ) ;
#261 = ADVANCED_FACE ( 'NONE', ( #129 ), #114, .T. ) ;
#262 = CARTESIAN_POINT ( 'NONE',  ( -4.662936703425659800E-015, -8.881784197001250400E-016, 4.649521785113820200 ) ) ;
#263 = CC_DESIGN_PERSON_AND_ORGANIZATION_ASSIGNMENT ( #146, #181, ( #184 ) ) ;
#264 = COORDINATED_UNIVERSAL_TIME_OFFSET ( 2, 0, .AHEAD. ) ;
#265 = FACE_OUTER_BOUND ( 'NONE', #153, .T. ) ;
#266 = DIRECTION ( 'NONE',  ( 0.0000000000000000000, 0.0000000000000000000, 1.000000000000000000 ) ) ;
#267 = SECURITY_CLASSIFICATION ( '', '', #12 ) ;
#268 = CARTESIAN_POINT ( 'NONE',  ( 12.78167163525437300, -6.429135539814175200, 5.001428843904795600 ) ) ;
#269 = CARTESIAN_POINT ( 'NONE',  ( -4.662936703425659800E-015, -8.881784197001250400E-016, 4.649521785113820200 ) ) ;
#270 = EDGE_LOOP ( 'NONE', ( #118, #25, #203, #204, #85, #160 ) ) ;
#271 = DIRECTION ( 'NONE',  ( 0.0000000000000000000, -1.000000000000000000, -4.287403068643199900E-016 ) ) ;
#272 = PERSON_AND_ORGANIZATION ( #193, #277 ) ;
#273 = APPROVAL_PERSON_ORGANIZATION ( #167, #110, #58 ) ;
#274 = LINE ( 'NONE', #235, #164 ) ;
#275 = CARTESIAN_POINT ( 'NONE',  ( -19.16867737085922500, -6.429135539814176100, 4.764923632285295700 ) ) ;
#276 = ORIENTED_EDGE ( 'NONE', *, *, #98, .F. ) ;
#277 = ORGANIZATION ( 'UNSPECIFIED', 'UNSPECIFIED', '' ) ;
#278 = CC_DESIGN_APPROVAL ( #110, ( #184 ) ) ;
#279 = CIRCLE ( 'NONE', #111, 517.8999999999999800 ) ;
#280 = CARTESIAN_POINT ( 'NONE',  ( -1.214306433183765000E-013, -19.27849498144240700, 0.3589391833238868600 ) ) ;
#281 = ORIENTED_EDGE ( 'NONE', *, *, #148, .F. ) ;
#282 = APPLICATION_CONTEXT ( 'configuration controlled 3d designs of mechanical parts and assemblies' ) ;
#283 = DIRECTION ( 'NONE',  ( -0.0000000000000000000, -0.0000000000000000000, -1.000000000000000000 ) ) ;
#284 = ADVANCED_FACE ( 'NONE', ( #24 ), #41, .T. ) ;
#285 = DIRECTION ( 'NONE',  ( 1.000000000000000000, 0.0000000000000000000, 0.0000000000000000000 ) ) ;
#286 = EDGE_CURVE ( 'NONE', #36, #4, #49, .T. ) ;
#287 = CARTESIAN_POINT ( 'NONE',  ( -6.391383025744750600, 6.429135539814210700, -0.1197017019409159900 ) ) ;
#288 = CARTESIAN_POINT ( 'NONE',  ( 0.0000000000000000000, 0.0000000000000000000, 0.0000000000000000000 ) ) ;
#289 = COORDINATED_UNIVERSAL_TIME_OFFSET ( 2, 0, .AHEAD. ) ;
#290 = DIRECTION ( 'NONE',  ( -0.0000000000000000000, -0.0000000000000000000, -1.000000000000000000 ) ) ;
#291 = CALENDAR_DATE ( 2019, 10, 1 ) ;
#292 = FACE_OUTER_BOUND ( 'NONE', #270, .T. ) ;
#293 = APPLICATION_PROTOCOL_DEFINITION ( 'international standard', 'config_control_design', 1994, #175 ) ;
#294 = DIRECTION ( 'NONE',  ( 1.000000000000000000, 0.0000000000000000000, 0.0000000000000000000 ) ) ;
#295 = ADVANCED_FACE ( 'NONE', ( #84 ), #99, .T. ) ;
ENDSEC;
END-ISO-10303-21;
