ISO-10303-21;
HEADER;
FILE_DESCRIPTION (( 'STEP AP203' ),
    '1' );
FILE_NAME ('111-0430E BK7 bi-cx 38.1 F400.STEP',
    '2019-01-10T11:56:58',
    ( '' ),
    ( '' ),
    'SwSTEP 2.0',
    'SolidWorks 2017',
    '' );
FILE_SCHEMA (( 'CONFIG_CONTROL_DESIGN' ));
ENDSEC;

DATA;
#1 = CARTESIAN_POINT ( 'NONE',  ( -4.640617127362766800E-015, -8.881784197001250400E-016, 4.414876176080349900 ) ) ;
#2 = APPROVAL_PERSON_ORGANIZATION ( #251, #243, #85 ) ;
#3 = APPROVAL_PERSON_ORGANIZATION ( #214, #74, #157 ) ;
#4 = ORIENTED_EDGE ( 'NONE', *, *, #246, .F. ) ;
#5 = CARTESIAN_POINT ( 'NONE',  ( 19.12715738791673900, 19.27830736028852200, 1.190267430696613900 ) ) ;
#6 = CARTESIAN_POINT ( 'NONE',  ( 3.816391647148975600E-014, 6.434383772147427300, -0.2000062517414912300 ) ) ;
#7 = AXIS2_PLACEMENT_3D ( 'NONE', #1, #218, #32 ) ;
#8 = DIRECTION ( 'NONE',  ( 5.827942386483759700E-018, 2.717192996813919900E-034, 1.000000000000000000 ) ) ;
#9 = MANIFOLD_SOLID_BREP ( 'Imported1', #18 ) ;
#10 = AXIS2_PLACEMENT_3D ( 'NONE', #277, #51, #259 ) ;
#11 = APPROVAL_DATE_TIME ( #15, #243 ) ;
#12 = ORIENTED_EDGE ( 'NONE', *, *, #28, .F. ) ;
#13 = DIRECTION ( 'NONE',  ( 1.000000000000000000, 0.0000000000000000000, -5.691349986800548400E-018 ) ) ;
#14 = DATE_TIME_ROLE ( 'creation_date' ) ;
#15 = DATE_AND_TIME ( #278, #169 ) ;
#16 = CARTESIAN_POINT ( 'NONE',  ( 6.397253181643666400, -6.434383772147352700, 5.200006251741445600 ) ) ;
#17 = CARTESIAN_POINT ( 'NONE',  ( 12.75853888933616000, 19.27830736028856500, 4.203683844231826500 ) ) ;
#18 = CLOSED_SHELL ( 'NONE', ( #138, #83, #269, #211, #179, #287 ) ) ;
#19 = PERSON_AND_ORGANIZATION ( #221, #266 ) ;
#20 = VERTEX_POINT ( 'NONE', #238 ) ;
#21 = PERSON_AND_ORGANIZATION_ROLE ( 'classification_officer' ) ;
#22 = EDGE_CURVE ( 'NONE', #295, #119, #88, .T. ) ;
#23 = FACE_OUTER_BOUND ( 'NONE', #181, .T. ) ;
#24 = LOCAL_TIME ( 13, 56, 58.00000000000000000, #29 ) ;
#25 = CARTESIAN_POINT ( 'NONE',  ( -19.12715738791674600, 19.27830736028856500, 3.809732569303391400 ) ) ;
#26 = CARTESIAN_POINT ( 'NONE',  ( -1.136868377216160000E-013, 19.05000000000020000, 4.414876176080339200 ) ) ;
#27 = CARTESIAN_POINT ( 'NONE',  ( -6.397253181643671700, 6.434383772147445100, 5.200006251741469600 ) ) ;
#28 = EDGE_CURVE ( 'NONE', #20, #175, #183, .T. ) ;
#29 = COORDINATED_UNIVERSAL_TIME_OFFSET ( 2, 0, .AHEAD. ) ;
#30 = CARTESIAN_POINT ( 'NONE',  ( -12.75853888933602000, -19.27830736028847300, 4.203683844231750100 ) ) ;
#31 = ORIENTED_EDGE ( 'NONE', *, *, #255, .T. ) ;
#32 = DIRECTION ( 'NONE',  ( 1.000000000000000000, 0.0000000000000000000, 0.0000000000000000000 ) ) ;
#33 = DIRECTION ( 'NONE',  ( 1.000000000000000000, 0.0000000000000000000, -5.691349986800548400E-018 ) ) ;
#34 = CARTESIAN_POINT ( 'NONE',  ( -4.640617127362766800E-015, -8.881784197001250400E-016, 4.414876176080349900 ) ) ;
#35 = CARTESIAN_POINT ( 'NONE',  ( -6.380791423286273000, -19.27830736028844400, 0.5992465062064358200 ) ) ;
#36 = ORIENTED_EDGE ( 'NONE', *, *, #22, .F. ) ;
#37 = PRODUCT_DEFINITION ( 'UNKNOWN', '', #139, #42 ) ;
#38 = CIRCLE ( 'NONE', #93, 19.05000000000000100 ) ;
#39 = DIRECTION ( 'NONE',  ( -5.827942386483759700E-018, -2.717192996813919900E-034, -1.000000000000000000 ) ) ;
#40 = CIRCLE ( 'NONE', #10, 19.05000000000000100 ) ;
#41 = CARTESIAN_POINT ( 'NONE',  ( -19.05000000000000400, 1.444773732675583000E-015, 0.5851238239196512300 ) ) ;
#42 = DESIGN_CONTEXT ( 'detailed design', #239, 'design' ) ;
#43 = ADVANCED_BREP_SHAPE_REPRESENTATION ( '111-0430E BK7 bi-cx 38.1 F400', ( #9, #152 ), #102 ) ;
#44 = MECHANICAL_CONTEXT ( 'NONE', #289, 'mechanical' ) ;
#45 = CARTESIAN_POINT ( 'NONE',  ( 12.75853888933615600, -19.27830736028847300, 4.203683844231769700 ) ) ;
#46 = CARTESIAN_POINT ( 'NONE',  ( -19.17650340506353900, -6.434383772147353600, 4.607460556576588900 ) ) ;
#47 = APPROVAL_DATE_TIME ( #275, #74 ) ;
#48 = EDGE_LOOP ( 'NONE', ( #159, #108, #31 ) ) ;
#49 = AXIS2_PLACEMENT_3D ( 'NONE', #264, #265, #240 ) ;
#50 = CARTESIAN_POINT ( 'NONE',  ( -19.12715738791674300, -19.27830736028846900, 3.809732569303335900 ) ) ;
#51 = DIRECTION ( 'NONE',  ( -5.827942386483759700E-018, -2.717192996813919900E-034, -1.000000000000000000 ) ) ;
#52 = CARTESIAN_POINT ( 'NONE',  ( -12.79145455296733800, 6.434383772147425500, -0.002428183594055389500 ) ) ;
#53 = ORIENTED_EDGE ( 'NONE', *, *, #205, .T. ) ;
#54 = DIRECTION ( 'NONE',  ( 5.827942386483759700E-018, 2.717192996813919900E-034, 1.000000000000000000 ) ) ;
#55 = AXIS2_PLACEMENT_3D ( 'NONE', #256, #73, #226 ) ;
#56 = LOCAL_TIME ( 13, 56, 58.00000000000000000, #228 ) ;
#57 = CIRCLE ( 'NONE', #237, 19.05000000000000100 ) ;
#58 = LOCAL_TIME ( 13, 56, 58.00000000000000000, #188 ) ;
#59 = EDGE_CURVE ( 'NONE', #94, #20, #161, .T. ) ;
#60 = ORIENTED_EDGE ( 'NONE', *, *, #270, .F. ) ;
#61 = CARTESIAN_POINT ( 'NONE',  ( -19.05000000000000400, 1.444773732675583000E-015, 0.5851238239196511200 ) ) ;
#62 = ORIENTED_EDGE ( 'NONE', *, *, #150, .F. ) ;
#63 = APPROVAL_ROLE ( '' ) ;
#64 = APPROVAL_STATUS ( 'not_yet_approved' ) ;
#65 = FACE_OUTER_BOUND ( 'NONE', #48, .T. ) ;
#66 = CARTESIAN_POINT ( 'NONE',  ( -1.136868377216159800E-013, 6.434383772147445100, 5.200006251741470500 ) ) ;
#67 = CARTESIAN_POINT ( 'NONE',  ( -6.380791423286280100, -19.27830736028847300, 4.400753493793540200 ) ) ;
#68 = AXIS2_PLACEMENT_3D ( 'NONE', #132, #173, #284 ) ;
#69 = ORIENTED_EDGE ( 'NONE', *, *, #255, .F. ) ;
#70 = CIRCLE ( 'NONE', #158, 310.4000000000000300 ) ;
#71 = CARTESIAN_POINT ( 'NONE',  ( -1.136868377216160000E-013, 19.27830736028856500, 4.400753493793596100 ) ) ;
#72 = CARTESIAN_POINT ( 'NONE',  ( -12.79145455296733900, -6.434383772147349100, -0.002428183594003671800 ) ) ;
#73 = DIRECTION ( 'NONE',  ( 1.000000000000000000, 0.0000000000000000000, 0.0000000000000000000 ) ) ;
#74 = APPROVAL ( #209, 'UNSPECIFIED' ) ;
#75 = AXIS2_PLACEMENT_3D ( 'NONE', #165, #190, #123 ) ;
#76 = CALENDAR_DATE ( 2019, 10, 1 ) ;
#77 = CARTESIAN_POINT ( 'NONE',  ( -4.662936703425659800E-015, -8.881784197001250400E-016, 0.5851238239196511200 ) ) ;
#78 = CARTESIAN_POINT ( 'NONE',  ( 19.04999999999999700, -8.881784197001250400E-016, 0.5851238239196510100 ) ) ;
#79 =( NAMED_UNIT ( * ) PLANE_ANGLE_UNIT ( ) SI_UNIT ( $, .RADIAN. ) );
#80 = CARTESIAN_POINT ( 'NONE',  ( 6.380791423286273900, 19.27830736028856500, 4.400753493793623700 ) ) ;
#81 = VERTEX_POINT ( 'NONE', #26 ) ;
#82 = CARTESIAN_POINT ( 'NONE',  ( -3.469446951953614800E-014, -6.434383772147352700, 5.200006251741447400 ) ) ;
#83 = ADVANCED_FACE ( 'NONE', ( #193 ), #261, .T. ) ;
#84 = CYLINDRICAL_SURFACE ( 'NONE', #202, 19.05000000000000100 ) ;
#85 = APPROVAL_ROLE ( '' ) ;
#86 = CC_DESIGN_APPROVAL ( #243, ( #139 ) ) ;
#87 = CARTESIAN_POINT ( 'NONE',  ( 1.136868377216159800E-013, 6.434383772147426400, -0.2000062517414621900 ) ) ;
#88 = CIRCLE ( 'NONE', #285, 19.05000000000000100 ) ;
#89 = CARTESIAN_POINT ( 'NONE',  ( -12.79145455296720100, 6.434383772147444200, 5.002428183594042300 ) ) ;
#90 = CC_DESIGN_DATE_AND_TIME_ASSIGNMENT ( #225, #101, ( #258 ) ) ;
#91 = CARTESIAN_POINT ( 'NONE',  ( -19.17650340506382300, 6.434383772147426400, 0.3925394434233658300 ) ) ;
#92 = CARTESIAN_POINT ( 'NONE',  ( -6.380791423286273900, 19.27830736028852200, 0.5992465062063800900 ) ) ;
#93 = AXIS2_PLACEMENT_3D ( 'NONE', #77, #39, #174 ) ;
#94 = VERTEX_POINT ( 'NONE', #160 ) ;
#95 = CARTESIAN_POINT ( 'NONE',  ( 19.12715738791702300, -19.27830736028846900, 3.809732569303336800 ) ) ;
#96 = CARTESIAN_POINT ( 'NONE',  ( 19.17650340506382300, 6.434383772147445100, 4.607460556576641300 ) ) ;
#97 = DIRECTION ( 'NONE',  ( 5.827942386483759700E-018, 2.717192996813919900E-034, 1.000000000000000000 ) ) ;
#98 = COORDINATED_UNIVERSAL_TIME_OFFSET ( 2, 0, .AHEAD. ) ;
#99 = ORIENTED_EDGE ( 'NONE', *, *, #197, .F. ) ;
#100 = DIRECTION ( 'NONE',  ( 1.000000000000000000, 0.0000000000000000000, 0.0000000000000000000 ) ) ;
#101 = DATE_TIME_ROLE ( 'classification_date' ) ;
#102 =( GEOMETRIC_REPRESENTATION_CONTEXT ( 3 ) GLOBAL_UNCERTAINTY_ASSIGNED_CONTEXT ( ( #141 ) ) GLOBAL_UNIT_ASSIGNED_CONTEXT ( ( #232, #79, #235 ) ) REPRESENTATION_CONTEXT ( 'NONE', 'WORKASPACE' ) );
#103 = CARTESIAN_POINT ( 'NONE',  ( 1.136868377216160000E-013, -19.27830736028844400, 0.5992465062064633600 ) ) ;
#104 = DATE_AND_TIME ( #76, #24 ) ;
#105 = CARTESIAN_POINT ( 'NONE',  ( -1.136868377216159800E-013, -6.434383772147352700, 5.200006251741418100 ) ) ;
#106 = CARTESIAN_POINT ( 'NONE',  ( -19.17650340506354200, 6.434383772147444200, 4.607460556576640400 ) ) ;
#107 = CARTESIAN_POINT ( 'NONE',  ( -4.662936703425659800E-015, -8.881784197001250400E-016, 0.5851238239196510100 ) ) ;
#108 = ORIENTED_EDGE ( 'NONE', *, *, #246, .T. ) ;
#109 = ORIENTED_EDGE ( 'NONE', *, *, #184, .F. ) ;
#110 = CARTESIAN_POINT ( 'NONE',  ( -19.12715738791702300, -19.27830736028844400, 1.190267430696667600 ) ) ;
#111 = PRODUCT_DEFINITION_SHAPE ( 'NONE', 'NONE',  #37 ) ;
#112 = CC_DESIGN_APPROVAL ( #117, ( #258 ) ) ;
#113 =( BOUNDED_SURFACE ( )  B_SPLINE_SURFACE ( 3, 3, ( 
 ( #103, #125, #213, #121 ),
 ( #217, #294, #186, #122 ),
 ( #87, #164, #249, #273 ),
 ( #254, #126, #223, #5 ) ),
 .UNSPECIFIED., .F., .F., .F. ) 
 B_SPLINE_SURFACE_WITH_KNOTS ( ( 4, 4 ),
 ( 4, 4 ),
 ( 0.0000000000000000000, 1.000000000000000000 ),
 ( 0.0000000000000000000, 1.000000000000000000 ),
 .UNSPECIFIED. ) 
 GEOMETRIC_REPRESENTATION_ITEM ( )  RATIONAL_B_SPLINE_SURFACE ( (
 ( 1.000000000000000000, 0.9996819665947898100, 0.9996819665947898100, 1.000000000000000000),
 ( 0.9987129585347799300, 0.9983953344517495500, 0.9983953344517495500, 0.9987129585347799300),
 ( 0.9987129585347799300, 0.9983953344517495500, 0.9983953344517495500, 0.9987129585347799300),
 ( 1.000000000000000000, 0.9996819665947898100, 0.9996819665947898100, 1.000000000000000000) ) ) 
 REPRESENTATION_ITEM ( '' )  SURFACE ( )  );
#114 = CARTESIAN_POINT ( 'NONE',  ( -3.816391647148975600E-014, 19.27830736028856500, 4.400753493793626300 ) ) ;
#115 = ORIENTED_EDGE ( 'NONE', *, *, #184, .T. ) ;
#116 = CARTESIAN_POINT ( 'NONE',  ( 12.79145455296733800, 6.434383772147445100, 5.002428183594061800 ) ) ;
#117 = APPROVAL ( #291, 'UNSPECIFIED' ) ;
#118 = CARTESIAN_POINT ( 'NONE',  ( 12.79145455296733900, -6.434383772147352700, 5.002428183594010300 ) ) ;
#119 = VERTEX_POINT ( 'NONE', #212 ) ;
#120 = PERSON_AND_ORGANIZATION_ROLE ( 'design_supplier' ) ;
#121 = CARTESIAN_POINT ( 'NONE',  ( 19.12715738791673600, -19.27830736028844400, 1.190267430696669200 ) ) ;
#122 = CARTESIAN_POINT ( 'NONE',  ( 19.17650340506353100, -6.434383772147349100, 0.3925394434234190100 ) ) ;
#123 = DIRECTION ( 'NONE',  ( 1.000000000000000000, 0.0000000000000000000, 0.0000000000000000000 ) ) ;
#124 = ORIENTED_EDGE ( 'NONE', *, *, #59, .F. ) ;
#125 = CARTESIAN_POINT ( 'NONE',  ( 6.380791423286277500, -19.27830736028844400, 0.5992465062064633600 ) ) ;
#126 = CARTESIAN_POINT ( 'NONE',  ( 6.380791423286278400, 19.27830736028852200, 0.5992465062064077400 ) ) ;
#127 = FACE_OUTER_BOUND ( 'NONE', #207, .T. ) ;
#128 = APPROVAL_PERSON_ORGANIZATION ( #155, #117, #63 ) ;
#129 = FACE_OUTER_BOUND ( 'NONE', #262, .T. ) ;
#130 = CC_DESIGN_PERSON_AND_ORGANIZATION_ASSIGNMENT ( #234, #267, ( #139 ) ) ;
#131 = PERSON_AND_ORGANIZATION ( #221, #266 ) ;
#132 = CARTESIAN_POINT ( 'NONE',  ( -4.662936703425659800E-015, -8.881784197001250400E-016, 0.5851238239196511200 ) ) ;
#133 = CARTESIAN_POINT ( 'NONE',  ( -4.662936703425659800E-015, -8.881784197001250400E-016, 0.5851238239196511200 ) ) ;
#134 = SHAPE_DEFINITION_REPRESENTATION ( #111, #43 ) ;
#135 = PERSON_AND_ORGANIZATION_ROLE ( 'creator' ) ;
#136 = CARTESIAN_POINT ( 'NONE',  ( 19.12715738791702700, 19.27830736028856500, 3.809732569303392300 ) ) ;
#137 = CIRCLE ( 'NONE', #49, 19.05000000000000100 ) ;
#138 = ADVANCED_FACE ( 'NONE', ( #23 ), #113, .T. ) ;
#139 = PRODUCT_DEFINITION_FORMATION_WITH_SPECIFIED_SOURCE ( 'ANY', '', #191, .NOT_KNOWN. ) ;
#140 = ORIENTED_EDGE ( 'NONE', *, *, #281, .F. ) ;
#141 = UNCERTAINTY_MEASURE_WITH_UNIT (LENGTH_MEASURE( 1.000000000000000100E-005 ), #232, 'distance_accuracy_value', 'NONE');
#142 = DIRECTION ( 'NONE',  ( 1.000000000000000000, 0.0000000000000000000, -5.691349986800548400E-018 ) ) ;
#143 = LINE ( 'NONE', #61, #199 ) ;
#144 = DIRECTION ( 'NONE',  ( -5.827942386483759700E-018, -2.717192996813919900E-034, -1.000000000000000000 ) ) ;
#145 = AXIS2_PLACEMENT_3D ( 'NONE', #107, #8, #33 ) ;
#146 = CARTESIAN_POINT ( 'NONE',  ( 3.816391647148975600E-014, -19.27830736028844400, 0.5992465062064343800 ) ) ;
#147 = CARTESIAN_POINT ( 'NONE',  ( 19.04999999999999700, -8.881784197001250400E-016, 0.5851238239196509000 ) ) ;
#148 = CARTESIAN_POINT ( 'NONE',  ( 3.469446951953614800E-014, -6.434383772147348200, -0.2000062517414395700 ) ) ;
#149 = DIRECTION ( 'NONE',  ( 1.000000000000000000, 1.776356839400250500E-015, 0.0000000000000000000 ) ) ;
#150 = EDGE_CURVE ( 'NONE', #81, #94, #57, .T. ) ;
#151 = ORIENTED_EDGE ( 'NONE', *, *, #59, .T. ) ;
#152 = AXIS2_PLACEMENT_3D ( 'NONE', #282, #236, #100 ) ;
#153 = CARTESIAN_POINT ( 'NONE',  ( -3.816391647148975600E-014, 6.434383772147445100, 5.200006251741498000 ) ) ;
#154 = PERSON_AND_ORGANIZATION ( #221, #266 ) ;
#155 = PERSON_AND_ORGANIZATION ( #221, #266 ) ;
#156 = APPLICATION_PROTOCOL_DEFINITION ( 'international standard', 'config_control_design', 1994, #289 ) ;
#157 = APPROVAL_ROLE ( '' ) ;
#158 = AXIS2_PLACEMENT_3D ( 'NONE', #201, #200, #230 ) ;
#159 = ORIENTED_EDGE ( 'NONE', *, *, #205, .F. ) ;
#160 = CARTESIAN_POINT ( 'NONE',  ( 19.04999999999999700, -8.881784197001250400E-016, 4.414876176080349900 ) ) ;
#161 = CIRCLE ( 'NONE', #7, 19.05000000000000100 ) ;
#162 = ORIENTED_EDGE ( 'NONE', *, *, #28, .T. ) ;
#163 = CARTESIAN_POINT ( 'NONE',  ( -12.75853888933602000, 19.27830736028856500, 4.203683844231805200 ) ) ;
#164 = CARTESIAN_POINT ( 'NONE',  ( 6.397253181643668200, 6.434383772147425500, -0.2000062517414621900 ) ) ;
#165 = CARTESIAN_POINT ( 'NONE',  ( -4.640617127362766800E-015, -8.881784197001250400E-016, 4.414876176080349900 ) ) ;
#166 = ORIENTED_EDGE ( 'NONE', *, *, #150, .T. ) ;
#167 = CC_DESIGN_DATE_AND_TIME_ASSIGNMENT ( #293, #14, ( #37 ) ) ;
#168 = CARTESIAN_POINT ( 'NONE',  ( 1.136868377216160000E-013, 19.05000000000020000, 0.5851238239196633300 ) ) ;
#169 = LOCAL_TIME ( 13, 56, 58.00000000000000000, #263 ) ;
#170 = CARTESIAN_POINT ( 'NONE',  ( -19.05000000000000400, 1.444773732675583000E-015, 4.414876176080349900 ) ) ;
#171 = CARTESIAN_POINT ( 'NONE',  ( -19.12715738791702700, 19.27830736028852200, 1.190267430696612100 ) ) ;
#172 = CC_DESIGN_PERSON_AND_ORGANIZATION_ASSIGNMENT ( #19, #290, ( #191 ) ) ;
#173 = DIRECTION ( 'NONE',  ( -5.827942386483759700E-018, -2.717192996813919900E-034, -1.000000000000000000 ) ) ;
#174 = DIRECTION ( 'NONE',  ( 1.000000000000000000, 0.0000000000000000000, -5.691349986800548400E-018 ) ) ;
#175 = VERTEX_POINT ( 'NONE', #170 ) ;
#176 = CARTESIAN_POINT ( 'NONE',  ( -4.662936703425659800E-015, -8.881784197001250400E-016, 0.5851238239196510100 ) ) ;
#177 = ORIENTED_EDGE ( 'NONE', *, *, #281, .T. ) ;
#178 = CARTESIAN_POINT ( 'NONE',  ( 6.380791423286273000, -19.27830736028847300, 4.400753493793567700 ) ) ;
#179 = ADVANCED_FACE ( 'NONE', ( #127 ), #276, .T. ) ;
#180 = APPROVAL_DATE_TIME ( #104, #117 ) ;
#181 = EDGE_LOOP ( 'NONE', ( #229, #53, #177 ) ) ;
#182 = CARTESIAN_POINT ( 'NONE',  ( -3.816391647148975600E-014, -19.27830736028846900, 4.400753493793570400 ) ) ;
#183 = CIRCLE ( 'NONE', #75, 19.05000000000000100 ) ;
#184 = EDGE_CURVE ( 'NONE', #295, #94, #257, .T. ) ;
#185 = CARTESIAN_POINT ( 'NONE',  ( -1.136868377216160000E-013, -19.27830736028846900, 4.400753493793541100 ) ) ;
#186 = CARTESIAN_POINT ( 'NONE',  ( 12.79145455296719200, -6.434383772147349100, -0.002428183593982476500 ) ) ;
#187 = CC_DESIGN_APPROVAL ( #74, ( #37 ) ) ;
#188 = COORDINATED_UNIVERSAL_TIME_OFFSET ( 2, 0, .AHEAD. ) ;
#189 = VERTEX_POINT ( 'NONE', #168 ) ;
#190 = DIRECTION ( 'NONE',  ( -5.827942386483759700E-018, -2.717192996813919900E-034, -1.000000000000000000 ) ) ;
#191 = PRODUCT ( '111-0430E BK7 bi-cx 38.1 F400', '111-0430E BK7 bi-cx 38.1 F400', '', ( #44 ) ) ;
#192 = CARTESIAN_POINT ( 'NONE',  ( -12.75853888933615600, -19.27830736028844400, 0.7963161557682350000 ) ) ;
#193 = FACE_OUTER_BOUND ( 'NONE', #233, .T. ) ;
#194 = CARTESIAN_POINT ( 'NONE',  ( -12.75853888933616000, 19.27830736028852200, 0.7963161557681793800 ) ) ;
#195 = CARTESIAN_POINT ( 'NONE',  ( -6.397253181643666400, -6.434383772147348200, -0.2000062517414379900 ) ) ;
#196 = CARTESIAN_POINT ( 'NONE',  ( -6.397253181643663700, 6.434383772147426400, -0.2000062517414896700 ) ) ;
#197 = EDGE_CURVE ( 'NONE', #175, #81, #40, .T. ) ;
#198 = LOCAL_TIME ( 13, 56, 58.00000000000000000, #98 ) ;
#199 = VECTOR ( 'NONE', #97, 1000.000000000000000 ) ;
#200 = DIRECTION ( 'NONE',  ( -1.000000000000000000, 0.0000000000000000000, 0.0000000000000000000 ) ) ;
#201 = CARTESIAN_POINT ( 'NONE',  ( -1.136868377216160000E-013, 8.526512829121199700E-014, -305.3999999999999800 ) ) ;
#202 = AXIS2_PLACEMENT_3D ( 'NONE', #176, #280, #13 ) ;
#203 = CALENDAR_DATE ( 2019, 10, 1 ) ;
#204 = CARTESIAN_POINT ( 'NONE',  ( 6.397253181643663700, 6.434383772147445100, 5.200006251741498000 ) ) ;
#205 = EDGE_CURVE ( 'NONE', #119, #189, #219, .T. ) ;
#206 = PERSON_AND_ORGANIZATION ( #221, #266 ) ;
#207 = EDGE_LOOP ( 'NONE', ( #60, #4, #36, #115, #151, #162 ) ) ;
#208 = CC_DESIGN_PERSON_AND_ORGANIZATION_ASSIGNMENT ( #154, #135, ( #37 ) ) ;
#209 = APPROVAL_STATUS ( 'not_yet_approved' ) ;
#210 = CARTESIAN_POINT ( 'NONE',  ( 19.17650340506382300, -6.434383772147352700, 4.607460556576589800 ) ) ;
#211 = ADVANCED_FACE ( 'NONE', ( #65 ), #231, .T. ) ;
#212 = CARTESIAN_POINT ( 'NONE',  ( 1.136868377216160000E-013, -19.05000000000011400, 0.5851238239196633300 ) ) ;
#213 = CARTESIAN_POINT ( 'NONE',  ( 12.75853888933601300, -19.27830736028844400, 0.7963161557682563200 ) ) ;
#214 = PERSON_AND_ORGANIZATION ( #221, #266 ) ;
#215 = ORIENTED_EDGE ( 'NONE', *, *, #268, .T. ) ;
#216 = CIRCLE ( 'NONE', #68, 19.05000000000000100 ) ;
#217 = CARTESIAN_POINT ( 'NONE',  ( 1.136868377216159800E-013, -6.434383772147349100, -0.2000062517414105700 ) ) ;
#218 = DIRECTION ( 'NONE',  ( -5.827942386483759700E-018, -2.717192996813919900E-034, -1.000000000000000000 ) ) ;
#219 = CIRCLE ( 'NONE', #55, 310.4000000000000300 ) ;
#220 = CARTESIAN_POINT ( 'NONE',  ( 3.816391647148975600E-014, 19.27830736028852200, 0.5992465062063786500 ) ) ;
#221 = PERSON ( 'UNSPECIFIED', 'UNSPECIFIED', 'UNSPECIFIED', ('UNSPECIFIED'), ('UNSPECIFIED'), ('UNSPECIFIED') ) ;
#222 = CARTESIAN_POINT ( 'NONE',  ( -19.17650340506382300, -6.434383772147349100, 0.3925394434234175700 ) ) ;
#223 = CARTESIAN_POINT ( 'NONE',  ( 12.75853888933601600, 19.27830736028852200, 0.7963161557682008100 ) ) ;
#224 = CALENDAR_DATE ( 2019, 10, 1 ) ;
#225 = DATE_AND_TIME ( #245, #58 ) ;
#226 = DIRECTION ( 'NONE',  ( 0.0000000000000000000, -1.000000000000000000, -3.576749435003725600E-016 ) ) ;
#227 = CC_DESIGN_PERSON_AND_ORGANIZATION_ASSIGNMENT ( #206, #120, ( #139 ) ) ;
#228 = COORDINATED_UNIVERSAL_TIME_OFFSET ( 2, 0, .AHEAD. ) ;
#229 = ORIENTED_EDGE ( 'NONE', *, *, #22, .T. ) ;
#230 = DIRECTION ( 'NONE',  ( 0.0000000000000000000, -1.000000000000000000, 7.153498870007451200E-016 ) ) ;
#231 =( BOUNDED_SURFACE ( )  B_SPLINE_SURFACE ( 3, 3, ( 
 ( #110, #192, #35, #146 ),
 ( #222, #72, #195, #148 ),
 ( #91, #52, #196, #6 ),
 ( #171, #194, #92, #220 ) ),
 .UNSPECIFIED., .F., .F., .T. ) 
 B_SPLINE_SURFACE_WITH_KNOTS ( ( 4, 4 ),
 ( 4, 4 ),
 ( 0.0000000000000000000, 1.000000000000000000 ),
 ( 0.0000000000000000000, 1.000000000000000000 ),
 .UNSPECIFIED. ) 
 GEOMETRIC_REPRESENTATION_ITEM ( )  RATIONAL_B_SPLINE_SURFACE ( (
 ( 1.000000000000000000, 0.9996819665947898100, 0.9996819665947898100, 1.000000000000000000),
 ( 0.9987129585347799300, 0.9983953344517495500, 0.9983953344517495500, 0.9987129585347799300),
 ( 0.9987129585347799300, 0.9983953344517495500, 0.9983953344517495500, 0.9987129585347799300),
 ( 1.000000000000000000, 0.9996819665947898100, 0.9996819665947898100, 1.000000000000000000) ) ) 
 REPRESENTATION_ITEM ( '' )  SURFACE ( )  );
#232 =( LENGTH_UNIT ( ) NAMED_UNIT ( * ) SI_UNIT ( .MILLI., .METRE. ) );
#233 = EDGE_LOOP ( 'NONE', ( #12, #215, #99 ) ) ;
#234 = PERSON_AND_ORGANIZATION ( #221, #266 ) ;
#235 =( NAMED_UNIT ( * ) SI_UNIT ( $, .STERADIAN. ) SOLID_ANGLE_UNIT ( ) );
#236 = DIRECTION ( 'NONE',  ( 0.0000000000000000000, 0.0000000000000000000, 1.000000000000000000 ) ) ;
#237 = AXIS2_PLACEMENT_3D ( 'NONE', #34, #260, #149 ) ;
#238 = CARTESIAN_POINT ( 'NONE',  ( -1.136868377216160000E-013, -19.05000000000011400, 4.414876176080339200 ) ) ;
#239 = APPLICATION_CONTEXT ( 'configuration controlled 3d designs of mechanical parts and assemblies' ) ;
#240 = DIRECTION ( 'NONE',  ( 1.000000000000000000, 0.0000000000000000000, -5.691349986800548400E-018 ) ) ;
#241 = EDGE_LOOP ( 'NONE', ( #253, #124, #62 ) ) ;
#242 = SECURITY_CLASSIFICATION_LEVEL ( 'unclassified' ) ;
#243 = APPROVAL ( #64, 'UNSPECIFIED' ) ;
#244 = VECTOR ( 'NONE', #54, 1000.000000000000000 ) ;
#245 = CALENDAR_DATE ( 2019, 10, 1 ) ;
#246 = EDGE_CURVE ( 'NONE', #119, #279, #216, .T. ) ;
#247 = CARTESIAN_POINT ( 'NONE',  ( -12.79145455296719700, -6.434383772147353600, 5.002428183593989900 ) ) ;
#248 = CC_DESIGN_PERSON_AND_ORGANIZATION_ASSIGNMENT ( #131, #21, ( #258 ) ) ;
#249 = CARTESIAN_POINT ( 'NONE',  ( 12.79145455296719400, 6.434383772147425500, -0.002428183594034029900 ) ) ;
#250 = ORIENTED_EDGE ( 'NONE', *, *, #270, .T. ) ;
#251 = PERSON_AND_ORGANIZATION ( #221, #266 ) ;
#252 = CARTESIAN_POINT ( 'NONE',  ( -6.380791423286281000, 19.27830736028856500, 4.400753493793596100 ) ) ;
#253 = ORIENTED_EDGE ( 'NONE', *, *, #268, .F. ) ;
#254 = CARTESIAN_POINT ( 'NONE',  ( 1.136868377216160000E-013, 19.27830736028852200, 0.5992465062064078500 ) ) ;
#255 = EDGE_CURVE ( 'NONE', #279, #189, #38, .T. ) ;
#256 = CARTESIAN_POINT ( 'NONE',  ( 1.136868377216160000E-013, 8.526512829121199700E-014, 310.4000000000000300 ) ) ;
#257 = LINE ( 'NONE', #147, #244 ) ;
#258 = SECURITY_CLASSIFICATION ( '', '', #242 ) ;
#259 = DIRECTION ( 'NONE',  ( 1.000000000000000000, -8.881784197001252300E-016, 0.0000000000000000000 ) ) ;
#260 = DIRECTION ( 'NONE',  ( -5.827942386483759700E-018, -2.717192996813919900E-034, -1.000000000000000000 ) ) ;
#261 =( BOUNDED_SURFACE ( )  B_SPLINE_SURFACE ( 3, 3, ( 
 ( #185, #67, #30, #50 ),
 ( #105, #274, #247, #46 ),
 ( #66, #27, #89, #106 ),
 ( #71, #252, #163, #25 ) ),
 .UNSPECIFIED., .F., .F., .T. ) 
 B_SPLINE_SURFACE_WITH_KNOTS ( ( 4, 4 ),
 ( 4, 4 ),
 ( 0.0000000000000000000, 1.000000000000000000 ),
 ( 0.0000000000000000000, 1.000000000000000000 ),
 .UNSPECIFIED. ) 
 GEOMETRIC_REPRESENTATION_ITEM ( )  RATIONAL_B_SPLINE_SURFACE ( (
 ( 1.000000000000000000, 0.9996819665947898100, 0.9996819665947898100, 1.000000000000000000),
 ( 0.9987129585347799300, 0.9983953344517495500, 0.9983953344517495500, 0.9987129585347799300),
 ( 0.9987129585347799300, 0.9983953344517495500, 0.9983953344517495500, 0.9987129585347799300),
 ( 1.000000000000000000, 0.9996819665947898100, 0.9996819665947898100, 1.000000000000000000) ) ) 
 REPRESENTATION_ITEM ( '' )  SURFACE ( )  );
#262 = EDGE_LOOP ( 'NONE', ( #69, #250, #272, #166, #109, #140 ) ) ;
#263 = COORDINATED_UNIVERSAL_TIME_OFFSET ( 2, 0, .AHEAD. ) ;
#264 = CARTESIAN_POINT ( 'NONE',  ( -4.662936703425659800E-015, -8.881784197001250400E-016, 0.5851238239196511200 ) ) ;
#265 = DIRECTION ( 'NONE',  ( -5.827942386483759700E-018, -2.717192996813919900E-034, -1.000000000000000000 ) ) ;
#266 = ORGANIZATION ( 'UNSPECIFIED', 'UNSPECIFIED', '' ) ;
#267 = PERSON_AND_ORGANIZATION_ROLE ( 'creator' ) ;
#268 = EDGE_CURVE ( 'NONE', #20, #81, #70, .T. ) ;
#269 = ADVANCED_FACE ( 'NONE', ( #129 ), #84, .T. ) ;
#270 = EDGE_CURVE ( 'NONE', #279, #175, #143, .T. ) ;
#271 = CC_DESIGN_SECURITY_CLASSIFICATION ( #258, ( #139 ) ) ;
#272 = ORIENTED_EDGE ( 'NONE', *, *, #197, .T. ) ;
#273 = CARTESIAN_POINT ( 'NONE',  ( 19.17650340506353500, 6.434383772147426400, 0.3925394434233674400 ) ) ;
#274 = CARTESIAN_POINT ( 'NONE',  ( -6.397253181643670800, -6.434383772147352700, 5.200006251741418100 ) ) ;
#275 = DATE_AND_TIME ( #224, #56 ) ;
#276 = CYLINDRICAL_SURFACE ( 'NONE', #145, 19.05000000000000100 ) ;
#277 = CARTESIAN_POINT ( 'NONE',  ( -4.640617127362766800E-015, -8.881784197001250400E-016, 4.414876176080349900 ) ) ;
#278 = CALENDAR_DATE ( 2019, 10, 1 ) ;
#279 = VERTEX_POINT ( 'NONE', #41 ) ;
#280 = DIRECTION ( 'NONE',  ( 5.827942386483759700E-018, 2.717192996813919900E-034, 1.000000000000000000 ) ) ;
#281 = EDGE_CURVE ( 'NONE', #189, #295, #137, .T. ) ;
#282 = CARTESIAN_POINT ( 'NONE',  ( 0.0000000000000000000, 0.0000000000000000000, 0.0000000000000000000 ) ) ;
#283 =( BOUNDED_SURFACE ( )  B_SPLINE_SURFACE ( 3, 3, ( 
 ( #95, #45, #178, #182 ),
 ( #210, #118, #16, #82 ),
 ( #96, #116, #204, #153 ),
 ( #136, #17, #80, #114 ) ),
 .UNSPECIFIED., .F., .F., .T. ) 
 B_SPLINE_SURFACE_WITH_KNOTS ( ( 4, 4 ),
 ( 4, 4 ),
 ( 0.0000000000000000000, 1.000000000000000000 ),
 ( 0.0000000000000000000, 1.000000000000000000 ),
 .UNSPECIFIED. ) 
 GEOMETRIC_REPRESENTATION_ITEM ( )  RATIONAL_B_SPLINE_SURFACE ( (
 ( 1.000000000000000000, 0.9996819665947898100, 0.9996819665947898100, 1.000000000000000000),
 ( 0.9987129585347799300, 0.9983953344517495500, 0.9983953344517495500, 0.9987129585347799300),
 ( 0.9987129585347799300, 0.9983953344517495500, 0.9983953344517495500, 0.9987129585347799300),
 ( 1.000000000000000000, 0.9996819665947898100, 0.9996819665947898100, 1.000000000000000000) ) ) 
 REPRESENTATION_ITEM ( '' )  SURFACE ( )  );
#284 = DIRECTION ( 'NONE',  ( 1.000000000000000000, 0.0000000000000000000, -5.691349986800548400E-018 ) ) ;
#285 = AXIS2_PLACEMENT_3D ( 'NONE', #133, #144, #142 ) ;
#286 = APPLICATION_PROTOCOL_DEFINITION ( 'international standard', 'config_control_design', 1994, #239 ) ;
#287 = ADVANCED_FACE ( 'NONE', ( #288 ), #283, .T. ) ;
#288 = FACE_OUTER_BOUND ( 'NONE', #241, .T. ) ;
#289 = APPLICATION_CONTEXT ( 'configuration controlled 3d designs of mechanical parts and assemblies' ) ;
#290 = PERSON_AND_ORGANIZATION_ROLE ( 'design_owner' ) ;
#291 = APPROVAL_STATUS ( 'not_yet_approved' ) ;
#292 = PRODUCT_RELATED_PRODUCT_CATEGORY ( 'detail', '', ( #191 ) ) ;
#293 = DATE_AND_TIME ( #203, #198 ) ;
#294 = CARTESIAN_POINT ( 'NONE',  ( 6.397253181643668200, -6.434383772147349100, -0.2000062517414105400 ) ) ;
#295 = VERTEX_POINT ( 'NONE', #78 ) ;
ENDSEC;
END-ISO-10303-21;
