ISO-10303-21;
HEADER;
FILE_DESCRIPTION (( 'STEP AP203' ),
    '1' );
FILE_NAME ('111-0426E BK7 bi-cx 38.1 F300.STEP',
    '2019-01-10T11:35:56',
    ( '' ),
    ( '' ),
    'SwSTEP 2.0',
    'SolidWorks 2017',
    '' );
FILE_SCHEMA (( 'CONFIG_CONTROL_DESIGN' ));
ENDSEC;

DATA;
#1 = CARTESIAN_POINT ( 'NONE',  ( -4.662936703425659800E-015, -8.881784197001250400E-016, 0.5851238239196510100 ) ) ;
#2 = APPROVAL_STATUS ( 'not_yet_approved' ) ;
#3 = CARTESIAN_POINT ( 'NONE',  ( -4.640617127362766800E-015, -8.881784197001250400E-016, 4.414876176080349900 ) ) ;
#4 = PERSON_AND_ORGANIZATION ( #232, #52 ) ;
#5 = EDGE_CURVE ( 'NONE', #102, #81, #56, .T. ) ;
#6 = CALENDAR_DATE ( 2019, 10, 1 ) ;
#7 = ORIENTED_EDGE ( 'NONE', *, *, #142, .F. ) ;
#8 = ADVANCED_FACE ( 'NONE', ( #114 ), #123, .T. ) ;
#9 = CARTESIAN_POINT ( 'NONE',  ( -1.136868377216159800E-013, 6.434383772147445100, 5.200006251741470500 ) ) ;
#10 = CYLINDRICAL_SURFACE ( 'NONE', #187, 19.05000000000000100 ) ;
#11 = DIRECTION ( 'NONE',  ( 5.827942386483759700E-018, 2.717192996813919900E-034, 1.000000000000000000 ) ) ;
#12 = CARTESIAN_POINT ( 'NONE',  ( 12.79145455296719200, -6.434383772147349100, -0.002428183593982476500 ) ) ;
#13 = FACE_OUTER_BOUND ( 'NONE', #90, .T. ) ;
#14 = ORIENTED_EDGE ( 'NONE', *, *, #162, .T. ) ;
#15 = DIRECTION ( 'NONE',  ( 1.000000000000000000, -8.881784197001252300E-016, 0.0000000000000000000 ) ) ;
#16 = AXIS2_PLACEMENT_3D ( 'NONE', #234, #197, #199 ) ;
#17 = CARTESIAN_POINT ( 'NONE',  ( 12.79145455296733800, 6.434383772147445100, 5.002428183594061800 ) ) ;
#18 = ORIENTED_EDGE ( 'NONE', *, *, #128, .F. ) ;
#19 =( LENGTH_UNIT ( ) NAMED_UNIT ( * ) SI_UNIT ( .MILLI., .METRE. ) );
#20 = DIRECTION ( 'NONE',  ( 0.0000000000000000000, 0.0000000000000000000, 1.000000000000000000 ) ) ;
#21 = CARTESIAN_POINT ( 'NONE',  ( -6.397253181643671700, 6.434383772147445100, 5.200006251741469600 ) ) ;
#22 = ORIENTED_EDGE ( 'NONE', *, *, #142, .T. ) ;
#23 = ORIENTED_EDGE ( 'NONE', *, *, #128, .T. ) ;
#24 = APPROVAL_ROLE ( '' ) ;
#25 = DIRECTION ( 'NONE',  ( -5.827942386483759700E-018, -2.717192996813919900E-034, -1.000000000000000000 ) ) ;
#26 = CARTESIAN_POINT ( 'NONE',  ( -6.397253181643670800, -6.434383772147352700, 5.200006251741418100 ) ) ;
#27 = CC_DESIGN_DATE_AND_TIME_ASSIGNMENT ( #113, #93, ( #212 ) ) ;
#28 = ADVANCED_FACE ( 'NONE', ( #89 ), #100, .T. ) ;
#29 = EDGE_LOOP ( 'NONE', ( #7, #23, #50 ) ) ;
#30 = CC_DESIGN_APPROVAL ( #205, ( #212 ) ) ;
#31 = EDGE_CURVE ( 'NONE', #193, #283, #127, .T. ) ;
#32 = ORIENTED_EDGE ( 'NONE', *, *, #111, .F. ) ;
#33 = AXIS2_PLACEMENT_3D ( 'NONE', #215, #78, #237 ) ;
#34 = ORIENTED_EDGE ( 'NONE', *, *, #208, .F. ) ;
#35 = CARTESIAN_POINT ( 'NONE',  ( -19.12715738791674600, 19.27830736028856500, 3.809732569303391400 ) ) ;
#36 = DIRECTION ( 'NONE',  ( -5.827942386483759700E-018, -2.717192996813919900E-034, -1.000000000000000000 ) ) ;
#37 = CARTESIAN_POINT ( 'NONE',  ( 12.75853888933615600, -19.27830736028847300, 4.203683844231769700 ) ) ;
#38 = CARTESIAN_POINT ( 'NONE',  ( -3.469446951953614800E-014, -6.434383772147352700, 5.200006251741447400 ) ) ;
#39 = APPROVAL_DATE_TIME ( #61, #205 ) ;
#40 = CYLINDRICAL_SURFACE ( 'NONE', #42, 19.05000000000000100 ) ;
#41 = DIRECTION ( 'NONE',  ( 1.000000000000000000, 0.0000000000000000000, -5.691349986800548400E-018 ) ) ;
#42 = AXIS2_PLACEMENT_3D ( 'NONE', #116, #221, #117 ) ;
#43 = PRODUCT_DEFINITION_SHAPE ( 'NONE', 'NONE',  #212 ) ;
#44 = CARTESIAN_POINT ( 'NONE',  ( -19.17650340506354200, 6.434383772147444200, 4.607460556576640400 ) ) ;
#45 = CARTESIAN_POINT ( 'NONE',  ( -6.380791423286273000, -19.27830736028844400, 0.5992465062064358200 ) ) ;
#46 = CARTESIAN_POINT ( 'NONE',  ( -12.75853888933615600, -19.27830736028844400, 0.7963161557682350000 ) ) ;
#47 = DATE_AND_TIME ( #6, #242 ) ;
#48 = DATE_TIME_ROLE ( 'classification_date' ) ;
#49 = CC_DESIGN_DATE_AND_TIME_ASSIGNMENT ( #47, #48, ( #256 ) ) ;
#50 = ORIENTED_EDGE ( 'NONE', *, *, #158, .F. ) ;
#51 = EDGE_CURVE ( 'NONE', #246, #193, #220, .T. ) ;
#52 = ORGANIZATION ( 'UNSPECIFIED', 'UNSPECIFIED', '' ) ;
#53 = CC_DESIGN_PERSON_AND_ORGANIZATION_ASSIGNMENT ( #195, #96, ( #159 ) ) ;
#54 = PERSON_AND_ORGANIZATION ( #232, #52 ) ;
#55 = CARTESIAN_POINT ( 'NONE',  ( -19.05000000000000400, 1.444773732675583000E-015, 0.5851238239196511200 ) ) ;
#56 = CIRCLE ( 'NONE', #219, 19.05000000000000100 ) ;
#57 = EDGE_LOOP ( 'NONE', ( #203, #171, #144, #271, #34, #258 ) ) ;
#58 = DIRECTION ( 'NONE',  ( 1.000000000000000000, 0.0000000000000000000, 0.0000000000000000000 ) ) ;
#59 = CARTESIAN_POINT ( 'NONE',  ( 1.136868377216159800E-013, -6.434383772147349100, -0.2000062517414105700 ) ) ;
#60 = DIRECTION ( 'NONE',  ( 0.0000000000000000000, -1.000000000000000000, 7.153498870007451200E-016 ) ) ;
#61 = DATE_AND_TIME ( #95, #196 ) ;
#62 = CARTESIAN_POINT ( 'NONE',  ( 1.136868377216160000E-013, -19.27830736028844400, 0.5992465062064633600 ) ) ;
#63 = EDGE_CURVE ( 'NONE', #246, #293, #75, .T. ) ;
#64 = APPROVAL_PERSON_ORGANIZATION ( #4, #214, #72 ) ;
#65 = ORIENTED_EDGE ( 'NONE', *, *, #179, .T. ) ;
#66 = CARTESIAN_POINT ( 'NONE',  ( -3.816391647148975600E-014, 19.27830736028856500, 4.400753493793626300 ) ) ;
#67 = CARTESIAN_POINT ( 'NONE',  ( -4.662936703425659800E-015, -8.881784197001250400E-016, 0.5851238239196511200 ) ) ;
#68 = CARTESIAN_POINT ( 'NONE',  ( -19.12715738791702700, 19.27830736028852200, 1.190267430696612100 ) ) ;
#69 = CARTESIAN_POINT ( 'NONE',  ( -6.397253181643666400, -6.434383772147348200, -0.2000062517414379900 ) ) ;
#70 = APPROVAL_STATUS ( 'not_yet_approved' ) ;
#71 = CARTESIAN_POINT ( 'NONE',  ( -19.17650340506353900, -6.434383772147353600, 4.607460556576588900 ) ) ;
#72 = APPROVAL_ROLE ( '' ) ;
#73 = CARTESIAN_POINT ( 'NONE',  ( 3.469446951953614800E-014, -6.434383772147348200, -0.2000062517414395700 ) ) ;
#74 = DATE_AND_TIME ( #182, #189 ) ;
#75 = LINE ( 'NONE', #55, #236 ) ;
#76 = ORIENTED_EDGE ( 'NONE', *, *, #179, .F. ) ;
#77 = CC_DESIGN_SECURITY_CLASSIFICATION ( #256, ( #159 ) ) ;
#78 = DIRECTION ( 'NONE',  ( -5.827942386483759700E-018, -2.717192996813919900E-034, -1.000000000000000000 ) ) ;
#79 = CARTESIAN_POINT ( 'NONE',  ( -1.136868377216160000E-013, 8.526512829121199700E-014, -305.3999999999999800 ) ) ;
#80 = CARTESIAN_POINT ( 'NONE',  ( 12.79145455296719400, 6.434383772147425500, -0.002428183594034029900 ) ) ;
#81 = VERTEX_POINT ( 'NONE', #105 ) ;
#82 = CARTESIAN_POINT ( 'NONE',  ( -4.640617127362766800E-015, -8.881784197001250400E-016, 4.414876176080349900 ) ) ;
#83 = CARTESIAN_POINT ( 'NONE',  ( 12.75853888933601600, 19.27830736028852200, 0.7963161557682008100 ) ) ;
#84 = APPROVAL_DATE_TIME ( #286, #214 ) ;
#85 = VERTEX_POINT ( 'NONE', #124 ) ;
#86 = MECHANICAL_CONTEXT ( 'NONE', #180, 'mechanical' ) ;
#87 =( NAMED_UNIT ( * ) SI_UNIT ( $, .STERADIAN. ) SOLID_ANGLE_UNIT ( ) );
#88 = DIRECTION ( 'NONE',  ( 1.000000000000000000, 0.0000000000000000000, 0.0000000000000000000 ) ) ;
#89 = FACE_OUTER_BOUND ( 'NONE', #29, .T. ) ;
#90 = EDGE_LOOP ( 'NONE', ( #198, #263, #206, #223, #143, #22 ) ) ;
#91 = CARTESIAN_POINT ( 'NONE',  ( -12.75853888933602000, 19.27830736028856500, 4.203683844231805200 ) ) ;
#92 = CARTESIAN_POINT ( 'NONE',  ( -12.79145455296733900, -6.434383772147349100, -0.002428183594003671800 ) ) ;
#93 = DATE_TIME_ROLE ( 'creation_date' ) ;
#94 = CARTESIAN_POINT ( 'NONE',  ( 3.816391647148975600E-014, 6.434383772147427300, -0.2000062517414912300 ) ) ;
#95 = CALENDAR_DATE ( 2019, 10, 1 ) ;
#96 = PERSON_AND_ORGANIZATION_ROLE ( 'creator' ) ;
#97 = ORIENTED_EDGE ( 'NONE', *, *, #51, .T. ) ;
#98 = APPROVAL_ROLE ( '' ) ;
#99 = APPROVAL ( #70, 'UNSPECIFIED' ) ;
#100 =( BOUNDED_SURFACE ( )  B_SPLINE_SURFACE ( 3, 3, ( 
 ( #274, #255, #122, #145 ),
 ( #191, #26, #252, #71 ),
 ( #9, #21, #188, #44 ),
 ( #207, #226, #91, #35 ) ),
 .UNSPECIFIED., .F., .F., .F. ) 
 B_SPLINE_SURFACE_WITH_KNOTS ( ( 4, 4 ),
 ( 4, 4 ),
 ( 0.0000000000000000000, 1.000000000000000000 ),
 ( 0.0000000000000000000, 1.000000000000000000 ),
 .UNSPECIFIED. ) 
 GEOMETRIC_REPRESENTATION_ITEM ( )  RATIONAL_B_SPLINE_SURFACE ( (
 ( 1.000000000000000000, 0.9996819665947898100, 0.9996819665947898100, 1.000000000000000000),
 ( 0.9987129585347799300, 0.9983953344517495500, 0.9983953344517495500, 0.9987129585347799300),
 ( 0.9987129585347799300, 0.9983953344517495500, 0.9983953344517495500, 0.9987129585347799300),
 ( 1.000000000000000000, 0.9996819665947898100, 0.9996819665947898100, 1.000000000000000000) ) ) 
 REPRESENTATION_ITEM ( '' )  SURFACE ( )  );
#101 = EDGE_LOOP ( 'NONE', ( #76, #14, #97 ) ) ;
#102 = VERTEX_POINT ( 'NONE', #125 ) ;
#103 = ADVANCED_FACE ( 'NONE', ( #120 ), #119, .T. ) ;
#104 = APPROVAL_PERSON_ORGANIZATION ( #235, #205, #24 ) ;
#105 = CARTESIAN_POINT ( 'NONE',  ( 19.04999999999999700, -8.881784197001250400E-016, 4.414876176080349900 ) ) ;
#106 = COORDINATED_UNIVERSAL_TIME_OFFSET ( 2, 0, .AHEAD. ) ;
#107 = CIRCLE ( 'NONE', #249, 19.05000000000000100 ) ;
#108 = CARTESIAN_POINT ( 'NONE',  ( 19.12715738791673900, 19.27830736028852200, 1.190267430696613900 ) ) ;
#109 = COORDINATED_UNIVERSAL_TIME_OFFSET ( 2, 0, .AHEAD. ) ;
#110 = CARTESIAN_POINT ( 'NONE',  ( 19.12715738791702300, -19.27830736028846900, 3.809732569303336800 ) ) ;
#111 = EDGE_CURVE ( 'NONE', #81, #85, #261, .T. ) ;
#112 = DIRECTION ( 'NONE',  ( 1.000000000000000000, 0.0000000000000000000, -5.691349986800548400E-018 ) ) ;
#113 = DATE_AND_TIME ( #290, #170 ) ;
#114 = FACE_OUTER_BOUND ( 'NONE', #101, .T. ) ;
#115 = CARTESIAN_POINT ( 'NONE',  ( -19.05000000000000400, 1.444773732675583000E-015, 4.414876176080349900 ) ) ;
#116 = CARTESIAN_POINT ( 'NONE',  ( -4.662936703425659800E-015, -8.881784197001250400E-016, 0.5851238239196510100 ) ) ;
#117 = DIRECTION ( 'NONE',  ( 1.000000000000000000, 0.0000000000000000000, -5.691349986800548400E-018 ) ) ;
#118 = CARTESIAN_POINT ( 'NONE',  ( -12.79145455296733800, 6.434383772147425500, -0.002428183594055389500 ) ) ;
#119 =( BOUNDED_SURFACE ( )  B_SPLINE_SURFACE ( 3, 3, ( 
 ( #62, #238, #152, #218 ),
 ( #59, #176, #12, #266 ),
 ( #284, #217, #80, #129 ),
 ( #151, #174, #83, #108 ) ),
 .UNSPECIFIED., .F., .F., .T. ) 
 B_SPLINE_SURFACE_WITH_KNOTS ( ( 4, 4 ),
 ( 4, 4 ),
 ( 0.0000000000000000000, 1.000000000000000000 ),
 ( 0.0000000000000000000, 1.000000000000000000 ),
 .UNSPECIFIED. ) 
 GEOMETRIC_REPRESENTATION_ITEM ( )  RATIONAL_B_SPLINE_SURFACE ( (
 ( 1.000000000000000000, 0.9996819665947898100, 0.9996819665947898100, 1.000000000000000000),
 ( 0.9987129585347799300, 0.9983953344517495500, 0.9983953344517495500, 0.9987129585347799300),
 ( 0.9987129585347799300, 0.9983953344517495500, 0.9983953344517495500, 0.9987129585347799300),
 ( 1.000000000000000000, 0.9996819665947898100, 0.9996819665947898100, 1.000000000000000000) ) ) 
 REPRESENTATION_ITEM ( '' )  SURFACE ( )  );
#120 = FACE_OUTER_BOUND ( 'NONE', #172, .T. ) ;
#121 = AXIS2_PLACEMENT_3D ( 'NONE', #67, #248, #41 ) ;
#122 = CARTESIAN_POINT ( 'NONE',  ( -12.75853888933602000, -19.27830736028847300, 4.203683844231750100 ) ) ;
#123 =( BOUNDED_SURFACE ( )  B_SPLINE_SURFACE ( 3, 3, ( 
 ( #209, #46, #45, #164 ),
 ( #253, #92, #69, #73 ),
 ( #229, #118, #139, #94 ),
 ( #68, #163, #192, #254 ) ),
 .UNSPECIFIED., .F., .F., .F. ) 
 B_SPLINE_SURFACE_WITH_KNOTS ( ( 4, 4 ),
 ( 4, 4 ),
 ( 0.0000000000000000000, 1.000000000000000000 ),
 ( 0.0000000000000000000, 1.000000000000000000 ),
 .UNSPECIFIED. ) 
 GEOMETRIC_REPRESENTATION_ITEM ( )  RATIONAL_B_SPLINE_SURFACE ( (
 ( 1.000000000000000000, 0.9996819665947898100, 0.9996819665947898100, 1.000000000000000000),
 ( 0.9987129585347799300, 0.9983953344517495500, 0.9983953344517495500, 0.9987129585347799300),
 ( 0.9987129585347799300, 0.9983953344517495500, 0.9983953344517495500, 0.9987129585347799300),
 ( 1.000000000000000000, 0.9996819665947898100, 0.9996819665947898100, 1.000000000000000000) ) ) 
 REPRESENTATION_ITEM ( '' )  SURFACE ( )  );
#124 = CARTESIAN_POINT ( 'NONE',  ( -1.136868377216160000E-013, -19.05000000000011400, 4.414876176080339200 ) ) ;
#125 = CARTESIAN_POINT ( 'NONE',  ( -1.136868377216160000E-013, 19.05000000000020000, 4.414876176080339200 ) ) ;
#126 = AXIS2_PLACEMENT_3D ( 'NONE', #82, #243, #58 ) ;
#127 = CIRCLE ( 'NONE', #16, 19.05000000000000100 ) ;
#128 = EDGE_CURVE ( 'NONE', #85, #102, #167, .T. ) ;
#129 = CARTESIAN_POINT ( 'NONE',  ( 19.17650340506353500, 6.434383772147426400, 0.3925394434233674400 ) ) ;
#130 = DIRECTION ( 'NONE',  ( 1.000000000000000000, 0.0000000000000000000, 0.0000000000000000000 ) ) ;
#131 = CC_DESIGN_PERSON_AND_ORGANIZATION_ASSIGNMENT ( #245, #277, ( #256 ) ) ;
#132 = CARTESIAN_POINT ( 'NONE',  ( 6.397253181643666400, -6.434383772147352700, 5.200006251741445600 ) ) ;
#133 = PERSON_AND_ORGANIZATION ( #232, #52 ) ;
#134 = ORIENTED_EDGE ( 'NONE', *, *, #31, .T. ) ;
#135 = CARTESIAN_POINT ( 'NONE',  ( 0.0000000000000000000, 0.0000000000000000000, 0.0000000000000000000 ) ) ;
#136 = CARTESIAN_POINT ( 'NONE',  ( -3.816391647148975600E-014, -19.27830736028846900, 4.400753493793570400 ) ) ;
#137 =( GEOMETRIC_REPRESENTATION_CONTEXT ( 3 ) GLOBAL_UNCERTAINTY_ASSIGNED_CONTEXT ( ( #177 ) ) GLOBAL_UNIT_ASSIGNED_CONTEXT ( ( #19, #161, #87 ) ) REPRESENTATION_CONTEXT ( 'NONE', 'WORKASPACE' ) );
#138 = EDGE_LOOP ( 'NONE', ( #18, #32, #279 ) ) ;
#139 = CARTESIAN_POINT ( 'NONE',  ( -6.397253181643663700, 6.434383772147426400, -0.2000062517414896700 ) ) ;
#140 = PERSON_AND_ORGANIZATION_ROLE ( 'design_supplier' ) ;
#141 = FACE_OUTER_BOUND ( 'NONE', #138, .T. ) ;
#142 = EDGE_CURVE ( 'NONE', #85, #293, #282, .T. ) ;
#143 = ORIENTED_EDGE ( 'NONE', *, *, #111, .T. ) ;
#144 = ORIENTED_EDGE ( 'NONE', *, *, #158, .T. ) ;
#145 = CARTESIAN_POINT ( 'NONE',  ( -19.12715738791674300, -19.27830736028846900, 3.809732569303335900 ) ) ;
#146 = PERSON_AND_ORGANIZATION ( #232, #52 ) ;
#147 = LINE ( 'NONE', #225, #269 ) ;
#148 = AXIS2_PLACEMENT_3D ( 'NONE', #135, #20, #267 ) ;
#149 = CARTESIAN_POINT ( 'NONE',  ( -4.662936703425659800E-015, -8.881784197001250400E-016, 0.5851238239196511200 ) ) ;
#150 = CIRCLE ( 'NONE', #121, 19.05000000000000100 ) ;
#151 = CARTESIAN_POINT ( 'NONE',  ( 1.136868377216160000E-013, 19.27830736028852200, 0.5992465062064078500 ) ) ;
#152 = CARTESIAN_POINT ( 'NONE',  ( 12.75853888933601300, -19.27830736028844400, 0.7963161557682563200 ) ) ;
#153 = SHAPE_DEFINITION_REPRESENTATION ( #43, #287 ) ;
#154 = CARTESIAN_POINT ( 'NONE',  ( -19.05000000000000400, 1.444773732675583000E-015, 0.5851238239196512300 ) ) ;
#155 = AXIS2_PLACEMENT_3D ( 'NONE', #216, #265, #130 ) ;
#156 = APPLICATION_CONTEXT ( 'configuration controlled 3d designs of mechanical parts and assemblies' ) ;
#157 = DIRECTION ( 'NONE',  ( 0.0000000000000000000, -1.000000000000000000, -3.576749435003725600E-016 ) ) ;
#158 = EDGE_CURVE ( 'NONE', #293, #102, #107, .T. ) ;
#159 = PRODUCT_DEFINITION_FORMATION_WITH_SPECIFIED_SOURCE ( 'ANY', '', #240, .NOT_KNOWN. ) ;
#160 = CARTESIAN_POINT ( 'NONE',  ( 12.75853888933616000, 19.27830736028856500, 4.203683844231826500 ) ) ;
#161 =( NAMED_UNIT ( * ) PLANE_ANGLE_UNIT ( ) SI_UNIT ( $, .RADIAN. ) );
#162 = EDGE_CURVE ( 'NONE', #183, #246, #200, .T. ) ;
#163 = CARTESIAN_POINT ( 'NONE',  ( -12.75853888933616000, 19.27830736028852200, 0.7963161557681793800 ) ) ;
#164 = CARTESIAN_POINT ( 'NONE',  ( 3.816391647148975600E-014, -19.27830736028844400, 0.5992465062064343800 ) ) ;
#165 = ADVANCED_FACE ( 'NONE', ( #141 ), #168, .T. ) ;
#166 = CC_DESIGN_PERSON_AND_ORGANIZATION_ASSIGNMENT ( #133, #273, ( #212 ) ) ;
#167 = CIRCLE ( 'NONE', #231, 310.4000000000000300 ) ;
#168 =( BOUNDED_SURFACE ( )  B_SPLINE_SURFACE ( 3, 3, ( 
 ( #110, #37, #181, #136 ),
 ( #294, #250, #132, #38 ),
 ( #244, #17, #184, #185 ),
 ( #268, #160, #270, #66 ) ),
 .UNSPECIFIED., .F., .F., .T. ) 
 B_SPLINE_SURFACE_WITH_KNOTS ( ( 4, 4 ),
 ( 4, 4 ),
 ( 0.0000000000000000000, 1.000000000000000000 ),
 ( 0.0000000000000000000, 1.000000000000000000 ),
 .UNSPECIFIED. ) 
 GEOMETRIC_REPRESENTATION_ITEM ( )  RATIONAL_B_SPLINE_SURFACE ( (
 ( 1.000000000000000000, 0.9996819665947898100, 0.9996819665947898100, 1.000000000000000000),
 ( 0.9987129585347799300, 0.9983953344517495500, 0.9983953344517495500, 0.9987129585347799300),
 ( 0.9987129585347799300, 0.9983953344517495500, 0.9983953344517495500, 0.9987129585347799300),
 ( 1.000000000000000000, 0.9996819665947898100, 0.9996819665947898100, 1.000000000000000000) ) ) 
 REPRESENTATION_ITEM ( '' )  SURFACE ( )  );
#169 = ADVANCED_FACE ( 'NONE', ( #213 ), #40, .T. ) ;
#170 = LOCAL_TIME ( 13, 35, 56.00000000000000000, #278 ) ;
#171 = ORIENTED_EDGE ( 'NONE', *, *, #63, .T. ) ;
#172 = EDGE_LOOP ( 'NONE', ( #264, #65, #134 ) ) ;
#173 = PRODUCT_RELATED_PRODUCT_CATEGORY ( 'detail', '', ( #240 ) ) ;
#174 = CARTESIAN_POINT ( 'NONE',  ( 6.380791423286278400, 19.27830736028852200, 0.5992465062064077400 ) ) ;
#175 = DIRECTION ( 'NONE',  ( -5.827942386483759700E-018, -2.717192996813919900E-034, -1.000000000000000000 ) ) ;
#176 = CARTESIAN_POINT ( 'NONE',  ( 6.397253181643668200, -6.434383772147349100, -0.2000062517414105400 ) ) ;
#177 = UNCERTAINTY_MEASURE_WITH_UNIT (LENGTH_MEASURE( 1.000000000000000100E-005 ), #19, 'distance_accuracy_value', 'NONE');
#178 = LOCAL_TIME ( 13, 35, 56.00000000000000000, #227 ) ;
#179 = EDGE_CURVE ( 'NONE', #183, #193, #292, .T. ) ;
#180 = APPLICATION_CONTEXT ( 'configuration controlled 3d designs of mechanical parts and assemblies' ) ;
#181 = CARTESIAN_POINT ( 'NONE',  ( 6.380791423286273000, -19.27830736028847300, 4.400753493793567700 ) ) ;
#182 = CALENDAR_DATE ( 2019, 10, 1 ) ;
#183 = VERTEX_POINT ( 'NONE', #186 ) ;
#184 = CARTESIAN_POINT ( 'NONE',  ( 6.397253181643663700, 6.434383772147445100, 5.200006251741498000 ) ) ;
#185 = CARTESIAN_POINT ( 'NONE',  ( -3.816391647148975600E-014, 6.434383772147445100, 5.200006251741498000 ) ) ;
#186 = CARTESIAN_POINT ( 'NONE',  ( 1.136868377216160000E-013, -19.05000000000011400, 0.5851238239196633300 ) ) ;
#187 = AXIS2_PLACEMENT_3D ( 'NONE', #1, #272, #112 ) ;
#188 = CARTESIAN_POINT ( 'NONE',  ( -12.79145455296720100, 6.434383772147444200, 5.002428183594042300 ) ) ;
#189 = LOCAL_TIME ( 13, 35, 56.00000000000000000, #281 ) ;
#190 = DIRECTION ( 'NONE',  ( 1.000000000000000000, 1.776356839400250500E-015, 0.0000000000000000000 ) ) ;
#191 = CARTESIAN_POINT ( 'NONE',  ( -1.136868377216159800E-013, -6.434383772147352700, 5.200006251741418100 ) ) ;
#192 = CARTESIAN_POINT ( 'NONE',  ( -6.380791423286273900, 19.27830736028852200, 0.5992465062063800900 ) ) ;
#193 = VERTEX_POINT ( 'NONE', #251 ) ;
#194 = CLOSED_SHELL ( 'NONE', ( #103, #28, #169, #8, #257, #165 ) ) ;
#195 = PERSON_AND_ORGANIZATION ( #232, #52 ) ;
#196 = LOCAL_TIME ( 13, 35, 56.00000000000000000, #109 ) ;
#197 = DIRECTION ( 'NONE',  ( -5.827942386483759700E-018, -2.717192996813919900E-034, -1.000000000000000000 ) ) ;
#198 = ORIENTED_EDGE ( 'NONE', *, *, #63, .F. ) ;
#199 = DIRECTION ( 'NONE',  ( 1.000000000000000000, 0.0000000000000000000, -5.691349986800548400E-018 ) ) ;
#200 = CIRCLE ( 'NONE', #262, 19.05000000000000100 ) ;
#201 = DIRECTION ( 'NONE',  ( -1.000000000000000000, 0.0000000000000000000, 0.0000000000000000000 ) ) ;
#202 = APPLICATION_PROTOCOL_DEFINITION ( 'international standard', 'config_control_design', 1994, #180 ) ;
#203 = ORIENTED_EDGE ( 'NONE', *, *, #51, .F. ) ;
#204 = MANIFOLD_SOLID_BREP ( 'Imported1', #194 ) ;
#205 = APPROVAL ( #211, 'UNSPECIFIED' ) ;
#206 = ORIENTED_EDGE ( 'NONE', *, *, #239, .F. ) ;
#207 = CARTESIAN_POINT ( 'NONE',  ( -1.136868377216160000E-013, 19.27830736028856500, 4.400753493793596100 ) ) ;
#208 = EDGE_CURVE ( 'NONE', #283, #81, #147, .T. ) ;
#209 = CARTESIAN_POINT ( 'NONE',  ( -19.12715738791702300, -19.27830736028844400, 1.190267430696667600 ) ) ;
#210 = CALENDAR_DATE ( 2019, 10, 1 ) ;
#211 = APPROVAL_STATUS ( 'not_yet_approved' ) ;
#212 = PRODUCT_DEFINITION ( 'UNKNOWN', '', #159, #291 ) ;
#213 = FACE_OUTER_BOUND ( 'NONE', #57, .T. ) ;
#214 = APPROVAL ( #2, 'UNSPECIFIED' ) ;
#215 = CARTESIAN_POINT ( 'NONE',  ( -4.662936703425659800E-015, -8.881784197001250400E-016, 0.5851238239196511200 ) ) ;
#216 = CARTESIAN_POINT ( 'NONE',  ( -4.640617127362766800E-015, -8.881784197001250400E-016, 4.414876176080349900 ) ) ;
#217 = CARTESIAN_POINT ( 'NONE',  ( 6.397253181643668200, 6.434383772147425500, -0.2000062517414621900 ) ) ;
#218 = CARTESIAN_POINT ( 'NONE',  ( 19.12715738791673600, -19.27830736028844400, 1.190267430696669200 ) ) ;
#219 = AXIS2_PLACEMENT_3D ( 'NONE', #3, #25, #190 ) ;
#220 = CIRCLE ( 'NONE', #33, 19.05000000000000100 ) ;
#221 = DIRECTION ( 'NONE',  ( 5.827942386483759700E-018, 2.717192996813919900E-034, 1.000000000000000000 ) ) ;
#222 = CC_DESIGN_APPROVAL ( #99, ( #256 ) ) ;
#223 = ORIENTED_EDGE ( 'NONE', *, *, #208, .T. ) ;
#224 = CARTESIAN_POINT ( 'NONE',  ( 1.136868377216160000E-013, 8.526512829121199700E-014, 310.4000000000000300 ) ) ;
#225 = CARTESIAN_POINT ( 'NONE',  ( 19.04999999999999700, -8.881784197001250400E-016, 0.5851238239196509000 ) ) ;
#226 = CARTESIAN_POINT ( 'NONE',  ( -6.380791423286281000, 19.27830736028856500, 4.400753493793596100 ) ) ;
#227 = COORDINATED_UNIVERSAL_TIME_OFFSET ( 2, 0, .AHEAD. ) ;
#228 = APPLICATION_PROTOCOL_DEFINITION ( 'international standard', 'config_control_design', 1994, #156 ) ;
#229 = CARTESIAN_POINT ( 'NONE',  ( -19.17650340506382300, 6.434383772147426400, 0.3925394434233658300 ) ) ;
#230 = APPROVAL_PERSON_ORGANIZATION ( #146, #99, #98 ) ;
#231 = AXIS2_PLACEMENT_3D ( 'NONE', #79, #201, #60 ) ;
#232 = PERSON ( 'UNSPECIFIED', 'UNSPECIFIED', 'UNSPECIFIED', ('UNSPECIFIED'), ('UNSPECIFIED'), ('UNSPECIFIED') ) ;
#233 = PERSON_AND_ORGANIZATION ( #232, #52 ) ;
#234 = CARTESIAN_POINT ( 'NONE',  ( -4.662936703425659800E-015, -8.881784197001250400E-016, 0.5851238239196511200 ) ) ;
#235 = PERSON_AND_ORGANIZATION ( #232, #52 ) ;
#236 = VECTOR ( 'NONE', #11, 1000.000000000000000 ) ;
#237 = DIRECTION ( 'NONE',  ( 1.000000000000000000, 0.0000000000000000000, -5.691349986800548400E-018 ) ) ;
#238 = CARTESIAN_POINT ( 'NONE',  ( 6.380791423286277500, -19.27830736028844400, 0.5992465062064633600 ) ) ;
#239 = EDGE_CURVE ( 'NONE', #283, #183, #150, .T. ) ;
#240 = PRODUCT ( '111-0426E BK7 bi-cx 38.1 F300', '111-0426E BK7 bi-cx 38.1 F300', '', ( #86 ) ) ;
#241 = DIRECTION ( 'NONE',  ( 1.000000000000000000, 0.0000000000000000000, -5.691349986800548400E-018 ) ) ;
#242 = LOCAL_TIME ( 13, 35, 56.00000000000000000, #106 ) ;
#243 = DIRECTION ( 'NONE',  ( -5.827942386483759700E-018, -2.717192996813919900E-034, -1.000000000000000000 ) ) ;
#244 = CARTESIAN_POINT ( 'NONE',  ( 19.17650340506382300, 6.434383772147445100, 4.607460556576641300 ) ) ;
#245 = PERSON_AND_ORGANIZATION ( #232, #52 ) ;
#246 = VERTEX_POINT ( 'NONE', #154 ) ;
#247 = CARTESIAN_POINT ( 'NONE',  ( 19.04999999999999700, -8.881784197001250400E-016, 0.5851238239196510100 ) ) ;
#248 = DIRECTION ( 'NONE',  ( -5.827942386483759700E-018, -2.717192996813919900E-034, -1.000000000000000000 ) ) ;
#249 = AXIS2_PLACEMENT_3D ( 'NONE', #285, #175, #15 ) ;
#250 = CARTESIAN_POINT ( 'NONE',  ( 12.79145455296733900, -6.434383772147352700, 5.002428183594010300 ) ) ;
#251 = CARTESIAN_POINT ( 'NONE',  ( 1.136868377216160000E-013, 19.05000000000020000, 0.5851238239196633300 ) ) ;
#252 = CARTESIAN_POINT ( 'NONE',  ( -12.79145455296719700, -6.434383772147353600, 5.002428183593989900 ) ) ;
#253 = CARTESIAN_POINT ( 'NONE',  ( -19.17650340506382300, -6.434383772147349100, 0.3925394434234175700 ) ) ;
#254 = CARTESIAN_POINT ( 'NONE',  ( 3.816391647148975600E-014, 19.27830736028852200, 0.5992465062063786500 ) ) ;
#255 = CARTESIAN_POINT ( 'NONE',  ( -6.380791423286280100, -19.27830736028847300, 4.400753493793540200 ) ) ;
#256 = SECURITY_CLASSIFICATION ( '', '', #276 ) ;
#257 = ADVANCED_FACE ( 'NONE', ( #13 ), #10, .T. ) ;
#258 = ORIENTED_EDGE ( 'NONE', *, *, #31, .F. ) ;
#259 = CC_DESIGN_APPROVAL ( #214, ( #159 ) ) ;
#260 = APPROVAL_DATE_TIME ( #74, #99 ) ;
#261 = CIRCLE ( 'NONE', #126, 19.05000000000000100 ) ;
#262 = AXIS2_PLACEMENT_3D ( 'NONE', #149, #36, #241 ) ;
#263 = ORIENTED_EDGE ( 'NONE', *, *, #162, .F. ) ;
#264 = ORIENTED_EDGE ( 'NONE', *, *, #239, .T. ) ;
#265 = DIRECTION ( 'NONE',  ( -5.827942386483759700E-018, -2.717192996813919900E-034, -1.000000000000000000 ) ) ;
#266 = CARTESIAN_POINT ( 'NONE',  ( 19.17650340506353100, -6.434383772147349100, 0.3925394434234190100 ) ) ;
#267 = DIRECTION ( 'NONE',  ( 1.000000000000000000, 0.0000000000000000000, 0.0000000000000000000 ) ) ;
#268 = CARTESIAN_POINT ( 'NONE',  ( 19.12715738791702700, 19.27830736028856500, 3.809732569303392300 ) ) ;
#269 = VECTOR ( 'NONE', #289, 1000.000000000000000 ) ;
#270 = CARTESIAN_POINT ( 'NONE',  ( 6.380791423286273900, 19.27830736028856500, 4.400753493793623700 ) ) ;
#271 = ORIENTED_EDGE ( 'NONE', *, *, #5, .T. ) ;
#272 = DIRECTION ( 'NONE',  ( 5.827942386483759700E-018, 2.717192996813919900E-034, 1.000000000000000000 ) ) ;
#273 = PERSON_AND_ORGANIZATION_ROLE ( 'creator' ) ;
#274 = CARTESIAN_POINT ( 'NONE',  ( -1.136868377216160000E-013, -19.27830736028846900, 4.400753493793541100 ) ) ;
#275 = CC_DESIGN_PERSON_AND_ORGANIZATION_ASSIGNMENT ( #233, #140, ( #159 ) ) ;
#276 = SECURITY_CLASSIFICATION_LEVEL ( 'unclassified' ) ;
#277 = PERSON_AND_ORGANIZATION_ROLE ( 'classification_officer' ) ;
#278 = COORDINATED_UNIVERSAL_TIME_OFFSET ( 2, 0, .AHEAD. ) ;
#279 = ORIENTED_EDGE ( 'NONE', *, *, #5, .F. ) ;
#280 = CC_DESIGN_PERSON_AND_ORGANIZATION_ASSIGNMENT ( #54, #288, ( #240 ) ) ;
#281 = COORDINATED_UNIVERSAL_TIME_OFFSET ( 2, 0, .AHEAD. ) ;
#282 = CIRCLE ( 'NONE', #155, 19.05000000000000100 ) ;
#283 = VERTEX_POINT ( 'NONE', #247 ) ;
#284 = CARTESIAN_POINT ( 'NONE',  ( 1.136868377216159800E-013, 6.434383772147426400, -0.2000062517414621900 ) ) ;
#285 = CARTESIAN_POINT ( 'NONE',  ( -4.640617127362766800E-015, -8.881784197001250400E-016, 4.414876176080349900 ) ) ;
#286 = DATE_AND_TIME ( #210, #178 ) ;
#287 = ADVANCED_BREP_SHAPE_REPRESENTATION ( '111-0426E BK7 bi-cx 38.1 F300', ( #204, #148 ), #137 ) ;
#288 = PERSON_AND_ORGANIZATION_ROLE ( 'design_owner' ) ;
#289 = DIRECTION ( 'NONE',  ( 5.827942386483759700E-018, 2.717192996813919900E-034, 1.000000000000000000 ) ) ;
#290 = CALENDAR_DATE ( 2019, 10, 1 ) ;
#291 = DESIGN_CONTEXT ( 'detailed design', #156, 'design' ) ;
#292 = CIRCLE ( 'NONE', #295, 310.4000000000000300 ) ;
#293 = VERTEX_POINT ( 'NONE', #115 ) ;
#294 = CARTESIAN_POINT ( 'NONE',  ( 19.17650340506382300, -6.434383772147352700, 4.607460556576589800 ) ) ;
#295 = AXIS2_PLACEMENT_3D ( 'NONE', #224, #88, #157 ) ;
ENDSEC;
END-ISO-10303-21;
