ISO-10303-21;
HEADER;
FILE_DESCRIPTION (( 'STEP AP203' ),
    '1' );
FILE_NAME ('111-0422E BK7 bi-cx 38.1 F250.STEP',
    '2019-01-10T11:25:28',
    ( '' ),
    ( '' ),
    'SwSTEP 2.0',
    'SolidWorks 2017',
    '' );
FILE_SCHEMA (( 'CONFIG_CONTROL_DESIGN' ));
ENDSEC;

DATA;
#1 = PRODUCT_DEFINITION_SHAPE ( 'NONE', 'NONE',  #288 ) ;
#2 = PERSON_AND_ORGANIZATION ( #146, #245 ) ;
#3 = PERSON_AND_ORGANIZATION ( #146, #245 ) ;
#4 = CARTESIAN_POINT ( 'NONE',  ( 3.122502256758252800E-014, 6.438011420204512400, 5.240398803781882700 ) ) ;
#5 = AXIS2_PLACEMENT_3D ( 'NONE', #252, #139, #44 ) ;
#6 = ADVANCED_FACE ( 'NONE', ( #36 ), #239, .T. ) ;
#7 = ORIENTED_EDGE ( 'NONE', *, *, #35, .F. ) ;
#8 = CIRCLE ( 'NONE', #108, 19.05000000000000100 ) ;
#9 = CARTESIAN_POINT ( 'NONE',  ( -12.75071939760761600, 19.27817777414540500, 0.9564226888997460200 ) ) ;
#10 = DATE_AND_TIME ( #80, #55 ) ;
#11 = EDGE_CURVE ( 'NONE', #246, #122, #166, .T. ) ;
#12 = ORIENTED_EDGE ( 'NONE', *, *, #193, .F. ) ;
#13 = CARTESIAN_POINT ( 'NONE',  ( 0.0000000000000000000, 0.0000000000000000000, 0.0000000000000000000 ) ) ;
#14 = DIRECTION ( 'NONE',  ( -0.0000000000000000000, -0.0000000000000000000, -1.000000000000000000 ) ) ;
#15 = CC_DESIGN_PERSON_AND_ORGANIZATION_ASSIGNMENT ( #198, #113, ( #137 ) ) ;
#16 = APPROVAL_STATUS ( 'not_yet_approved' ) ;
#17 = CC_DESIGN_APPROVAL ( #58, ( #206 ) ) ;
#18 = CARTESIAN_POINT ( 'NONE',  ( 6.377554205705906500, -19.27817777414532300, 4.280142489115054800 ) ) ;
#19 = ORIENTED_EDGE ( 'NONE', *, *, #11, .F. ) ;
#20 = CARTESIAN_POINT ( 'NONE',  ( 19.18191290891912700, -6.438011420204439600, 0.4716135959171516300 ) ) ;
#21 = CARTESIAN_POINT ( 'NONE',  ( -4.662936703425659800E-015, -8.881784197001250400E-016, 4.297105297945499600 ) ) ;
#22 = CARTESIAN_POINT ( 'NONE',  ( -6.377554205705905600, -19.27817777414532300, 4.280142489115012200 ) ) ;
#23 = VECTOR ( 'NONE', #251, 1000.000000000000000 ) ;
#24 = CARTESIAN_POINT ( 'NONE',  ( -19.11072358910925900, 19.27817777414540500, 3.570772561972000300 ) ) ;
#25 = CARTESIAN_POINT ( 'NONE',  ( 19.11072358910926300, 19.27817777414540500, 3.570772561972024300 ) ) ;
#26 = DATE_AND_TIME ( #93, #178 ) ;
#27 = CARTESIAN_POINT ( 'NONE',  ( -6.401311220652925000, 6.438011420204512400, 5.240398803781835600 ) ) ;
#28 = CARTESIAN_POINT ( 'NONE',  ( -19.05000000000000400, 1.444773732675583000E-015, 0.7028947020545001100 ) ) ;
#29 = AXIS2_PLACEMENT_3D ( 'NONE', #162, #88, #186 ) ;
#30 = CIRCLE ( 'NONE', #189, 19.05000000000000100 ) ;
#31 = EDGE_LOOP ( 'NONE', ( #7, #242, #75 ) ) ;
#32 = APPLICATION_PROTOCOL_DEFINITION ( 'international standard', 'config_control_design', 1994, #290 ) ;
#33 = APPROVAL_DATE_TIME ( #63, #58 ) ;
#34 = CARTESIAN_POINT ( 'NONE',  ( 2.842170943040400100E-014, 5.684341886080800200E-014, 258.5000000000000000 ) ) ;
#35 = EDGE_CURVE ( 'NONE', #122, #158, #56, .T. ) ;
#36 = FACE_OUTER_BOUND ( 'NONE', #160, .T. ) ;
#37 = APPROVAL_ROLE ( '' ) ;
#38 = CARTESIAN_POINT ( 'NONE',  ( 12.75071939760761500, -19.27817777414532300, 4.043577311100202500 ) ) ;
#39 = APPROVAL_STATUS ( 'not_yet_approved' ) ;
#40 = CARTESIAN_POINT ( 'NONE',  ( -4.662936703425659800E-015, -8.881784197001250400E-016, 0.7028947020545001100 ) ) ;
#41 =( BOUNDED_SURFACE ( )  B_SPLINE_SURFACE ( 3, 3, ( 
 ( #174, #51, #149, #220 ),
 ( #177, #83, #248, #223 ),
 ( #243, #57, #129, #283 ),
 ( #102, #9, #264, #281 ) ),
 .UNSPECIFIED., .F., .F., .T. ) 
 B_SPLINE_SURFACE_WITH_KNOTS ( ( 4, 4 ),
 ( 4, 4 ),
 ( 0.0000000000000000000, 1.000000000000000000 ),
 ( 0.0000000000000000000, 1.000000000000000000 ),
 .UNSPECIFIED. ) 
 GEOMETRIC_REPRESENTATION_ITEM ( )  RATIONAL_B_SPLINE_SURFACE ( (
 ( 1.000000000000000000, 0.9995412019861529300, 0.9995412019861529300, 1.000000000000000000),
 ( 0.9981435009390458000, 0.9976855546832805700, 0.9976855546832805700, 0.9981435009390458000),
 ( 0.9981435009390458000, 0.9976855546832805700, 0.9976855546832805700, 0.9981435009390458000),
 ( 1.000000000000000000, 0.9995412019861529300, 0.9995412019861529300, 1.000000000000000000) ) ) 
 REPRESENTATION_ITEM ( '' )  SURFACE ( )  );
#42 = DIRECTION ( 'NONE',  ( -0.0000000000000000000, -0.0000000000000000000, -1.000000000000000000 ) ) ;
#43 = AXIS2_PLACEMENT_3D ( 'NONE', #125, #170, #81 ) ;
#44 = DIRECTION ( 'NONE',  ( 1.000000000000000000, 0.0000000000000000000, 0.0000000000000000000 ) ) ;
#45 = PERSON_AND_ORGANIZATION ( #146, #245 ) ;
#46 = PERSON_AND_ORGANIZATION ( #146, #245 ) ;
#47 = CARTESIAN_POINT ( 'NONE',  ( -19.11072358910925600, -19.27817777414532300, 3.570772561971944800 ) ) ;
#48 = CARTESIAN_POINT ( 'NONE',  ( 6.377554205705903800, 19.27817777414540500, 0.7198575108849358800 ) ) ;
#49 = EDGE_LOOP ( 'NONE', ( #199, #196, #94 ) ) ;
#50 = EDGE_CURVE ( 'NONE', #222, #246, #234, .T. ) ;
#51 = CARTESIAN_POINT ( 'NONE',  ( -12.75071939760761500, -19.27817777414532700, 0.9564226888998017500 ) ) ;
#52 = CARTESIAN_POINT ( 'NONE',  ( -12.75071939760761300, 19.27817777414540500, 4.043577311100232700 ) ) ;
#53 = CIRCLE ( 'NONE', #127, 258.5000000000000000 ) ;
#54 = APPROVAL ( #39, 'UNSPECIFIED' ) ;
#55 = LOCAL_TIME ( 13, 25, 28.00000000000000000, #86 ) ;
#56 = CIRCLE ( 'NONE', #229, 19.05000000000000100 ) ;
#57 = CARTESIAN_POINT ( 'NONE',  ( -12.79821707799474600, 6.438011420204512400, -0.002952397275853783700 ) ) ;
#58 = APPROVAL ( #286, 'UNSPECIFIED' ) ;
#59 = AXIS2_PLACEMENT_3D ( 'NONE', #284, #249, #154 ) ;
#60 = CARTESIAN_POINT ( 'NONE',  ( -4.662936703425659800E-015, -8.881784197001250400E-016, 0.7028947020545001100 ) ) ;
#61 = DIRECTION ( 'NONE',  ( 1.000000000000000000, 0.0000000000000000000, 0.0000000000000000000 ) ) ;
#62 = DIRECTION ( 'NONE',  ( 1.000000000000000000, 0.0000000000000000000, 0.0000000000000000000 ) ) ;
#63 = DATE_AND_TIME ( #103, #69 ) ;
#64 = PERSON_AND_ORGANIZATION ( #146, #245 ) ;
#65 = ORIENTED_EDGE ( 'NONE', *, *, #50, .F. ) ;
#66 = DIRECTION ( 'NONE',  ( 1.000000000000000000, 0.0000000000000000000, 0.0000000000000000000 ) ) ;
#67 = UNCERTAINTY_MEASURE_WITH_UNIT (LENGTH_MEASURE( 1.000000000000000100E-005 ), #181, 'distance_accuracy_value', 'NONE');
#68 = DIRECTION ( 'NONE',  ( 1.000000000000000000, 0.0000000000000000000, 0.0000000000000000000 ) ) ;
#69 = LOCAL_TIME ( 13, 25, 28.00000000000000000, #121 ) ;
#70 = CARTESIAN_POINT ( 'NONE',  ( 6.401311220652921500, 6.438011420204512400, -0.2403988037818330400 ) ) ;
#71 = ORIENTED_EDGE ( 'NONE', *, *, #244, .T. ) ;
#72 = APPROVAL_DATE_TIME ( #96, #277 ) ;
#73 = ORIENTED_EDGE ( 'NONE', *, *, #213, .F. ) ;
#74 = CARTESIAN_POINT ( 'NONE',  ( -6.401311220652923200, -6.438011420204436100, 5.240398803781783200 ) ) ;
#75 = ORIENTED_EDGE ( 'NONE', *, *, #161, .F. ) ;
#76 = CARTESIAN_POINT ( 'NONE',  ( -12.79821707799474400, 6.438011420204512400, 5.002952397275832300 ) ) ;
#77 = ADVANCED_FACE ( 'NONE', ( #226 ), #147, .T. ) ;
#78 = CARTESIAN_POINT ( 'NONE',  ( 2.842170943040400100E-014, 19.04999999999982000, 0.7028947020544897800 ) ) ;
#79 = PERSON_AND_ORGANIZATION ( #146, #245 ) ;
#80 = CALENDAR_DATE ( 2019, 10, 1 ) ;
#81 = DIRECTION ( 'NONE',  ( 1.000000000000000000, 8.881784197001252300E-016, 0.0000000000000000000 ) ) ;
#82 = FACE_OUTER_BOUND ( 'NONE', #263, .T. ) ;
#83 = CARTESIAN_POINT ( 'NONE',  ( -12.79821707799474600, -6.438011420204439600, -0.002952397275800006400 ) ) ;
#84 = AXIS2_PLACEMENT_3D ( 'NONE', #270, #85, #111 ) ;
#85 = DIRECTION ( 'NONE',  ( -1.000000000000000000, 0.0000000000000000000, 0.0000000000000000000 ) ) ;
#86 = COORDINATED_UNIVERSAL_TIME_OFFSET ( 2, 0, .AHEAD. ) ;
#87 = CARTESIAN_POINT ( 'NONE',  ( 19.04999999999999700, -8.881784197001250400E-016, 0.7028947020545001100 ) ) ;
#88 = DIRECTION ( 'NONE',  ( -0.0000000000000000000, -0.0000000000000000000, -1.000000000000000000 ) ) ;
#89 = DATE_TIME_ROLE ( 'creation_date' ) ;
#90 = DIRECTION ( 'NONE',  ( 0.0000000000000000000, 0.0000000000000000000, 1.000000000000000000 ) ) ;
#91 = CARTESIAN_POINT ( 'NONE',  ( 19.04999999999999700, -8.881784197001250400E-016, 4.297105297945499600 ) ) ;
#92 = CC_DESIGN_PERSON_AND_ORGANIZATION_ASSIGNMENT ( #254, #204, ( #206 ) ) ;
#93 = CALENDAR_DATE ( 2019, 10, 1 ) ;
#94 = ORIENTED_EDGE ( 'NONE', *, *, #240, .T. ) ;
#95 = DIRECTION ( 'NONE',  ( -0.0000000000000000000, -0.0000000000000000000, -1.000000000000000000 ) ) ;
#96 = DATE_AND_TIME ( #165, #134 ) ;
#97 = CIRCLE ( 'NONE', #29, 19.05000000000000100 ) ;
#98 = CARTESIAN_POINT ( 'NONE',  ( -2.842170943040400100E-014, -19.27817777414532300, 4.280142489115013000 ) ) ;
#99 = CARTESIAN_POINT ( 'NONE',  ( 12.75071939760760700, 19.27817777414540500, 0.9564226888997721100 ) ) ;
#100 = CYLINDRICAL_SURFACE ( 'NONE', #153, 19.05000000000000100 ) ;
#101 = ORIENTED_EDGE ( 'NONE', *, *, #219, .T. ) ;
#102 = CARTESIAN_POINT ( 'NONE',  ( -19.11072358910926300, 19.27817777414540500, 1.429227438027980100 ) ) ;
#103 = CALENDAR_DATE ( 2019, 10, 1 ) ;
#104 = CIRCLE ( 'NONE', #84, 258.5000000000000000 ) ;
#105 = VERTEX_POINT ( 'NONE', #218 ) ;
#106 = CARTESIAN_POINT ( 'NONE',  ( 19.04999999999999700, -8.881784197001250400E-016, 0.7028947020545001100 ) ) ;
#107 = CC_DESIGN_SECURITY_CLASSIFICATION ( #137, ( #206 ) ) ;
#108 = AXIS2_PLACEMENT_3D ( 'NONE', #40, #207, #68 ) ;
#109 = APPROVAL_PERSON_ORGANIZATION ( #79, #58, #37 ) ;
#110 = SECURITY_CLASSIFICATION_LEVEL ( 'unclassified' ) ;
#111 = DIRECTION ( 'NONE',  ( 0.0000000000000000000, -1.000000000000000000, 2.147433316489664600E-016 ) ) ;
#112 = CARTESIAN_POINT ( 'NONE',  ( 19.11072358910925900, -19.27817777414532300, 3.570772561971968800 ) ) ;
#113 = PERSON_AND_ORGANIZATION_ROLE ( 'classification_officer' ) ;
#114 = ORIENTED_EDGE ( 'NONE', *, *, #247, .F. ) ;
#115 = CC_DESIGN_PERSON_AND_ORGANIZATION_ASSIGNMENT ( #2, #184, ( #206 ) ) ;
#116 = CARTESIAN_POINT ( 'NONE',  ( 6.401311220652929500, -6.438011420204436100, 5.240398803781826800 ) ) ;
#117 = CARTESIAN_POINT ( 'NONE',  ( 6.401311220652927700, 6.438011420204512400, 5.240398803781880900 ) ) ;
#118 = CARTESIAN_POINT ( 'NONE',  ( 2.842170943040400100E-014, 6.438011420204512400, -0.2403988037818330600 ) ) ;
#119 = CARTESIAN_POINT ( 'NONE',  ( 12.79821707799474600, 6.438011420204512400, 5.002952397275858100 ) ) ;
#120 = CARTESIAN_POINT ( 'NONE',  ( 12.79821707799473700, -6.438011420204439600, -0.002952397275774094400 ) ) ;
#121 = COORDINATED_UNIVERSAL_TIME_OFFSET ( 2, 0, .AHEAD. ) ;
#122 = VERTEX_POINT ( 'NONE', #261 ) ;
#123 = EDGE_LOOP ( 'NONE', ( #257, #19, #171 ) ) ;
#124 = MANIFOLD_SOLID_BREP ( 'Imported1', #265 ) ;
#125 = CARTESIAN_POINT ( 'NONE',  ( -4.662936703425659800E-015, -8.881784197001250400E-016, 4.297105297945499600 ) ) ;
#126 = CC_DESIGN_DATE_AND_TIME_ASSIGNMENT ( #10, #130, ( #137 ) ) ;
#127 = AXIS2_PLACEMENT_3D ( 'NONE', #34, #62, #224 ) ;
#128 = COORDINATED_UNIVERSAL_TIME_OFFSET ( 2, 0, .AHEAD. ) ;
#129 = CARTESIAN_POINT ( 'NONE',  ( -6.401311220652927700, 6.438011420204513300, -0.2403988037818765900 ) ) ;
#130 = DATE_TIME_ROLE ( 'classification_date' ) ;
#131 = CARTESIAN_POINT ( 'NONE',  ( -19.05000000000000400, 1.444773732675583000E-015, 0.7028947020545001100 ) ) ;
#132 = CC_DESIGN_APPROVAL ( #277, ( #137 ) ) ;
#133 =( NAMED_UNIT ( * ) SI_UNIT ( $, .STERADIAN. ) SOLID_ANGLE_UNIT ( ) );
#134 = LOCAL_TIME ( 13, 25, 28.00000000000000000, #128 ) ;
#135 = CARTESIAN_POINT ( 'NONE',  ( -4.662936703425659800E-015, -8.881784197001250400E-016, 4.297105297945499600 ) ) ;
#136 = ORIENTED_EDGE ( 'NONE', *, *, #161, .T. ) ;
#137 = SECURITY_CLASSIFICATION ( '', '', #110 ) ;
#138 = ORIENTED_EDGE ( 'NONE', *, *, #11, .T. ) ;
#139 = DIRECTION ( 'NONE',  ( -0.0000000000000000000, -0.0000000000000000000, -1.000000000000000000 ) ) ;
#140 = FACE_OUTER_BOUND ( 'NONE', #49, .T. ) ;
#141 = CARTESIAN_POINT ( 'NONE',  ( -2.842170943040400100E-014, -6.438011420204436100, 5.240398803781784100 ) ) ;
#142 =( BOUNDED_SURFACE ( )  B_SPLINE_SURFACE ( 3, 3, ( 
 ( #112, #38, #18, #256 ),
 ( #191, #273, #116, #143 ),
 ( #214, #119, #117, #4 ),
 ( #25, #192, #295, #294 ) ),
 .UNSPECIFIED., .F., .F., .F. ) 
 B_SPLINE_SURFACE_WITH_KNOTS ( ( 4, 4 ),
 ( 4, 4 ),
 ( 0.0000000000000000000, 1.000000000000000000 ),
 ( 0.0000000000000000000, 1.000000000000000000 ),
 .UNSPECIFIED. ) 
 GEOMETRIC_REPRESENTATION_ITEM ( )  RATIONAL_B_SPLINE_SURFACE ( (
 ( 1.000000000000000000, 0.9995412019861529300, 0.9995412019861529300, 1.000000000000000000),
 ( 0.9981435009390458000, 0.9976855546832805700, 0.9976855546832805700, 0.9981435009390458000),
 ( 0.9981435009390458000, 0.9976855546832805700, 0.9976855546832805700, 0.9981435009390458000),
 ( 1.000000000000000000, 0.9995412019861529300, 0.9995412019861529300, 1.000000000000000000) ) ) 
 REPRESENTATION_ITEM ( '' )  SURFACE ( )  );
#143 = CARTESIAN_POINT ( 'NONE',  ( 3.469446951953614200E-014, -6.438011420204436100, 5.240398803781828500 ) ) ;
#144 = CARTESIAN_POINT ( 'NONE',  ( -19.18191290891914100, 6.438011420204512400, 4.528386404082906900 ) ) ;
#145 = VERTEX_POINT ( 'NONE', #28 ) ;
#146 = PERSON ( 'UNSPECIFIED', 'UNSPECIFIED', 'UNSPECIFIED', ('UNSPECIFIED'), ('UNSPECIFIED'), ('UNSPECIFIED') ) ;
#147 =( BOUNDED_SURFACE ( )  B_SPLINE_SURFACE ( 3, 3, ( 
 ( #98, #22, #164, #47 ),
 ( #141, #74, #237, #194 ),
 ( #276, #27, #76, #144 ),
 ( #260, #279, #52, #24 ) ),
 .UNSPECIFIED., .F., .F., .F. ) 
 B_SPLINE_SURFACE_WITH_KNOTS ( ( 4, 4 ),
 ( 4, 4 ),
 ( 0.0000000000000000000, 1.000000000000000000 ),
 ( 0.0000000000000000000, 1.000000000000000000 ),
 .UNSPECIFIED. ) 
 GEOMETRIC_REPRESENTATION_ITEM ( )  RATIONAL_B_SPLINE_SURFACE ( (
 ( 1.000000000000000000, 0.9995412019861529300, 0.9995412019861529300, 1.000000000000000000),
 ( 0.9981435009390458000, 0.9976855546832805700, 0.9976855546832805700, 0.9981435009390458000),
 ( 0.9981435009390458000, 0.9976855546832805700, 0.9976855546832805700, 0.9981435009390458000),
 ( 1.000000000000000000, 0.9995412019861529300, 0.9995412019861529300, 1.000000000000000000) ) ) 
 REPRESENTATION_ITEM ( '' )  SURFACE ( )  );
#148 = ORIENTED_EDGE ( 'NONE', *, *, #35, .T. ) ;
#149 = CARTESIAN_POINT ( 'NONE',  ( -6.377554205705910000, -19.27817777414532700, 0.7198575108849480900 ) ) ;
#150 = VERTEX_POINT ( 'NONE', #78 ) ;
#151 = PRODUCT ( '111-0422E BK7 bi-cx 38.1 F250', '111-0422E BK7 bi-cx 38.1 F250', '', ( #203 ) ) ;
#152 = PRODUCT_RELATED_PRODUCT_CATEGORY ( 'detail', '', ( #151 ) ) ;
#153 = AXIS2_PLACEMENT_3D ( 'NONE', #60, #230, #268 ) ;
#154 = DIRECTION ( 'NONE',  ( 1.000000000000000000, 0.0000000000000000000, 0.0000000000000000000 ) ) ;
#155 = ORIENTED_EDGE ( 'NONE', *, *, #213, .T. ) ;
#156 = PERSON_AND_ORGANIZATION_ROLE ( 'creator' ) ;
#157 = DIRECTION ( 'NONE',  ( 1.000000000000000000, -1.776356839400250500E-015, 0.0000000000000000000 ) ) ;
#158 = VERTEX_POINT ( 'NONE', #258 ) ;
#159 = CYLINDRICAL_SURFACE ( 'NONE', #59, 19.05000000000000100 ) ;
#160 = EDGE_LOOP ( 'NONE', ( #190, #71, #155 ) ) ;
#161 = EDGE_CURVE ( 'NONE', #158, #292, #269, .T. ) ;
#162 = CARTESIAN_POINT ( 'NONE',  ( -4.662936703425659800E-015, -8.881784197001250400E-016, 0.7028947020545001100 ) ) ;
#163 = CARTESIAN_POINT ( 'NONE',  ( 19.18191290891913100, 6.438011420204512400, 0.4716135959170980600 ) ) ;
#164 = CARTESIAN_POINT ( 'NONE',  ( -12.75071939760760900, -19.27817777414532300, 4.043577311100177600 ) ) ;
#165 = CALENDAR_DATE ( 2019, 10, 1 ) ;
#166 = CIRCLE ( 'NONE', #5, 19.05000000000000100 ) ;
#167 = CC_DESIGN_APPROVAL ( #54, ( #288 ) ) ;
#168 = CARTESIAN_POINT ( 'NONE',  ( 6.401311220652920600, -6.438011420204439600, -0.2403988037817792500 ) ) ;
#169 = FACE_OUTER_BOUND ( 'NONE', #123, .T. ) ;
#170 = DIRECTION ( 'NONE',  ( -0.0000000000000000000, -0.0000000000000000000, -1.000000000000000000 ) ) ;
#171 = ORIENTED_EDGE ( 'NONE', *, *, #219, .F. ) ;
#172 = CC_DESIGN_DATE_AND_TIME_ASSIGNMENT ( #210, #89, ( #288 ) ) ;
#173 = ADVANCED_FACE ( 'NONE', ( #140 ), #41, .T. ) ;
#174 = CARTESIAN_POINT ( 'NONE',  ( -19.11072358910925900, -19.27817777414532700, 1.429227438028035600 ) ) ;
#175 = ADVANCED_BREP_SHAPE_REPRESENTATION ( '111-0422E BK7 bi-cx 38.1 F250', ( #124, #233 ), #202 ) ;
#176 = CARTESIAN_POINT ( 'NONE',  ( -4.662936703425659800E-015, -8.881784197001250400E-016, 0.7028947020545001100 ) ) ;
#177 = CARTESIAN_POINT ( 'NONE',  ( -19.18191290891914100, -6.438011420204439600, 0.4716135959171275400 ) ) ;
#178 = LOCAL_TIME ( 13, 25, 28.00000000000000000, #216 ) ;
#179 = DIRECTION ( 'NONE',  ( 1.000000000000000000, 0.0000000000000000000, 0.0000000000000000000 ) ) ;
#180 = EDGE_LOOP ( 'NONE', ( #185, #12, #114, #282, #138, #148 ) ) ;
#181 =( LENGTH_UNIT ( ) NAMED_UNIT ( * ) SI_UNIT ( .MILLI., .METRE. ) );
#182 = CC_DESIGN_PERSON_AND_ORGANIZATION_ASSIGNMENT ( #46, #156, ( #288 ) ) ;
#183 = CARTESIAN_POINT ( 'NONE',  ( -2.842170943040400100E-014, 19.04999999999982300, 4.297105297945512900 ) ) ;
#184 = PERSON_AND_ORGANIZATION_ROLE ( 'design_supplier' ) ;
#185 = ORIENTED_EDGE ( 'NONE', *, *, #209, .F. ) ;
#186 = DIRECTION ( 'NONE',  ( 1.000000000000000000, 0.0000000000000000000, 0.0000000000000000000 ) ) ;
#187 = CARTESIAN_POINT ( 'NONE',  ( 19.11072358910925600, 19.27817777414540500, 1.429227438028004300 ) ) ;
#188 = CARTESIAN_POINT ( 'NONE',  ( 12.79821707799473700, 6.438011420204512400, -0.002952397275827762400 ) ) ;
#189 = AXIS2_PLACEMENT_3D ( 'NONE', #176, #14, #66 ) ;
#190 = ORIENTED_EDGE ( 'NONE', *, *, #247, .T. ) ;
#191 = CARTESIAN_POINT ( 'NONE',  ( 19.18191290891914100, -6.438011420204436100, 4.528386404082877600 ) ) ;
#192 = CARTESIAN_POINT ( 'NONE',  ( 12.75071939760761600, 19.27817777414540500, 4.043577311100257500 ) ) ;
#193 = EDGE_CURVE ( 'NONE', #105, #145, #278, .T. ) ;
#194 = CARTESIAN_POINT ( 'NONE',  ( -19.18191290891913400, -6.438011420204436100, 4.528386404082852800 ) ) ;
#195 = ADVANCED_FACE ( 'NONE', ( #274 ), #100, .T. ) ;
#196 = ORIENTED_EDGE ( 'NONE', *, *, #193, .T. ) ;
#197 = ORIENTED_EDGE ( 'NONE', *, *, #240, .F. ) ;
#198 = PERSON_AND_ORGANIZATION ( #146, #245 ) ;
#199 = ORIENTED_EDGE ( 'NONE', *, *, #244, .F. ) ;
#200 = CARTESIAN_POINT ( 'NONE',  ( -4.662936703425659800E-015, -8.881784197001250400E-016, 0.7028947020545001100 ) ) ;
#201 = APPROVAL_ROLE ( '' ) ;
#202 =( GEOMETRIC_REPRESENTATION_CONTEXT ( 3 ) GLOBAL_UNCERTAINTY_ASSIGNED_CONTEXT ( ( #67 ) ) GLOBAL_UNIT_ASSIGNED_CONTEXT ( ( #181, #231, #133 ) ) REPRESENTATION_CONTEXT ( 'NONE', 'WORKASPACE' ) );
#203 = MECHANICAL_CONTEXT ( 'NONE', #290, 'mechanical' ) ;
#204 = PERSON_AND_ORGANIZATION_ROLE ( 'creator' ) ;
#205 = APPROVAL_ROLE ( '' ) ;
#206 = PRODUCT_DEFINITION_FORMATION_WITH_SPECIFIED_SOURCE ( 'ANY', '', #151, .NOT_KNOWN. ) ;
#207 = DIRECTION ( 'NONE',  ( -0.0000000000000000000, -0.0000000000000000000, -1.000000000000000000 ) ) ;
#208 = LOCAL_TIME ( 13, 25, 28.00000000000000000, #221 ) ;
#209 = EDGE_CURVE ( 'NONE', #145, #158, #211, .T. ) ;
#210 = DATE_AND_TIME ( #262, #208 ) ;
#211 = LINE ( 'NONE', #131, #23 ) ;
#212 = DIRECTION ( 'NONE',  ( 1.000000000000000000, 0.0000000000000000000, 0.0000000000000000000 ) ) ;
#213 = EDGE_CURVE ( 'NONE', #150, #222, #97, .T. ) ;
#214 = CARTESIAN_POINT ( 'NONE',  ( 19.18191290891914100, 6.438011420204512400, 4.528386404082930900 ) ) ;
#215 = ADVANCED_FACE ( 'NONE', ( #82 ), #159, .T. ) ;
#216 = COORDINATED_UNIVERSAL_TIME_OFFSET ( 2, 0, .AHEAD. ) ;
#217 = ORIENTED_EDGE ( 'NONE', *, *, #209, .T. ) ;
#218 = CARTESIAN_POINT ( 'NONE',  ( 2.842170943040400100E-014, -19.04999999999976600, 0.7028947020544897800 ) ) ;
#219 = EDGE_CURVE ( 'NONE', #292, #246, #287, .T. ) ;
#220 = CARTESIAN_POINT ( 'NONE',  ( -3.469446951953614200E-014, -19.27817777414532700, 0.7198575108849465400 ) ) ;
#221 = COORDINATED_UNIVERSAL_TIME_OFFSET ( 2, 0, .AHEAD. ) ;
#222 = VERTEX_POINT ( 'NONE', #106 ) ;
#223 = CARTESIAN_POINT ( 'NONE',  ( -3.816391647148975600E-014, -6.438011420204438700, -0.2403988037818244600 ) ) ;
#224 = DIRECTION ( 'NONE',  ( 0.0000000000000000000, -1.000000000000000000, -4.294866632979329200E-016 ) ) ;
#225 = APPLICATION_CONTEXT ( 'configuration controlled 3d designs of mechanical parts and assemblies' ) ;
#226 = FACE_OUTER_BOUND ( 'NONE', #31, .T. ) ;
#227 = DIRECTION ( 'NONE',  ( -0.0000000000000000000, -0.0000000000000000000, -1.000000000000000000 ) ) ;
#228 = DESIGN_CONTEXT ( 'detailed design', #225, 'design' ) ;
#229 = AXIS2_PLACEMENT_3D ( 'NONE', #21, #95, #212 ) ;
#230 = DIRECTION ( 'NONE',  ( 0.0000000000000000000, 0.0000000000000000000, 1.000000000000000000 ) ) ;
#231 =( NAMED_UNIT ( * ) PLANE_ANGLE_UNIT ( ) SI_UNIT ( $, .RADIAN. ) );
#232 = VECTOR ( 'NONE', #289, 1000.000000000000000 ) ;
#233 = AXIS2_PLACEMENT_3D ( 'NONE', #13, #90, #61 ) ;
#234 = LINE ( 'NONE', #87, #232 ) ;
#235 = CARTESIAN_POINT ( 'NONE',  ( 2.842170943040400100E-014, -6.438011420204439600, -0.2403988037817792700 ) ) ;
#236 = CARTESIAN_POINT ( 'NONE',  ( 2.842170943040400100E-014, -19.27817777414532700, 0.7198575108849913900 ) ) ;
#237 = CARTESIAN_POINT ( 'NONE',  ( -12.79821707799474100, -6.438011420204436100, 5.002952397275779000 ) ) ;
#238 = APPROVAL_PERSON_ORGANIZATION ( #3, #54, #205 ) ;
#239 =( BOUNDED_SURFACE ( )  B_SPLINE_SURFACE ( 3, 3, ( 
 ( #236, #293, #271, #255 ),
 ( #235, #168, #120, #20 ),
 ( #118, #70, #188, #163 ),
 ( #275, #48, #99, #187 ) ),
 .UNSPECIFIED., .F., .F., .F. ) 
 B_SPLINE_SURFACE_WITH_KNOTS ( ( 4, 4 ),
 ( 4, 4 ),
 ( 0.0000000000000000000, 1.000000000000000000 ),
 ( 0.0000000000000000000, 1.000000000000000000 ),
 .UNSPECIFIED. ) 
 GEOMETRIC_REPRESENTATION_ITEM ( )  RATIONAL_B_SPLINE_SURFACE ( (
 ( 1.000000000000000000, 0.9995412019861529300, 0.9995412019861529300, 1.000000000000000000),
 ( 0.9981435009390458000, 0.9976855546832805700, 0.9976855546832805700, 0.9981435009390458000),
 ( 0.9981435009390458000, 0.9976855546832805700, 0.9976855546832805700, 0.9981435009390458000),
 ( 1.000000000000000000, 0.9995412019861529300, 0.9995412019861529300, 1.000000000000000000) ) ) 
 REPRESENTATION_ITEM ( '' )  SURFACE ( )  );
#240 = EDGE_CURVE ( 'NONE', #145, #150, #8, .T. ) ;
#241 = ADVANCED_FACE ( 'NONE', ( #169 ), #142, .T. ) ;
#242 = ORIENTED_EDGE ( 'NONE', *, *, #267, .T. ) ;
#243 = CARTESIAN_POINT ( 'NONE',  ( -19.18191290891914100, 6.438011420204512400, 0.4716135959170737500 ) ) ;
#244 = EDGE_CURVE ( 'NONE', #105, #150, #53, .T. ) ;
#245 = ORGANIZATION ( 'UNSPECIFIED', 'UNSPECIFIED', '' ) ;
#246 = VERTEX_POINT ( 'NONE', #91 ) ;
#247 = EDGE_CURVE ( 'NONE', #222, #105, #30, .T. ) ;
#248 = CARTESIAN_POINT ( 'NONE',  ( -6.401311220652933000, -6.438011420204438700, -0.2403988037818228200 ) ) ;
#249 = DIRECTION ( 'NONE',  ( 0.0000000000000000000, 0.0000000000000000000, 1.000000000000000000 ) ) ;
#250 = APPLICATION_PROTOCOL_DEFINITION ( 'international standard', 'config_control_design', 1994, #225 ) ;
#251 = DIRECTION ( 'NONE',  ( 0.0000000000000000000, 0.0000000000000000000, 1.000000000000000000 ) ) ;
#252 = CARTESIAN_POINT ( 'NONE',  ( -4.662936703425659800E-015, -8.881784197001250400E-016, 4.297105297945499600 ) ) ;
#253 = AXIS2_PLACEMENT_3D ( 'NONE', #135, #42, #157 ) ;
#254 = PERSON_AND_ORGANIZATION ( #146, #245 ) ;
#255 = CARTESIAN_POINT ( 'NONE',  ( 19.11072358910924900, -19.27817777414532700, 1.429227438028059600 ) ) ;
#256 = CARTESIAN_POINT ( 'NONE',  ( 3.122502256758252800E-014, -19.27817777414532300, 4.280142489115057500 ) ) ;
#257 = ORIENTED_EDGE ( 'NONE', *, *, #267, .F. ) ;
#258 = CARTESIAN_POINT ( 'NONE',  ( -19.05000000000000400, 1.444773732675583000E-015, 4.297105297945499600 ) ) ;
#259 = SHAPE_DEFINITION_REPRESENTATION ( #1, #175 ) ;
#260 = CARTESIAN_POINT ( 'NONE',  ( -2.842170943040400100E-014, 19.27817777414540500, 4.280142489115068100 ) ) ;
#261 = CARTESIAN_POINT ( 'NONE',  ( -2.842170943040400100E-014, -19.04999999999976600, 4.297105297945512900 ) ) ;
#262 = CALENDAR_DATE ( 2019, 10, 1 ) ;
#263 = EDGE_LOOP ( 'NONE', ( #197, #217, #136, #101, #65, #73 ) ) ;
#264 = CARTESIAN_POINT ( 'NONE',  ( -6.377554205705911800, 19.27817777414540500, 0.7198575108848923600 ) ) ;
#265 = CLOSED_SHELL ( 'NONE', ( #6, #77, #215, #173, #195, #241 ) ) ;
#266 = APPROVAL_DATE_TIME ( #26, #54 ) ;
#267 = EDGE_CURVE ( 'NONE', #122, #292, #104, .T. ) ;
#268 = DIRECTION ( 'NONE',  ( 1.000000000000000000, 0.0000000000000000000, 0.0000000000000000000 ) ) ;
#269 = CIRCLE ( 'NONE', #43, 19.05000000000000100 ) ;
#270 = CARTESIAN_POINT ( 'NONE',  ( -2.842170943040400100E-014, 5.684341886080800200E-014, -253.5000000000000000 ) ) ;
#271 = CARTESIAN_POINT ( 'NONE',  ( 12.75071939760760200, -19.27817777414532700, 0.9564226888998276200 ) ) ;
#272 = CC_DESIGN_PERSON_AND_ORGANIZATION_ASSIGNMENT ( #64, #291, ( #151 ) ) ;
#273 = CARTESIAN_POINT ( 'NONE',  ( 12.79821707799474600, -6.438011420204436100, 5.002952397275804800 ) ) ;
#274 = FACE_OUTER_BOUND ( 'NONE', #180, .T. ) ;
#275 = CARTESIAN_POINT ( 'NONE',  ( 2.842170943040400100E-014, 19.27817777414540500, 0.7198575108849358800 ) ) ;
#276 = CARTESIAN_POINT ( 'NONE',  ( -2.842170943040400100E-014, 6.438011420204512400, 5.240398803781837400 ) ) ;
#277 = APPROVAL ( #16, 'UNSPECIFIED' ) ;
#278 = CIRCLE ( 'NONE', #280, 19.05000000000000100 ) ;
#279 = CARTESIAN_POINT ( 'NONE',  ( -6.377554205705906500, 19.27817777414540500, 4.280142489115068100 ) ) ;
#280 = AXIS2_PLACEMENT_3D ( 'NONE', #200, #227, #179 ) ;
#281 = CARTESIAN_POINT ( 'NONE',  ( -3.469446951953614200E-014, 19.27817777414540500, 0.7198575108848908100 ) ) ;
#282 = ORIENTED_EDGE ( 'NONE', *, *, #50, .T. ) ;
#283 = CARTESIAN_POINT ( 'NONE',  ( -3.122502256758252800E-014, 6.438011420204513300, -0.2403988037818780600 ) ) ;
#284 = CARTESIAN_POINT ( 'NONE',  ( -4.662936703425659800E-015, -8.881784197001250400E-016, 0.7028947020545001100 ) ) ;
#285 = APPROVAL_PERSON_ORGANIZATION ( #45, #277, #201 ) ;
#286 = APPROVAL_STATUS ( 'not_yet_approved' ) ;
#287 = CIRCLE ( 'NONE', #253, 19.05000000000000100 ) ;
#288 = PRODUCT_DEFINITION ( 'UNKNOWN', '', #206, #228 ) ;
#289 = DIRECTION ( 'NONE',  ( 0.0000000000000000000, 0.0000000000000000000, 1.000000000000000000 ) ) ;
#290 = APPLICATION_CONTEXT ( 'configuration controlled 3d designs of mechanical parts and assemblies' ) ;
#291 = PERSON_AND_ORGANIZATION_ROLE ( 'design_owner' ) ;
#292 = VERTEX_POINT ( 'NONE', #183 ) ;
#293 = CARTESIAN_POINT ( 'NONE',  ( 6.377554205705902900, -19.27817777414532700, 0.7198575108849913900 ) ) ;
#294 = CARTESIAN_POINT ( 'NONE',  ( 3.122502256758252800E-014, 19.27817777414540500, 4.280142489115113400 ) ) ;
#295 = CARTESIAN_POINT ( 'NONE',  ( 6.377554205705908300, 19.27817777414540500, 4.280142489115111600 ) ) ;
ENDSEC;
END-ISO-10303-21;
