ISO-10303-21;
HEADER;
FILE_DESCRIPTION (( 'STEP AP203' ),
    '1' );
FILE_NAME ('111-0414E BK7 bi-cx 38.1 F150.STEP',
    '2019-01-10T10:31:41',
    ( '' ),
    ( '' ),
    'SwSTEP 2.0',
    'SolidWorks 2017',
    '' );
FILE_SCHEMA (( 'CONFIG_CONTROL_DESIGN' ));
ENDSEC;

DATA;
#1 = CARTESIAN_POINT ( 'NONE',  ( 19.21369900018514100, -6.459326882221769300, 0.7901221283372990000 ) ) ;
#2 = ORIENTED_EDGE ( 'NONE', *, *, #119, .F. ) ;
#3 = CARTESIAN_POINT ( 'NONE',  ( -4.662936703425659800E-015, -8.881784197001250400E-016, 1.176637518898189900 ) ) ;
#4 = AXIS2_PLACEMENT_3D ( 'NONE', #51, #189, #127 ) ;
#5 = CARTESIAN_POINT ( 'NONE',  ( -19.01453818425250800, -19.27741799509339100, 2.386521288036819400 ) ) ;
#6 = DIRECTION ( 'NONE',  ( 0.0000000000000000000, -1.000000000000000000, 0.0000000000000000000 ) ) ;
#7 = DIRECTION ( 'NONE',  ( 1.000000000000000000, 0.0000000000000000000, 0.0000000000000000000 ) ) ;
#8 = COORDINATED_UNIVERSAL_TIME_OFFSET ( 2, 0, .AHEAD. ) ;
#9 =( BOUNDED_SURFACE ( )  B_SPLINE_SURFACE ( 3, 3, ( 
 ( #27, #212, #77, #171 ),
 ( #123, #214, #239, #1 ),
 ( #213, #126, #187, #210 ),
 ( #257, #146, #121, #215 ) ),
 .UNSPECIFIED., .F., .F., .F. ) 
 B_SPLINE_SURFACE_WITH_KNOTS ( ( 4, 4 ),
 ( 4, 4 ),
 ( 0.0000000000000000000, 1.000000000000000000 ),
 ( 0.0000000000000000000, 1.000000000000000000 ),
 .UNSPECIFIED. ) 
 GEOMETRIC_REPRESENTATION_ITEM ( )  RATIONAL_B_SPLINE_SURFACE ( (
 ( 1.000000000000000000, 0.9987167005333876800, 0.9987167005333876800, 1.000000000000000000),
 ( 0.9948104679530059800, 0.9935338282101015000, 0.9935338282101015000, 0.9948104679530059800),
 ( 0.9948104679530059800, 0.9935338282101015000, 0.9935338282101015000, 0.9948104679530059800),
 ( 1.000000000000000000, 0.9987167005333876800, 0.9987167005333876800, 1.000000000000000000) ) ) 
 REPRESENTATION_ITEM ( '' )  SURFACE ( )  );
#10 = CARTESIAN_POINT ( 'NONE',  ( -1.421085471520200400E-014, 19.27741799509337600, 3.794990658687991100 ) ) ;
#11 = CARTESIAN_POINT ( 'NONE',  ( -1.421085471520200700E-014, 6.459326882221755100, 5.403765132532076800 ) ) ;
#12 = ORIENTED_EDGE ( 'NONE', *, *, #185, .F. ) ;
#13 = CARTESIAN_POINT ( 'NONE',  ( -1.421085471520200400E-014, 19.04999999999996900, 3.823362481101815600 ) ) ;
#14 = CARTESIAN_POINT ( 'NONE',  ( -12.83795985610405800, 6.459326882221755100, -0.005291351051048948600 ) ) ;
#15 = CARTESIAN_POINT ( 'NONE',  ( -12.83795985610402100, 6.459326882221755100, 5.005291351051048400 ) ) ;
#16 = VECTOR ( 'NONE', #26, 1000.000000000000000 ) ;
#17 = ADVANCED_FACE ( 'NONE', ( #246 ), #220, .T. ) ;
#18 = MECHANICAL_CONTEXT ( 'NONE', #140, 'mechanical' ) ;
#19 = AXIS2_PLACEMENT_3D ( 'NONE', #124, #46, #79 ) ;
#20 = ORIENTED_EDGE ( 'NONE', *, *, #216, .F. ) ;
#21 = CC_DESIGN_APPROVAL ( #172, ( #259 ) ) ;
#22 = CARTESIAN_POINT ( 'NONE',  ( 19.01453818425250800, -19.27741799509339100, 2.613478711963185000 ) ) ;
#23 = CIRCLE ( 'NONE', #233, 154.8000000000000100 ) ;
#24 = SHAPE_DEFINITION_REPRESENTATION ( #116, #280 ) ;
#25 = APPROVAL_PERSON_ORGANIZATION ( #165, #47, #226 ) ;
#26 = DIRECTION ( 'NONE',  ( 0.0000000000000000000, 0.0000000000000000000, 1.000000000000000000 ) ) ;
#27 = CARTESIAN_POINT ( 'NONE',  ( 1.421085471520200400E-014, -19.27741799509339100, 1.205009341312013300 ) ) ;
#28 = CARTESIAN_POINT ( 'NONE',  ( -4.662936703425659800E-015, -8.881784197001250400E-016, 1.176637518898189900 ) ) ;
#29 = CARTESIAN_POINT ( 'NONE',  ( -1.421085471520200100E-014, -1.421085471520200100E-014, -149.8000000000000100 ) ) ;
#30 = ORIENTED_EDGE ( 'NONE', *, *, #181, .F. ) ;
#31 = CARTESIAN_POINT ( 'NONE',  ( -4.662936703425659800E-015, -8.881784197001250400E-016, 3.823362481101810300 ) ) ;
#32 = CC_DESIGN_PERSON_AND_ORGANIZATION_ASSIGNMENT ( #75, #60, ( #61 ) ) ;
#33 = DIRECTION ( 'NONE',  ( 1.000000000000000000, 0.0000000000000000000, 0.0000000000000000000 ) ) ;
#34 = ORIENTED_EDGE ( 'NONE', *, *, #152, .F. ) ;
#35 = CARTESIAN_POINT ( 'NONE',  ( -4.662936703425659800E-015, -8.881784197001250400E-016, 1.176637518898189900 ) ) ;
#36 = CARTESIAN_POINT ( 'NONE',  ( -6.425163985188358000, 6.459326882221755100, -0.4037651325320724700 ) ) ;
#37 = ORIENTED_EDGE ( 'NONE', *, *, #156, .F. ) ;
#38 = SECURITY_CLASSIFICATION_LEVEL ( 'unclassified' ) ;
#39 = VECTOR ( 'NONE', #168, 1000.000000000000000 ) ;
#40 = APPLICATION_CONTEXT ( 'configuration controlled 3d designs of mechanical parts and assemblies' ) ;
#41 = CARTESIAN_POINT ( 'NONE',  ( 2.081668171172168500E-014, -19.27741799509339100, 3.794990658687992900 ) ) ;
#42 = CARTESIAN_POINT ( 'NONE',  ( 19.21369900018520500, -6.459326882221769300, 4.209877871662705200 ) ) ;
#43 = EDGE_CURVE ( 'NONE', #164, #179, #117, .T. ) ;
#44 = CIRCLE ( 'NONE', #248, 19.05000000000000100 ) ;
#45 = CARTESIAN_POINT ( 'NONE',  ( 6.425163985188358000, -6.459326882221769300, 5.403765132532075900 ) ) ;
#46 = DIRECTION ( 'NONE',  ( -0.0000000000000000000, -0.0000000000000000000, -1.000000000000000000 ) ) ;
#47 = APPROVAL ( #162, 'UNSPECIFIED' ) ;
#48 = LINE ( 'NONE', #49, #16 ) ;
#49 = CARTESIAN_POINT ( 'NONE',  ( -19.05000000000000400, 1.444773732675583000E-015, 1.176637518898189900 ) ) ;
#50 = EDGE_LOOP ( 'NONE', ( #269, #207, #232 ) ) ;
#51 = CARTESIAN_POINT ( 'NONE',  ( -4.662936703425659800E-015, -8.881784197001250400E-016, 1.176637518898189900 ) ) ;
#52 = EDGE_LOOP ( 'NONE', ( #34, #107, #231 ) ) ;
#53 = LOCAL_TIME ( 12, 31, 41.00000000000000000, #141 ) ;
#54 = PERSON_AND_ORGANIZATION ( #173, #63 ) ;
#55 = DIRECTION ( 'NONE',  ( 1.000000000000000000, 0.0000000000000000000, 0.0000000000000000000 ) ) ;
#56 = CARTESIAN_POINT ( 'NONE',  ( 1.421085471520200100E-014, -1.421085471520200100E-014, 154.8000000000000100 ) ) ;
#57 = CYLINDRICAL_SURFACE ( 'NONE', #82, 19.05000000000000100 ) ;
#58 = AXIS2_PLACEMENT_3D ( 'NONE', #28, #167, #148 ) ;
#59 = PERSON_AND_ORGANIZATION ( #173, #63 ) ;
#60 = PERSON_AND_ORGANIZATION_ROLE ( 'creator' ) ;
#61 = PRODUCT_DEFINITION ( 'UNKNOWN', '', #259, #282 ) ;
#62 = ADVANCED_FACE ( 'NONE', ( #125 ), #57, .T. ) ;
#63 = ORGANIZATION ( 'UNSPECIFIED', 'UNSPECIFIED', '' ) ;
#64 = APPLICATION_PROTOCOL_DEFINITION ( 'international standard', 'config_control_design', 1994, #140 ) ;
#65 = CALENDAR_DATE ( 2019, 10, 1 ) ;
#66 = EDGE_CURVE ( 'NONE', #179, #99, #100, .T. ) ;
#67 = CARTESIAN_POINT ( 'NONE',  ( 19.21369900018520500, 6.459326882221755100, 4.209877871662706100 ) ) ;
#68 = EDGE_LOOP ( 'NONE', ( #151, #12, #30, #283, #103, #194 ) ) ;
#69 =( BOUNDED_SURFACE ( )  B_SPLINE_SURFACE ( 3, 3, ( 
 ( #178, #247, #131, #284 ),
 ( #243, #268, #153, #174 ),
 ( #11, #224, #15, #87 ),
 ( #10, #132, #138, #286 ) ),
 .UNSPECIFIED., .F., .F., .F. ) 
 B_SPLINE_SURFACE_WITH_KNOTS ( ( 4, 4 ),
 ( 4, 4 ),
 ( 0.0000000000000000000, 1.000000000000000000 ),
 ( 0.0000000000000000000, 1.000000000000000000 ),
 .UNSPECIFIED. ) 
 GEOMETRIC_REPRESENTATION_ITEM ( )  RATIONAL_B_SPLINE_SURFACE ( (
 ( 1.000000000000000000, 0.9987167005333876800, 0.9987167005333876800, 1.000000000000000000),
 ( 0.9948104679530059800, 0.9935338282101015000, 0.9935338282101015000, 0.9948104679530059800),
 ( 0.9948104679530059800, 0.9935338282101015000, 0.9935338282101015000, 0.9948104679530059800),
 ( 1.000000000000000000, 0.9987167005333876800, 0.9987167005333876800, 1.000000000000000000) ) ) 
 REPRESENTATION_ITEM ( '' )  SURFACE ( )  );
#70 = APPROVAL_DATE_TIME ( #271, #172 ) ;
#71 = CARTESIAN_POINT ( 'NONE',  ( 12.70488716875592100, -19.27741799509339400, 3.400647282468691700 ) ) ;
#72 = EDGE_CURVE ( 'NONE', #228, #223, #48, .T. ) ;
#73 = CARTESIAN_POINT ( 'NONE',  ( 2.428612866367529600E-014, 6.459326882221755100, 5.403765132532077700 ) ) ;
#74 = EDGE_CURVE ( 'NONE', #223, #274, #254, .T. ) ;
#75 = PERSON_AND_ORGANIZATION ( #173, #63 ) ;
#76 = DATE_AND_TIME ( #65, #264 ) ;
#77 = CARTESIAN_POINT ( 'NONE',  ( 12.70488716875587400, -19.27741799509339400, 1.599352717531318500 ) ) ;
#78 = ORIENTED_EDGE ( 'NONE', *, *, #43, .F. ) ;
#79 = DIRECTION ( 'NONE',  ( 1.000000000000000000, 8.881784197001252300E-016, 0.0000000000000000000 ) ) ;
#80 = DIRECTION ( 'NONE',  ( 1.000000000000000000, 0.0000000000000000000, 0.0000000000000000000 ) ) ;
#81 = CIRCLE ( 'NONE', #4, 19.05000000000000100 ) ;
#82 = AXIS2_PLACEMENT_3D ( 'NONE', #3, #238, #147 ) ;
#83 = CIRCLE ( 'NONE', #163, 19.05000000000000100 ) ;
#84 = DIRECTION ( 'NONE',  ( 1.000000000000000000, 0.0000000000000000000, 0.0000000000000000000 ) ) ;
#85 = APPROVAL_DATE_TIME ( #139, #120 ) ;
#86 = CC_DESIGN_PERSON_AND_ORGANIZATION_ASSIGNMENT ( #129, #184, ( #142 ) ) ;
#87 = CARTESIAN_POINT ( 'NONE',  ( -19.21369900018515200, 6.459326882221755100, 4.209877871662707000 ) ) ;
#88 = CARTESIAN_POINT ( 'NONE',  ( -19.01453818425250800, 19.27741799509337600, 2.386521288036819400 ) ) ;
#89 = VERTEX_POINT ( 'NONE', #278 ) ;
#90 = CARTESIAN_POINT ( 'NONE',  ( -12.70488716875592100, 19.27741799509338000, 1.599352717531312700 ) ) ;
#91 = CARTESIAN_POINT ( 'NONE',  ( -1.421085471520200400E-014, -19.04999999999998300, 3.823362481101815600 ) ) ;
#92 = APPROVAL_ROLE ( '' ) ;
#93 = AXIS2_PLACEMENT_3D ( 'NONE', #56, #176, #289 ) ;
#94 = PERSON_AND_ORGANIZATION_ROLE ( 'creator' ) ;
#95 = APPROVAL_ROLE ( '' ) ;
#96 = ADVANCED_FACE ( 'NONE', ( #197 ), #9, .T. ) ;
#97 = EDGE_CURVE ( 'NONE', #99, #211, #83, .T. ) ;
#98 = PERSON_AND_ORGANIZATION_ROLE ( 'classification_officer' ) ;
#99 = VERTEX_POINT ( 'NONE', #219 ) ;
#100 = LINE ( 'NONE', #105, #39 ) ;
#101 = CARTESIAN_POINT ( 'NONE',  ( 6.358563540277713400, 19.27741799509338000, 3.794990658687991600 ) ) ;
#102 =( BOUNDED_SURFACE ( )  B_SPLINE_SURFACE ( 3, 3, ( 
 ( #5, #191, #242, #110 ),
 ( #265, #260, #113, #135 ),
 ( #245, #14, #36, #111 ),
 ( #88, #90, #222, #266 ) ),
 .UNSPECIFIED., .F., .F., .F. ) 
 B_SPLINE_SURFACE_WITH_KNOTS ( ( 4, 4 ),
 ( 4, 4 ),
 ( 0.0000000000000000000, 1.000000000000000000 ),
 ( 0.0000000000000000000, 1.000000000000000000 ),
 .UNSPECIFIED. ) 
 GEOMETRIC_REPRESENTATION_ITEM ( )  RATIONAL_B_SPLINE_SURFACE ( (
 ( 1.000000000000000000, 0.9987167005333876800, 0.9987167005333876800, 1.000000000000000000),
 ( 0.9948104679530059800, 0.9935338282101015000, 0.9935338282101015000, 0.9948104679530059800),
 ( 0.9948104679530059800, 0.9935338282101015000, 0.9935338282101015000, 0.9948104679530059800),
 ( 1.000000000000000000, 0.9987167005333876800, 0.9987167005333876800, 1.000000000000000000) ) ) 
 REPRESENTATION_ITEM ( '' )  SURFACE ( )  );
#103 = ORIENTED_EDGE ( 'NONE', *, *, #97, .T. ) ;
#104 = CIRCLE ( 'NONE', #275, 19.05000000000000100 ) ;
#105 = CARTESIAN_POINT ( 'NONE',  ( 19.04999999999999700, -8.881784197001250400E-016, 1.176637518898189900 ) ) ;
#106 = DIRECTION ( 'NONE',  ( -0.0000000000000000000, -0.0000000000000000000, -1.000000000000000000 ) ) ;
#107 = ORIENTED_EDGE ( 'NONE', *, *, #119, .T. ) ;
#108 = DIRECTION ( 'NONE',  ( -0.0000000000000000000, -0.0000000000000000000, -1.000000000000000000 ) ) ;
#109 = COORDINATED_UNIVERSAL_TIME_OFFSET ( 2, 0, .AHEAD. ) ;
#110 = CARTESIAN_POINT ( 'NONE',  ( -2.081668171172168500E-014, -19.27741799509339100, 1.205009341312012200 ) ) ;
#111 = CARTESIAN_POINT ( 'NONE',  ( -2.428612866367529600E-014, 6.459326882221755100, -0.4037651325320740200 ) ) ;
#112 = CIRCLE ( 'NONE', #290, 19.05000000000000100 ) ;
#113 = CARTESIAN_POINT ( 'NONE',  ( -6.425163985188358000, -6.459326882221769300, -0.4037651325320713600 ) ) ;
#114 = PERSON_AND_ORGANIZATION ( #173, #63 ) ;
#115 = AXIS2_PLACEMENT_3D ( 'NONE', #249, #270, #292 ) ;
#116 = PRODUCT_DEFINITION_SHAPE ( 'NONE', 'NONE',  #61 ) ;
#117 = CIRCLE ( 'NONE', #58, 19.05000000000000100 ) ;
#118 =( NAMED_UNIT ( * ) PLANE_ANGLE_UNIT ( ) SI_UNIT ( $, .RADIAN. ) );
#119 = EDGE_CURVE ( 'NONE', #211, #274, #23, .T. ) ;
#120 = APPROVAL ( #272, 'UNSPECIFIED' ) ;
#121 = CARTESIAN_POINT ( 'NONE',  ( 12.70488716875587400, 19.27741799509338000, 1.599352717531318500 ) ) ;
#122 = DATE_AND_TIME ( #182, #236 ) ;
#123 = CARTESIAN_POINT ( 'NONE',  ( 1.421085471520200700E-014, -6.459326882221769300, -0.4037651325320711400 ) ) ;
#124 = CARTESIAN_POINT ( 'NONE',  ( -4.662936703425659800E-015, -8.881784197001250400E-016, 3.823362481101810300 ) ) ;
#125 = FACE_OUTER_BOUND ( 'NONE', #144, .T. ) ;
#126 = CARTESIAN_POINT ( 'NONE',  ( 6.425163985188330400, 6.459326882221755100, -0.4037651325320725200 ) ) ;
#127 = DIRECTION ( 'NONE',  ( 1.000000000000000000, 0.0000000000000000000, 0.0000000000000000000 ) ) ;
#128 = DIRECTION ( 'NONE',  ( -1.000000000000000000, 0.0000000000000000000, 0.0000000000000000000 ) ) ;
#129 = PERSON_AND_ORGANIZATION ( #173, #63 ) ;
#130 = SECURITY_CLASSIFICATION ( '', '', #38 ) ;
#131 = CARTESIAN_POINT ( 'NONE',  ( -12.70488716875588300, -19.27741799509339400, 3.400647282468686900 ) ) ;
#132 = CARTESIAN_POINT ( 'NONE',  ( -6.358563540277691200, 19.27741799509338000, 3.794990658687991100 ) ) ;
#133 = UNCERTAINTY_MEASURE_WITH_UNIT (LENGTH_MEASURE( 1.000000000000000100E-005 ), #225, 'distance_accuracy_value', 'NONE');
#134 = EDGE_CURVE ( 'NONE', #228, #164, #44, .T. ) ;
#135 = CARTESIAN_POINT ( 'NONE',  ( -2.428612866367529600E-014, -6.459326882221769300, -0.4037651325320729100 ) ) ;
#136 = ORIENTED_EDGE ( 'NONE', *, *, #156, .T. ) ;
#137 = CARTESIAN_POINT ( 'NONE',  ( -19.05000000000000400, 1.444773732675583000E-015, 3.823362481101810300 ) ) ;
#138 = CARTESIAN_POINT ( 'NONE',  ( -12.70488716875588300, 19.27741799509338000, 3.400647282468686900 ) ) ;
#139 = DATE_AND_TIME ( #145, #199 ) ;
#140 = APPLICATION_CONTEXT ( 'configuration controlled 3d designs of mechanical parts and assemblies' ) ;
#141 = COORDINATED_UNIVERSAL_TIME_OFFSET ( 2, 0, .AHEAD. ) ;
#142 = PRODUCT ( '111-0414E BK7 bi-cx 38.1 F150', '111-0414E BK7 bi-cx 38.1 F150', '', ( #18 ) ) ;
#143 = CC_DESIGN_APPROVAL ( #120, ( #61 ) ) ;
#144 = EDGE_LOOP ( 'NONE', ( #170, #218, #161, #136, #188, #78 ) ) ;
#145 = CALENDAR_DATE ( 2019, 10, 1 ) ;
#146 = CARTESIAN_POINT ( 'NONE',  ( 6.358563540277690300, 19.27741799509338000, 1.205009341312013300 ) ) ;
#147 = DIRECTION ( 'NONE',  ( 1.000000000000000000, 0.0000000000000000000, 0.0000000000000000000 ) ) ;
#148 = DIRECTION ( 'NONE',  ( 1.000000000000000000, 0.0000000000000000000, 0.0000000000000000000 ) ) ;
#149 = CARTESIAN_POINT ( 'NONE',  ( -4.662936703425659800E-015, -8.881784197001250400E-016, 1.176637518898189900 ) ) ;
#150 = DIRECTION ( 'NONE',  ( -0.0000000000000000000, -0.0000000000000000000, -1.000000000000000000 ) ) ;
#151 = ORIENTED_EDGE ( 'NONE', *, *, #72, .F. ) ;
#152 = EDGE_CURVE ( 'NONE', #211, #223, #294, .T. ) ;
#153 = CARTESIAN_POINT ( 'NONE',  ( -12.83795985610401800, -6.459326882221769300, 5.005291351051046600 ) ) ;
#154 = ORIENTED_EDGE ( 'NONE', *, *, #185, .T. ) ;
#155 = FACE_OUTER_BOUND ( 'NONE', #52, .T. ) ;
#156 = EDGE_CURVE ( 'NONE', #274, #99, #112, .T. ) ;
#157 = DATE_TIME_ROLE ( 'creation_date' ) ;
#158 = FACE_OUTER_BOUND ( 'NONE', #288, .T. ) ;
#159 = PERSON_AND_ORGANIZATION ( #173, #63 ) ;
#160 = CC_DESIGN_PERSON_AND_ORGANIZATION_ASSIGNMENT ( #59, #98, ( #130 ) ) ;
#161 = ORIENTED_EDGE ( 'NONE', *, *, #74, .T. ) ;
#162 = APPROVAL_STATUS ( 'not_yet_approved' ) ;
#163 = AXIS2_PLACEMENT_3D ( 'NONE', #31, #263, #7 ) ;
#164 = VERTEX_POINT ( 'NONE', #281 ) ;
#165 = PERSON_AND_ORGANIZATION ( #173, #63 ) ;
#166 = CC_DESIGN_PERSON_AND_ORGANIZATION_ASSIGNMENT ( #114, #94, ( #259 ) ) ;
#167 = DIRECTION ( 'NONE',  ( -0.0000000000000000000, -0.0000000000000000000, -1.000000000000000000 ) ) ;
#168 = DIRECTION ( 'NONE',  ( 0.0000000000000000000, 0.0000000000000000000, 1.000000000000000000 ) ) ;
#169 = CARTESIAN_POINT ( 'NONE',  ( -4.662936703425659800E-015, -8.881784197001250400E-016, 3.823362481101810300 ) ) ;
#170 = ORIENTED_EDGE ( 'NONE', *, *, #134, .F. ) ;
#171 = CARTESIAN_POINT ( 'NONE',  ( 19.01453818425244400, -19.27741799509339100, 2.386521288036819400 ) ) ;
#172 = APPROVAL ( #202, 'UNSPECIFIED' ) ;
#173 = PERSON ( 'UNSPECIFIED', 'UNSPECIFIED', 'UNSPECIFIED', ('UNSPECIFIED'), ('UNSPECIFIED'), ('UNSPECIFIED') ) ;
#174 = CARTESIAN_POINT ( 'NONE',  ( -19.21369900018514800, -6.459326882221769300, 4.209877871662705200 ) ) ;
#175 = COORDINATED_UNIVERSAL_TIME_OFFSET ( 2, 0, .AHEAD. ) ;
#176 = DIRECTION ( 'NONE',  ( 1.000000000000000000, 0.0000000000000000000, 0.0000000000000000000 ) ) ;
#177 = AXIS2_PLACEMENT_3D ( 'NONE', #169, #106, #80 ) ;
#178 = CARTESIAN_POINT ( 'NONE',  ( -1.421085471520200400E-014, -19.27741799509339100, 3.794990658687991100 ) ) ;
#179 = VERTEX_POINT ( 'NONE', #240 ) ;
#180 = CC_DESIGN_PERSON_AND_ORGANIZATION_ASSIGNMENT ( #159, #251, ( #259 ) ) ;
#181 = EDGE_CURVE ( 'NONE', #179, #89, #104, .T. ) ;
#182 = CALENDAR_DATE ( 2019, 10, 1 ) ;
#183 = CYLINDRICAL_SURFACE ( 'NONE', #209, 19.05000000000000100 ) ;
#184 = PERSON_AND_ORGANIZATION_ROLE ( 'design_owner' ) ;
#185 = EDGE_CURVE ( 'NONE', #89, #228, #81, .T. ) ;
#186 = CARTESIAN_POINT ( 'NONE',  ( 2.428612866367529600E-014, -6.459326882221769300, 5.403765132532077700 ) ) ;
#187 = CARTESIAN_POINT ( 'NONE',  ( 12.83795985610401400, 6.459326882221755100, -0.005291351051043310800 ) ) ;
#188 = ORIENTED_EDGE ( 'NONE', *, *, #66, .F. ) ;
#189 = DIRECTION ( 'NONE',  ( -0.0000000000000000000, -0.0000000000000000000, -1.000000000000000000 ) ) ;
#190 = CC_DESIGN_SECURITY_CLASSIFICATION ( #130, ( #259 ) ) ;
#191 = CARTESIAN_POINT ( 'NONE',  ( -12.70488716875592100, -19.27741799509339400, 1.599352717531312700 ) ) ;
#192 = APPROVAL_PERSON_ORGANIZATION ( #256, #120, #92 ) ;
#193 = CARTESIAN_POINT ( 'NONE',  ( -19.05000000000000400, 1.444773732675583000E-015, 1.176637518898189900 ) ) ;
#194 = ORIENTED_EDGE ( 'NONE', *, *, #152, .T. ) ;
#195 = CC_DESIGN_DATE_AND_TIME_ASSIGNMENT ( #221, #250, ( #130 ) ) ;
#196 = DIRECTION ( 'NONE',  ( 0.0000000000000000000, 0.0000000000000000000, 1.000000000000000000 ) ) ;
#197 = FACE_OUTER_BOUND ( 'NONE', #50, .T. ) ;
#198 = APPLICATION_PROTOCOL_DEFINITION ( 'international standard', 'config_control_design', 1994, #40 ) ;
#199 = LOCAL_TIME ( 12, 31, 41.00000000000000000, #244 ) ;
#200 = LOCAL_TIME ( 12, 31, 41.00000000000000000, #175 ) ;
#201 = ADVANCED_FACE ( 'NONE', ( #158 ), #102, .T. ) ;
#202 = APPROVAL_STATUS ( 'not_yet_approved' ) ;
#203 = CLOSED_SHELL ( 'NONE', ( #96, #227, #62, #201, #253, #17 ) ) ;
#204 = FACE_OUTER_BOUND ( 'NONE', #68, .T. ) ;
#205 = CARTESIAN_POINT ( 'NONE',  ( 12.70488716875592100, 19.27741799509338000, 3.400647282468691700 ) ) ;
#206 = CC_DESIGN_DATE_AND_TIME_ASSIGNMENT ( #122, #157, ( #61 ) ) ;
#207 = ORIENTED_EDGE ( 'NONE', *, *, #216, .T. ) ;
#208 = CARTESIAN_POINT ( 'NONE',  ( 12.83795985610405800, 6.459326882221755100, 5.005291351051052800 ) ) ;
#209 = AXIS2_PLACEMENT_3D ( 'NONE', #35, #196, #55 ) ;
#210 = CARTESIAN_POINT ( 'NONE',  ( 19.21369900018514100, 6.459326882221755100, 0.7901221283372977800 ) ) ;
#211 = VERTEX_POINT ( 'NONE', #91 ) ;
#212 = CARTESIAN_POINT ( 'NONE',  ( 6.358563540277690300, -19.27741799509339400, 1.205009341312013300 ) ) ;
#213 = CARTESIAN_POINT ( 'NONE',  ( 1.421085471520200700E-014, 6.459326882221755100, -0.4037651325320725200 ) ) ;
#214 = CARTESIAN_POINT ( 'NONE',  ( 6.425163985188330400, -6.459326882221769300, -0.4037651325320711900 ) ) ;
#215 = CARTESIAN_POINT ( 'NONE',  ( 19.01453818425244400, 19.27741799509337600, 2.386521288036819400 ) ) ;
#216 = EDGE_CURVE ( 'NONE', #89, #164, #277, .T. ) ;
#217 = CARTESIAN_POINT ( 'NONE',  ( -4.662936703425659800E-015, -8.881784197001250400E-016, 3.823362481101810300 ) ) ;
#218 = ORIENTED_EDGE ( 'NONE', *, *, #72, .T. ) ;
#219 = CARTESIAN_POINT ( 'NONE',  ( 19.04999999999999700, -8.881784197001250400E-016, 3.823362481101810300 ) ) ;
#220 =( BOUNDED_SURFACE ( )  B_SPLINE_SURFACE ( 3, 3, ( 
 ( #22, #71, #295, #41 ),
 ( #42, #234, #45, #186 ),
 ( #67, #208, #229, #73 ),
 ( #235, #205, #101, #255 ) ),
 .UNSPECIFIED., .F., .F., .T. ) 
 B_SPLINE_SURFACE_WITH_KNOTS ( ( 4, 4 ),
 ( 4, 4 ),
 ( 0.0000000000000000000, 1.000000000000000000 ),
 ( 0.0000000000000000000, 1.000000000000000000 ),
 .UNSPECIFIED. ) 
 GEOMETRIC_REPRESENTATION_ITEM ( )  RATIONAL_B_SPLINE_SURFACE ( (
 ( 1.000000000000000000, 0.9987167005333876800, 0.9987167005333876800, 1.000000000000000000),
 ( 0.9948104679530059800, 0.9935338282101015000, 0.9935338282101015000, 0.9948104679530059800),
 ( 0.9948104679530059800, 0.9935338282101015000, 0.9935338282101015000, 0.9948104679530059800),
 ( 1.000000000000000000, 0.9987167005333876800, 0.9987167005333876800, 1.000000000000000000) ) ) 
 REPRESENTATION_ITEM ( '' )  SURFACE ( )  );
#221 = DATE_AND_TIME ( #267, #53 ) ;
#222 = CARTESIAN_POINT ( 'NONE',  ( -6.358563540277713400, 19.27741799509338000, 1.205009341312013800 ) ) ;
#223 = VERTEX_POINT ( 'NONE', #137 ) ;
#224 = CARTESIAN_POINT ( 'NONE',  ( -6.425163985188333100, 6.459326882221755100, 5.403765132532076800 ) ) ;
#225 =( LENGTH_UNIT ( ) NAMED_UNIT ( * ) SI_UNIT ( .MILLI., .METRE. ) );
#226 = APPROVAL_ROLE ( '' ) ;
#227 = ADVANCED_FACE ( 'NONE', ( #155 ), #69, .T. ) ;
#228 = VERTEX_POINT ( 'NONE', #193 ) ;
#229 = CARTESIAN_POINT ( 'NONE',  ( 6.425163985188358000, 6.459326882221755100, 5.403765132532075900 ) ) ;
#230 = CC_DESIGN_APPROVAL ( #47, ( #130 ) ) ;
#231 = ORIENTED_EDGE ( 'NONE', *, *, #74, .F. ) ;
#232 = ORIENTED_EDGE ( 'NONE', *, *, #43, .T. ) ;
#233 = AXIS2_PLACEMENT_3D ( 'NONE', #29, #128, #6 ) ;
#234 = CARTESIAN_POINT ( 'NONE',  ( 12.83795985610405800, -6.459326882221769300, 5.005291351051051900 ) ) ;
#235 = CARTESIAN_POINT ( 'NONE',  ( 19.01453818425250800, 19.27741799509337600, 2.613478711963185000 ) ) ;
#236 = LOCAL_TIME ( 12, 31, 41.00000000000000000, #8 ) ;
#237 =( GEOMETRIC_REPRESENTATION_CONTEXT ( 3 ) GLOBAL_UNCERTAINTY_ASSIGNED_CONTEXT ( ( #133 ) ) GLOBAL_UNIT_ASSIGNED_CONTEXT ( ( #225, #118, #291 ) ) REPRESENTATION_CONTEXT ( 'NONE', 'WORKASPACE' ) );
#238 = DIRECTION ( 'NONE',  ( 0.0000000000000000000, 0.0000000000000000000, 1.000000000000000000 ) ) ;
#239 = CARTESIAN_POINT ( 'NONE',  ( 12.83795985610401400, -6.459326882221769300, -0.005291351051042009700 ) ) ;
#240 = CARTESIAN_POINT ( 'NONE',  ( 19.04999999999999700, -8.881784197001250400E-016, 1.176637518898189900 ) ) ;
#241 = DIRECTION ( 'NONE',  ( -0.0000000000000000000, -0.0000000000000000000, -1.000000000000000000 ) ) ;
#242 = CARTESIAN_POINT ( 'NONE',  ( -6.358563540277713400, -19.27741799509339400, 1.205009341312013800 ) ) ;
#243 = CARTESIAN_POINT ( 'NONE',  ( -1.421085471520200700E-014, -6.459326882221769300, 5.403765132532075000 ) ) ;
#244 = COORDINATED_UNIVERSAL_TIME_OFFSET ( 2, 0, .AHEAD. ) ;
#245 = CARTESIAN_POINT ( 'NONE',  ( -19.21369900018520500, 6.459326882221755100, 0.7901221283372980000 ) ) ;
#246 = FACE_OUTER_BOUND ( 'NONE', #276, .T. ) ;
#247 = CARTESIAN_POINT ( 'NONE',  ( -6.358563540277691200, -19.27741799509339400, 3.794990658687991100 ) ) ;
#248 = AXIS2_PLACEMENT_3D ( 'NONE', #262, #150, #84 ) ;
#249 = CARTESIAN_POINT ( 'NONE',  ( 0.0000000000000000000, 0.0000000000000000000, 0.0000000000000000000 ) ) ;
#250 = DATE_TIME_ROLE ( 'classification_date' ) ;
#251 = PERSON_AND_ORGANIZATION_ROLE ( 'design_supplier' ) ;
#252 = MANIFOLD_SOLID_BREP ( 'Imported1', #203 ) ;
#253 = ADVANCED_FACE ( 'NONE', ( #204 ), #183, .T. ) ;
#254 = CIRCLE ( 'NONE', #19, 19.05000000000000100 ) ;
#255 = CARTESIAN_POINT ( 'NONE',  ( 2.081668171172168500E-014, 19.27741799509337600, 3.794990658687992900 ) ) ;
#256 = PERSON_AND_ORGANIZATION ( #173, #63 ) ;
#257 = CARTESIAN_POINT ( 'NONE',  ( 1.421085471520200400E-014, 19.27741799509337600, 1.205009341312013300 ) ) ;
#258 = ORIENTED_EDGE ( 'NONE', *, *, #97, .F. ) ;
#259 = PRODUCT_DEFINITION_FORMATION_WITH_SPECIFIED_SOURCE ( 'ANY', '', #142, .NOT_KNOWN. ) ;
#260 = CARTESIAN_POINT ( 'NONE',  ( -12.83795985610405800, -6.459326882221769300, -0.005291351051047864400 ) ) ;
#261 = CALENDAR_DATE ( 2019, 10, 1 ) ;
#262 = CARTESIAN_POINT ( 'NONE',  ( -4.662936703425659800E-015, -8.881784197001250400E-016, 1.176637518898189900 ) ) ;
#263 = DIRECTION ( 'NONE',  ( -0.0000000000000000000, -0.0000000000000000000, -1.000000000000000000 ) ) ;
#264 = LOCAL_TIME ( 12, 31, 41.00000000000000000, #109 ) ;
#265 = CARTESIAN_POINT ( 'NONE',  ( -19.21369900018520500, -6.459326882221769300, 0.7901221283372990000 ) ) ;
#266 = CARTESIAN_POINT ( 'NONE',  ( -2.081668171172168500E-014, 19.27741799509337600, 1.205009341312012200 ) ) ;
#267 = CALENDAR_DATE ( 2019, 10, 1 ) ;
#268 = CARTESIAN_POINT ( 'NONE',  ( -6.425163985188333100, -6.459326882221769300, 5.403765132532075000 ) ) ;
#269 = ORIENTED_EDGE ( 'NONE', *, *, #181, .T. ) ;
#270 = DIRECTION ( 'NONE',  ( 0.0000000000000000000, 0.0000000000000000000, 1.000000000000000000 ) ) ;
#271 = DATE_AND_TIME ( #261, #200 ) ;
#272 = APPROVAL_STATUS ( 'not_yet_approved' ) ;
#273 = ORIENTED_EDGE ( 'NONE', *, *, #134, .T. ) ;
#274 = VERTEX_POINT ( 'NONE', #13 ) ;
#275 = AXIS2_PLACEMENT_3D ( 'NONE', #149, #241, #33 ) ;
#276 = EDGE_LOOP ( 'NONE', ( #2, #258, #37 ) ) ;
#277 = CIRCLE ( 'NONE', #93, 154.8000000000000100 ) ;
#278 = CARTESIAN_POINT ( 'NONE',  ( 1.421085471520200400E-014, -19.04999999999998300, 1.176637518898186400 ) ) ;
#279 = DIRECTION ( 'NONE',  ( 1.000000000000000000, -8.881784197001252300E-016, 0.0000000000000000000 ) ) ;
#280 = ADVANCED_BREP_SHAPE_REPRESENTATION ( '111-0414E BK7 bi-cx 38.1 F150', ( #252, #115 ), #237 ) ;
#281 = CARTESIAN_POINT ( 'NONE',  ( 1.421085471520200400E-014, 19.04999999999996900, 1.176637518898186400 ) ) ;
#282 = DESIGN_CONTEXT ( 'detailed design', #40, 'design' ) ;
#283 = ORIENTED_EDGE ( 'NONE', *, *, #66, .T. ) ;
#284 = CARTESIAN_POINT ( 'NONE',  ( -19.01453818425245500, -19.27741799509339100, 2.613478711963185000 ) ) ;
#285 = APPROVAL_DATE_TIME ( #76, #47 ) ;
#286 = CARTESIAN_POINT ( 'NONE',  ( -19.01453818425245500, 19.27741799509337600, 2.613478711963185000 ) ) ;
#287 = PRODUCT_RELATED_PRODUCT_CATEGORY ( 'detail', '', ( #142 ) ) ;
#288 = EDGE_LOOP ( 'NONE', ( #20, #154, #273 ) ) ;
#289 = DIRECTION ( 'NONE',  ( 0.0000000000000000000, -1.000000000000000000, 0.0000000000000000000 ) ) ;
#290 = AXIS2_PLACEMENT_3D ( 'NONE', #217, #108, #279 ) ;
#291 =( NAMED_UNIT ( * ) SI_UNIT ( $, .STERADIAN. ) SOLID_ANGLE_UNIT ( ) );
#292 = DIRECTION ( 'NONE',  ( 1.000000000000000000, 0.0000000000000000000, 0.0000000000000000000 ) ) ;
#293 = APPROVAL_PERSON_ORGANIZATION ( #54, #172, #95 ) ;
#294 = CIRCLE ( 'NONE', #177, 19.05000000000000100 ) ;
#295 = CARTESIAN_POINT ( 'NONE',  ( 6.358563540277713400, -19.27741799509339400, 3.794990658687991600 ) ) ;
ENDSEC;
END-ISO-10303-21;
