ISO-10303-21;
HEADER;
FILE_DESCRIPTION (( 'STEP AP203' ),
    '1' );
FILE_NAME ('111-0410E BK7 bi-cx 38.1 F100.STEP',
    '2019-01-10T10:17:01',
    ( '' ),
    ( '' ),
    'SwSTEP 2.0',
    'SolidWorks 2017',
    '' );
FILE_SCHEMA (( 'CONFIG_CONTROL_DESIGN' ));
ENDSEC;

DATA;
#1 = VECTOR ( 'NONE', #15, 1000.000000000000000 ) ;
#2 = PERSON_AND_ORGANIZATION ( #251, #123 ) ;
#3 = CARTESIAN_POINT ( 'NONE',  ( 0.0000000000000000000, 0.0000000000000000000, 0.0000000000000000000 ) ) ;
#4 = DIRECTION ( 'NONE',  ( 0.0000000000000000000, 0.0000000000000000000, 1.000000000000000000 ) ) ;
#5 = AXIS2_PLACEMENT_3D ( 'NONE', #112, #69, #91 ) ;
#6 = ORIENTED_EDGE ( 'NONE', *, *, #74, .T. ) ;
#7 = CIRCLE ( 'NONE', #175, 19.05000000000000100 ) ;
#8 = CARTESIAN_POINT ( 'NONE',  ( -2.674257295691540800E-014, 19.27589342986933100, 1.825176914750814600 ) ) ;
#9 = CARTESIAN_POINT ( 'NONE',  ( -3.760949902471196900E-014, -19.04999999999996200, 1.782273608646920900 ) ) ;
#10 = CARTESIAN_POINT ( 'NONE',  ( -5.898059818321146600E-014, 6.502337184977193400, -0.6156869337924481000 ) ) ;
#11 = ORIENTED_EDGE ( 'NONE', *, *, #23, .F. ) ;
#12 = DIRECTION ( 'NONE',  ( 0.0000000000000000000, -1.000000000000000000, 2.702587693829495000E-016 ) ) ;
#13 = CARTESIAN_POINT ( 'NONE',  ( 6.473337624019878300, 6.502337184977191600, 6.615686933792442700 ) ) ;
#14 = ADVANCED_BREP_SHAPE_REPRESENTATION ( '111-0410E BK7 bi-cx 38.1 F100', ( #272, #258 ), #253 ) ;
#15 = DIRECTION ( 'NONE',  ( 1.165588477296749900E-017, 5.434385993627839900E-034, 1.000000000000000000 ) ) ;
#16 = CC_DESIGN_DATE_AND_TIME_ASSIGNMENT ( #174, #48, ( #131 ) ) ;
#17 = CARTESIAN_POINT ( 'NONE',  ( 7.542657169603207600E-015, 19.04999999999996500, 4.217726391353087600 ) ) ;
#18 = DIRECTION ( 'NONE',  ( -1.165588477296749900E-017, -5.434385993627839900E-034, -1.000000000000000000 ) ) ;
#19 = CARTESIAN_POINT ( 'NONE',  ( -12.91819068554702600, -6.502337184977177400, 6.009082441660464900 ) ) ;
#20 = COORDINATED_UNIVERSAL_TIME_OFFSET ( 2, 0, .AHEAD. ) ;
#21 = CYLINDRICAL_SURFACE ( 'NONE', #116, 19.05000000000000100 ) ;
#22 = APPROVAL ( #232, 'UNSPECIFIED' ) ;
#23 = EDGE_CURVE ( 'NONE', #183, #168, #135, .T. ) ;
#24 = CLOSED_SHELL ( 'NONE', ( #57, #105, #281, #100, #176, #76 ) ) ;
#25 = DIRECTION ( 'NONE',  ( 1.000000000000000000, 0.0000000000000000000, 0.0000000000000000000 ) ) ;
#26 = APPROVAL_ROLE ( '' ) ;
#27 = ORIENTED_EDGE ( 'NONE', *, *, #74, .F. ) ;
#28 = CIRCLE ( 'NONE', #169, 19.05000000000000100 ) ;
#29 = EDGE_CURVE ( 'NONE', #58, #212, #93, .T. ) ;
#30 = APPLICATION_CONTEXT ( 'configuration controlled 3d designs of mechanical parts and assemblies' ) ;
#31 = APPLICATION_CONTEXT ( 'configuration controlled 3d designs of mechanical parts and assemblies' ) ;
#32 = CARTESIAN_POINT ( 'NONE',  ( -19.27784074026439900, 6.502337184977198700, 1.198788071302256300 ) ) ;
#33 = DIRECTION ( 'NONE',  ( -1.165588477296749900E-017, -5.434385993627839900E-034, -1.000000000000000000 ) ) ;
#34 = EDGE_LOOP ( 'NONE', ( #64, #220, #118, #256, #107, #200 ) ) ;
#35 = CARTESIAN_POINT ( 'NONE',  ( -6.591949208711868200E-014, -6.502337184977188000, -0.6156869337924398800 ) ) ;
#36 = DIRECTION ( 'NONE',  ( 1.000000000000000000, 0.0000000000000000000, -1.138269997360109700E-017 ) ) ;
#37 = CARTESIAN_POINT ( 'NONE',  ( 3.122502256758252800E-014, -6.502337184977178300, 6.615686933792434700 ) ) ;
#38 = CARTESIAN_POINT ( 'NONE',  ( 12.61299458639953000, 19.27589342986931700, 3.582549804757485300 ) ) ;
#39 = APPROVAL_PERSON_ORGANIZATION ( #2, #157, #26 ) ;
#40 = CARTESIAN_POINT ( 'NONE',  ( -18.82239601606638500, 19.27589342986931700, 2.403215592102208500 ) ) ;
#41 = CC_DESIGN_PERSON_AND_ORGANIZATION_ASSIGNMENT ( #241, #75, ( #282 ) ) ;
#42 = CARTESIAN_POINT ( 'NONE',  ( -2.682924834178691900E-014, 19.04999999999998300, 1.782273608646920900 ) ) ;
#43 = ORIENTED_EDGE ( 'NONE', *, *, #88, .F. ) ;
#44 = CARTESIAN_POINT ( 'NONE',  ( -4.662936703425659800E-015, -8.881784197001250400E-016, 1.782273608646930000 ) ) ;
#45 = CALENDAR_DATE ( 2019, 10, 1 ) ;
#46 = CALENDAR_DATE ( 2019, 10, 1 ) ;
#47 = ORIENTED_EDGE ( 'NONE', *, *, #150, .T. ) ;
#48 = DATE_TIME_ROLE ( 'creation_date' ) ;
#49 = PERSON_AND_ORGANIZATION ( #251, #123 ) ;
#50 = MECHANICAL_CONTEXT ( 'NONE', #30, 'mechanical' ) ;
#51 = PERSON_AND_ORGANIZATION_ROLE ( 'creator' ) ;
#52 = ORIENTED_EDGE ( 'NONE', *, *, #242, .F. ) ;
#53 = PRODUCT_DEFINITION_SHAPE ( 'NONE', 'NONE',  #131 ) ;
#54 = AXIS2_PLACEMENT_3D ( 'NONE', #199, #240, #82 ) ;
#55 = ORIENTED_EDGE ( 'NONE', *, *, #23, .T. ) ;
#56 = CARTESIAN_POINT ( 'NONE',  ( -18.82239601606641300, 19.27589342986933800, 3.596784407897804400 ) ) ;
#57 = ADVANCED_FACE ( 'NONE', ( #216 ), #121, .T. ) ;
#58 = VERTEX_POINT ( 'NONE', #9 ) ;
#59 = CARTESIAN_POINT ( 'NONE',  ( -6.473337624019907600, -6.502337184977187200, -0.6156869337924346700 ) ) ;
#60 = CARTESIAN_POINT ( 'NONE',  ( 6.320403096313443200, 19.27589342986931700, 4.174823085249178300 ) ) ;
#61 = CARTESIAN_POINT ( 'NONE',  ( 3.122502256758252800E-014, -19.27589342986929900, 4.174823085249168600 ) ) ;
#62 = CARTESIAN_POINT ( 'NONE',  ( 7.530388324986654800E-015, 19.27589342986931700, 4.174823085249176600 ) ) ;
#63 = CARTESIAN_POINT ( 'NONE',  ( 18.82239601606639200, -19.27589342986929900, 2.403215592102187200 ) ) ;
#64 = ORIENTED_EDGE ( 'NONE', *, *, #226, .F. ) ;
#65 = PERSON_AND_ORGANIZATION ( #251, #123 ) ;
#66 = CARTESIAN_POINT ( 'NONE',  ( -6.473337624019843700, 6.502337184977191600, 6.615686933792440900 ) ) ;
#67 = ORIENTED_EDGE ( 'NONE', *, *, #255, .F. ) ;
#68 =( BOUNDED_SURFACE ( )  B_SPLINE_SURFACE ( 3, 3, ( 
 ( #83, #201, #172, #222 ),
 ( #147, #285, #59, #35 ),
 ( #32, #280, #224, #10 ),
 ( #56, #221, #103, #283 ) ),
 .UNSPECIFIED., .F., .F., .F. ) 
 B_SPLINE_SURFACE_WITH_KNOTS ( ( 4, 4 ),
 ( 4, 4 ),
 ( 0.0000000000000000000, 1.000000000000000000 ),
 ( 0.0000000000000000000, 1.000000000000000000 ),
 .UNSPECIFIED. ) 
 GEOMETRIC_REPRESENTATION_ITEM ( )  RATIONAL_B_SPLINE_SURFACE ( (
 ( 1.000000000000000000, 0.9970664733663846500, 0.9970664733663846500, 1.000000000000000000),
 ( 0.9881520485897381500, 0.9852532782371386000, 0.9852532782371386000, 0.9881520485897381500),
 ( 0.9881520485897381500, 0.9852532782371386000, 0.9852532782371386000, 0.9881520485897381500),
 ( 1.000000000000000000, 0.9970664733663846500, 0.9970664733663846500, 1.000000000000000000) ) ) 
 REPRESENTATION_ITEM ( '' )  SURFACE ( )  );
#69 = DIRECTION ( 'NONE',  ( -1.165588477296749900E-017, -5.434385993627839900E-034, -1.000000000000000000 ) ) ;
#70 = EDGE_LOOP ( 'NONE', ( #27, #113, #266 ) ) ;
#71 = APPROVAL_DATE_TIME ( #124, #22 ) ;
#72 =( NAMED_UNIT ( * ) SI_UNIT ( $, .STERADIAN. ) SOLID_ANGLE_UNIT ( ) );
#73 =( BOUNDED_SURFACE ( )  B_SPLINE_SURFACE ( 3, 3, ( 
 ( #63, #104, #289, #61 ),
 ( #146, #84, #223, #37 ),
 ( #239, #284, #13, #148 ),
 ( #198, #38, #60, #225 ) ),
 .UNSPECIFIED., .F., .F., .F. ) 
 B_SPLINE_SURFACE_WITH_KNOTS ( ( 4, 4 ),
 ( 4, 4 ),
 ( 0.0000000000000000000, 1.000000000000000000 ),
 ( 0.0000000000000000000, 1.000000000000000000 ),
 .UNSPECIFIED. ) 
 GEOMETRIC_REPRESENTATION_ITEM ( )  RATIONAL_B_SPLINE_SURFACE ( (
 ( 1.000000000000000000, 0.9970664733663846500, 0.9970664733663846500, 1.000000000000000000),
 ( 0.9881520485897381500, 0.9852532782371386000, 0.9852532782371386000, 0.9881520485897381500),
 ( 0.9881520485897381500, 0.9852532782371386000, 0.9852532782371386000, 0.9881520485897381500),
 ( 1.000000000000000000, 0.9970664733663846500, 0.9970664733663846500, 1.000000000000000000) ) ) 
 REPRESENTATION_ITEM ( '' )  SURFACE ( )  );
#74 = EDGE_CURVE ( 'NONE', #58, #162, #158, .T. ) ;
#75 = PERSON_AND_ORGANIZATION_ROLE ( 'design_supplier' ) ;
#76 = ADVANCED_FACE ( 'NONE', ( #278 ), #73, .T. ) ;
#77 = CIRCLE ( 'NONE', #90, 19.05000000000000100 ) ;
#78 = CARTESIAN_POINT ( 'NONE',  ( 6.320403096313401500, 19.27589342986932800, 1.825176914750811000 ) ) ;
#79 = PERSON_AND_ORGANIZATION ( #251, #123 ) ;
#80 = CARTESIAN_POINT ( 'NONE',  ( 19.04999999999999700, -8.881784197001250400E-016, 1.782273608646929700 ) ) ;
#81 = CIRCLE ( 'NONE', #185, 19.05000000000000100 ) ;
#82 = DIRECTION ( 'NONE',  ( -2.829462121502639700E-016, -1.000000000000000000, 0.0000000000000000000 ) ) ;
#83 = CARTESIAN_POINT ( 'NONE',  ( -18.82239601606642800, -19.27589342986932100, 3.596784407897818200 ) ) ;
#84 = CARTESIAN_POINT ( 'NONE',  ( 12.91819068554704600, -6.502337184977176500, 6.009082441660457800 ) ) ;
#85 = COORDINATED_UNIVERSAL_TIME_OFFSET ( 2, 0, .AHEAD. ) ;
#86 = CARTESIAN_POINT ( 'NONE',  ( -6.320403096313412100, -19.27589342986929900, 4.174823085249165000 ) ) ;
#87 = EDGE_LOOP ( 'NONE', ( #228, #55, #67 ) ) ;
#88 = EDGE_CURVE ( 'NONE', #212, #252, #267, .T. ) ;
#89 = CYLINDRICAL_SURFACE ( 'NONE', #159, 19.05000000000000100 ) ;
#90 = AXIS2_PLACEMENT_3D ( 'NONE', #191, #144, #125 ) ;
#91 = DIRECTION ( 'NONE',  ( 1.000000000000000000, 0.0000000000000000000, 0.0000000000000000000 ) ) ;
#92 = EDGE_CURVE ( 'NONE', #188, #58, #77, .T. ) ;
#93 = CIRCLE ( 'NONE', #219, 19.05000000000000100 ) ;
#94 = CC_DESIGN_APPROVAL ( #157, ( #271 ) ) ;
#95 = PERSON_AND_ORGANIZATION_ROLE ( 'classification_officer' ) ;
#96 = EDGE_LOOP ( 'NONE', ( #273, #6, #152 ) ) ;
#97 = DIRECTION ( 'NONE',  ( -1.000000000000000000, 8.091271808530430400E-032, 2.859650160021729900E-016 ) ) ;
#98 = CARTESIAN_POINT ( 'NONE',  ( 12.61299458639950000, 19.27589342986932800, 2.417450195242506700 ) ) ;
#99 = CARTESIAN_POINT ( 'NONE',  ( 6.473337624019828600, 6.502337184977190700, -0.6156869337924550900 ) ) ;
#100 = ADVANCED_FACE ( 'NONE', ( #194 ), #68, .T. ) ;
#101 = CARTESIAN_POINT ( 'NONE',  ( -19.05000000000000400, 1.444773732675583000E-015, 1.782273608646930200 ) ) ;
#102 = LOCAL_TIME ( 12, 17, 1.000000000000000000, #197 ) ;
#103 = CARTESIAN_POINT ( 'NONE',  ( -6.320403096313461000, 19.27589342986933500, 1.825176914750822800 ) ) ;
#104 = CARTESIAN_POINT ( 'NONE',  ( 12.61299458639952900, -19.27589342986929900, 3.582549804757470600 ) ) ;
#105 = ADVANCED_FACE ( 'NONE', ( #140 ), #208, .T. ) ;
#106 = EDGE_CURVE ( 'NONE', #215, #183, #249, .T. ) ;
#107 = ORIENTED_EDGE ( 'NONE', *, *, #150, .F. ) ;
#108 = DIRECTION ( 'NONE',  ( 1.000000000000000000, 0.0000000000000000000, 0.0000000000000000000 ) ) ;
#109 = CARTESIAN_POINT ( 'NONE',  ( -18.82239601606638100, -19.27589342986929900, 2.403215592102194700 ) ) ;
#110 = CC_DESIGN_APPROVAL ( #22, ( #282 ) ) ;
#111 = APPROVAL_DATE_TIME ( #276, #268 ) ;
#112 = CARTESIAN_POINT ( 'NONE',  ( -4.634549346420434400E-015, -8.881784197001250400E-016, 4.217726391353081400 ) ) ;
#113 = ORIENTED_EDGE ( 'NONE', *, *, #29, .T. ) ;
#114 = APPLICATION_PROTOCOL_DEFINITION ( 'international standard', 'config_control_design', 1994, #30 ) ;
#115 = CIRCLE ( 'NONE', #132, 19.05000000000000100 ) ;
#116 = AXIS2_PLACEMENT_3D ( 'NONE', #44, #247, #184 ) ;
#117 = PERSON_AND_ORGANIZATION ( #251, #123 ) ;
#118 = ORIENTED_EDGE ( 'NONE', *, *, #255, .T. ) ;
#119 = AXIS2_PLACEMENT_3D ( 'NONE', #149, #18, #108 ) ;
#120 = PERSON_AND_ORGANIZATION_ROLE ( 'creator' ) ;
#121 =( BOUNDED_SURFACE ( )  B_SPLINE_SURFACE ( 3, 3, ( 
 ( #217, #164, #236, #277 ),
 ( #171, #238, #259, #170 ),
 ( #142, #99, #196, #218 ),
 ( #8, #78, #98, #261 ) ),
 .UNSPECIFIED., .F., .F., .F. ) 
 B_SPLINE_SURFACE_WITH_KNOTS ( ( 4, 4 ),
 ( 4, 4 ),
 ( 0.0000000000000000000, 1.000000000000000000 ),
 ( 0.0000000000000000000, 1.000000000000000000 ),
 .UNSPECIFIED. ) 
 GEOMETRIC_REPRESENTATION_ITEM ( )  RATIONAL_B_SPLINE_SURFACE ( (
 ( 1.000000000000000000, 0.9970664733663846500, 0.9970664733663846500, 1.000000000000000000),
 ( 0.9881520485897381500, 0.9852532782371386000, 0.9852532782371386000, 0.9881520485897381500),
 ( 0.9881520485897381500, 0.9852532782371386000, 0.9852532782371386000, 0.9881520485897381500),
 ( 1.000000000000000000, 0.9970664733663846500, 0.9970664733663846500, 1.000000000000000000) ) ) 
 REPRESENTATION_ITEM ( '' )  SURFACE ( )  );
#122 = LOCAL_TIME ( 12, 17, 1.000000000000000000, #211 ) ;
#123 = ORGANIZATION ( 'UNSPECIFIED', 'UNSPECIFIED', '' ) ;
#124 = DATE_AND_TIME ( #166, #182 ) ;
#125 = DIRECTION ( 'NONE',  ( 1.000000000000000000, 0.0000000000000000000, -1.138269997360109700E-017 ) ) ;
#126 = COORDINATED_UNIVERSAL_TIME_OFFSET ( 2, 0, .AHEAD. ) ;
#127 = ORIENTED_EDGE ( 'NONE', *, *, #29, .F. ) ;
#128 = CARTESIAN_POINT ( 'NONE',  ( 7.542657169603204400E-015, -19.04999999999994000, 4.217726391353087600 ) ) ;
#129 = CC_DESIGN_DATE_AND_TIME_ASSIGNMENT ( #279, #163, ( #271 ) ) ;
#130 = DIRECTION ( 'NONE',  ( 1.165588477296749900E-017, 5.434385993627839900E-034, 1.000000000000000000 ) ) ;
#131 = PRODUCT_DEFINITION ( 'UNKNOWN', '', #282, #237 ) ;
#132 = AXIS2_PLACEMENT_3D ( 'NONE', #156, #154, #269 ) ;
#133 = APPROVAL_STATUS ( 'not_yet_approved' ) ;
#134 = APPROVAL_DATE_TIME ( #288, #157 ) ;
#135 = CIRCLE ( 'NONE', #286, 102.7000000000000000 ) ;
#136 = APPROVAL_PERSON_ORGANIZATION ( #65, #268, #189 ) ;
#137 = DIRECTION ( 'NONE',  ( 1.000000000000000000, -1.776356839400250500E-015, -1.138269997360109700E-017 ) ) ;
#138 = CC_DESIGN_PERSON_AND_ORGANIZATION_ASSIGNMENT ( #49, #250, ( #155 ) ) ;
#139 = DIRECTION ( 'NONE',  ( 1.165588477296749900E-017, 5.434385993627839900E-034, 1.000000000000000000 ) ) ;
#140 = FACE_OUTER_BOUND ( 'NONE', #87, .T. ) ;
#141 = CALENDAR_DATE ( 2019, 10, 1 ) ;
#142 = CARTESIAN_POINT ( 'NONE',  ( -3.165165160582920400E-014, 6.502337184977191600, -0.6156869337924515400 ) ) ;
#143 = ORIENTED_EDGE ( 'NONE', *, *, #106, .F. ) ;
#144 = DIRECTION ( 'NONE',  ( -1.165588477296749900E-017, -5.434385993627839900E-034, -1.000000000000000000 ) ) ;
#145 = CC_DESIGN_APPROVAL ( #268, ( #131 ) ) ;
#146 = CARTESIAN_POINT ( 'NONE',  ( 19.27784074026437400, -6.502337184977178300, 4.801211928697734200 ) ) ;
#147 = CARTESIAN_POINT ( 'NONE',  ( -19.27784074026440600, -6.502337184977184500, 1.198788071302265600 ) ) ;
#148 = CARTESIAN_POINT ( 'NONE',  ( 3.469446951953614200E-014, 6.502337184977191600, 6.615686933792445300 ) ) ;
#149 = CARTESIAN_POINT ( 'NONE',  ( -4.634549346420434400E-015, -8.881784197001250400E-016, 4.217726391353081400 ) ) ;
#150 = EDGE_CURVE ( 'NONE', #188, #215, #229, .T. ) ;
#151 = CARTESIAN_POINT ( 'NONE',  ( -19.05000000000000400, 1.444773732675583000E-015, 1.782273608646930400 ) ) ;
#152 = ORIENTED_EDGE ( 'NONE', *, *, #260, .T. ) ;
#153 = CARTESIAN_POINT ( 'NONE',  ( 19.04999999999999700, -8.881784197001250400E-016, 1.782273608646930000 ) ) ;
#154 = DIRECTION ( 'NONE',  ( -1.165588477296749900E-017, -5.434385993627839900E-034, -1.000000000000000000 ) ) ;
#155 = PRODUCT ( '111-0410E BK7 bi-cx 38.1 F100', '111-0410E BK7 bi-cx 38.1 F100', '', ( #50 ) ) ;
#156 = CARTESIAN_POINT ( 'NONE',  ( -4.662936703425659800E-015, -8.881784197001250400E-016, 1.782273608646930200 ) ) ;
#157 = APPROVAL ( #133, 'UNSPECIFIED' ) ;
#158 = CIRCLE ( 'NONE', #54, 102.7000000000000000 ) ;
#159 = AXIS2_PLACEMENT_3D ( 'NONE', #265, #130, #204 ) ;
#160 = DIRECTION ( 'NONE',  ( -1.165588477296749900E-017, -5.434385993627839900E-034, -1.000000000000000000 ) ) ;
#161 =( LENGTH_UNIT ( ) NAMED_UNIT ( * ) SI_UNIT ( .MILLI., .METRE. ) );
#162 = VERTEX_POINT ( 'NONE', #42 ) ;
#163 = DATE_TIME_ROLE ( 'classification_date' ) ;
#164 = CARTESIAN_POINT ( 'NONE',  ( 6.320403096313389900, -19.27589342986933100, 1.825176914750825000 ) ) ;
#165 = PRODUCT_RELATED_PRODUCT_CATEGORY ( 'detail', '', ( #155 ) ) ;
#166 = CALENDAR_DATE ( 2019, 10, 1 ) ;
#167 = CARTESIAN_POINT ( 'NONE',  ( -4.662936703425659800E-015, -8.881784197001250400E-016, 1.782273608646930200 ) ) ;
#168 = VERTEX_POINT ( 'NONE', #17 ) ;
#169 = AXIS2_PLACEMENT_3D ( 'NONE', #210, #160, #25 ) ;
#170 = CARTESIAN_POINT ( 'NONE',  ( 19.27784074026435200, -6.502337184977195200, 1.198788071302250300 ) ) ;
#171 = CARTESIAN_POINT ( 'NONE',  ( -3.533127495905542100E-014, -6.502337184977189800, -0.6156869337924424400 ) ) ;
#172 = CARTESIAN_POINT ( 'NONE',  ( -6.320403096313477900, -19.27589342986932400, 1.825176914750835900 ) ) ;
#173 = ORIENTED_EDGE ( 'NONE', *, *, #92, .F. ) ;
#174 = DATE_AND_TIME ( #46, #295 ) ;
#175 = AXIS2_PLACEMENT_3D ( 'NONE', #246, #270, #181 ) ;
#176 = ADVANCED_FACE ( 'NONE', ( #209 ), #89, .T. ) ;
#177 = CARTESIAN_POINT ( 'NONE',  ( -12.91819068554703000, 6.502337184977190700, 6.009082441660474700 ) ) ;
#178 = CARTESIAN_POINT ( 'NONE',  ( -19.27784074026436300, 6.502337184977190700, 4.801211928697751900 ) ) ;
#179 = SHAPE_DEFINITION_REPRESENTATION ( #53, #14 ) ;
#180 = CARTESIAN_POINT ( 'NONE',  ( 19.04999999999999700, -8.881784197001250400E-016, 4.217726391353081400 ) ) ;
#181 = DIRECTION ( 'NONE',  ( 1.000000000000000000, 8.881784197001252300E-016, 0.0000000000000000000 ) ) ;
#182 = LOCAL_TIME ( 12, 17, 1.000000000000000000, #126 ) ;
#183 = VERTEX_POINT ( 'NONE', #128 ) ;
#184 = DIRECTION ( 'NONE',  ( 1.000000000000000000, 0.0000000000000000000, -1.138269997360109700E-017 ) ) ;
#185 = AXIS2_PLACEMENT_3D ( 'NONE', #231, #213, #137 ) ;
#186 = APPROVAL_PERSON_ORGANIZATION ( #195, #22, #254 ) ;
#187 = DIRECTION ( 'NONE',  ( 1.000000000000000000, 0.0000000000000000000, 0.0000000000000000000 ) ) ;
#188 = VERTEX_POINT ( 'NONE', #153 ) ;
#189 = APPROVAL_ROLE ( '' ) ;
#190 = APPROVAL_STATUS ( 'not_yet_approved' ) ;
#191 = CARTESIAN_POINT ( 'NONE',  ( -4.662936703425659800E-015, -8.881784197001250400E-016, 1.782273608646930200 ) ) ;
#192 = LOCAL_TIME ( 12, 17, 1.000000000000000000, #85 ) ;
#193 = EDGE_LOOP ( 'NONE', ( #43, #127, #173, #47, #262, #293 ) ) ;
#194 = FACE_OUTER_BOUND ( 'NONE', #70, .T. ) ;
#195 = PERSON_AND_ORGANIZATION ( #251, #123 ) ;
#196 = CARTESIAN_POINT ( 'NONE',  ( 12.91819068554701700, 6.502337184977188900, -0.009082441660481941800 ) ) ;
#197 = COORDINATED_UNIVERSAL_TIME_OFFSET ( 2, 0, .AHEAD. ) ;
#198 = CARTESIAN_POINT ( 'NONE',  ( 18.82239601606639600, 19.27589342986931700, 2.403215592102200900 ) ) ;
#199 = CARTESIAN_POINT ( 'NONE',  ( 2.131628207280299900E-014, 2.131628207280299900E-014, 102.7000000000000000 ) ) ;
#200 = ORIENTED_EDGE ( 'NONE', *, *, #260, .F. ) ;
#201 = CARTESIAN_POINT ( 'NONE',  ( -12.61299458639956200, -19.27589342986932400, 2.417450195242532000 ) ) ;
#202 = VECTOR ( 'NONE', #139, 1000.000000000000000 ) ;
#203 = CARTESIAN_POINT ( 'NONE',  ( -19.27784074026435900, -6.502337184977179200, 4.801211928697741300 ) ) ;
#204 = DIRECTION ( 'NONE',  ( 1.000000000000000000, 0.0000000000000000000, -1.138269997360109700E-017 ) ) ;
#205 = EDGE_LOOP ( 'NONE', ( #11, #143, #52 ) ) ;
#206 = CARTESIAN_POINT ( 'NONE',  ( 7.530388324986648500E-015, -19.27589342986929900, 4.174823085249163200 ) ) ;
#207 = CARTESIAN_POINT ( 'NONE',  ( -19.05000000000000400, 1.444773732675583000E-015, 4.217726391353081400 ) ) ;
#208 =( BOUNDED_SURFACE ( )  B_SPLINE_SURFACE ( 3, 3, ( 
 ( #206, #86, #227, #109 ),
 ( #244, #287, #19, #203 ),
 ( #292, #66, #177, #178 ),
 ( #62, #243, #290, #40 ) ),
 .UNSPECIFIED., .F., .F., .F. ) 
 B_SPLINE_SURFACE_WITH_KNOTS ( ( 4, 4 ),
 ( 4, 4 ),
 ( 0.0000000000000000000, 1.000000000000000000 ),
 ( 0.0000000000000000000, 1.000000000000000000 ),
 .UNSPECIFIED. ) 
 GEOMETRIC_REPRESENTATION_ITEM ( )  RATIONAL_B_SPLINE_SURFACE ( (
 ( 1.000000000000000000, 0.9970664733663846500, 0.9970664733663846500, 1.000000000000000000),
 ( 0.9881520485897381500, 0.9852532782371386000, 0.9852532782371386000, 0.9881520485897381500),
 ( 0.9881520485897381500, 0.9852532782371386000, 0.9852532782371386000, 0.9881520485897381500),
 ( 1.000000000000000000, 0.9970664733663846500, 0.9970664733663846500, 1.000000000000000000) ) ) 
 REPRESENTATION_ITEM ( '' )  SURFACE ( )  );
#209 = FACE_OUTER_BOUND ( 'NONE', #193, .T. ) ;
#210 = CARTESIAN_POINT ( 'NONE',  ( -4.634549346420434400E-015, -8.881784197001250400E-016, 4.217726391353081400 ) ) ;
#211 = COORDINATED_UNIVERSAL_TIME_OFFSET ( 2, 0, .AHEAD. ) ;
#212 = VERTEX_POINT ( 'NONE', #151 ) ;
#213 = DIRECTION ( 'NONE',  ( -1.165588477296749900E-017, -5.434385993627839900E-034, -1.000000000000000000 ) ) ;
#214 = APPLICATION_PROTOCOL_DEFINITION ( 'international standard', 'config_control_design', 1994, #31 ) ;
#215 = VERTEX_POINT ( 'NONE', #180 ) ;
#216 = FACE_OUTER_BOUND ( 'NONE', #96, .T. ) ;
#217 = CARTESIAN_POINT ( 'NONE',  ( -3.765065502050277700E-014, -19.27589342986932800, 1.825176914750828300 ) ) ;
#218 = CARTESIAN_POINT ( 'NONE',  ( 19.27784074026435600, 6.502337184977186300, 1.198788071302241200 ) ) ;
#219 = AXIS2_PLACEMENT_3D ( 'NONE', #167, #33, #36 ) ;
#220 = ORIENTED_EDGE ( 'NONE', *, *, #88, .T. ) ;
#221 = CARTESIAN_POINT ( 'NONE',  ( -12.61299458639955000, 19.27589342986933500, 2.417450195242518700 ) ) ;
#222 = CARTESIAN_POINT ( 'NONE',  ( -6.591949208711867000E-014, -19.27589342986932800, 1.825176914750830500 ) ) ;
#223 = CARTESIAN_POINT ( 'NONE',  ( 6.473337624019874800, -6.502337184977176500, 6.615686933792431100 ) ) ;
#224 = CARTESIAN_POINT ( 'NONE',  ( -6.473337624019900500, 6.502337184977193400, -0.6156869337924431000 ) ) ;
#225 = CARTESIAN_POINT ( 'NONE',  ( 3.122502256758252800E-014, 19.27589342986931700, 4.174823085249181900 ) ) ;
#226 = EDGE_CURVE ( 'NONE', #212, #162, #115, .T. ) ;
#227 = CARTESIAN_POINT ( 'NONE',  ( -12.61299458639950700, -19.27589342986929900, 3.582549804757477300 ) ) ;
#228 = ORIENTED_EDGE ( 'NONE', *, *, #248, .F. ) ;
#229 = LINE ( 'NONE', #80, #202 ) ;
#230 = PERSON_AND_ORGANIZATION ( #251, #123 ) ;
#231 = CARTESIAN_POINT ( 'NONE',  ( -4.662936703425659800E-015, -8.881784197001250400E-016, 1.782273608646930200 ) ) ;
#232 = APPROVAL_STATUS ( 'not_yet_approved' ) ;
#233 = SECURITY_CLASSIFICATION_LEVEL ( 'unclassified' ) ;
#234 = CALENDAR_DATE ( 2019, 10, 1 ) ;
#235 = UNCERTAINTY_MEASURE_WITH_UNIT (LENGTH_MEASURE( 1.000000000000000100E-005 ), #161, 'distance_accuracy_value', 'NONE');
#236 = CARTESIAN_POINT ( 'NONE',  ( 12.61299458639948900, -19.27589342986933100, 2.417450195242520000 ) ) ;
#237 = DESIGN_CONTEXT ( 'detailed design', #31, 'design' ) ;
#238 = CARTESIAN_POINT ( 'NONE',  ( 6.473337624019824200, -6.502337184977191600, -0.6156869337924457700 ) ) ;
#239 = CARTESIAN_POINT ( 'NONE',  ( 19.27784074026437700, 6.502337184977191600, 4.801211928697744800 ) ) ;
#240 = DIRECTION ( 'NONE',  ( 1.000000000000000000, -2.829462121502640200E-016, -5.304881280068110000E-016 ) ) ;
#241 = PERSON_AND_ORGANIZATION ( #251, #123 ) ;
#242 = EDGE_CURVE ( 'NONE', #168, #215, #7, .T. ) ;
#243 = CARTESIAN_POINT ( 'NONE',  ( -6.320403096313413000, 19.27589342986931700, 4.174823085249178300 ) ) ;
#244 = CARTESIAN_POINT ( 'NONE',  ( 8.228389994494451000E-015, -6.502337184977178300, 6.615686933792428400 ) ) ;
#245 = CC_DESIGN_PERSON_AND_ORGANIZATION_ASSIGNMENT ( #230, #95, ( #271 ) ) ;
#246 = CARTESIAN_POINT ( 'NONE',  ( -4.634549346420434400E-015, -8.881784197001250400E-016, 4.217726391353081400 ) ) ;
#247 = DIRECTION ( 'NONE',  ( 1.165588477296749900E-017, 5.434385993627839900E-034, 1.000000000000000000 ) ) ;
#248 = EDGE_CURVE ( 'NONE', #183, #252, #28, .T. ) ;
#249 = CIRCLE ( 'NONE', #119, 19.05000000000000100 ) ;
#250 = PERSON_AND_ORGANIZATION_ROLE ( 'design_owner' ) ;
#251 = PERSON ( 'UNSPECIFIED', 'UNSPECIFIED', 'UNSPECIFIED', ('UNSPECIFIED'), ('UNSPECIFIED'), ('UNSPECIFIED') ) ;
#252 = VERTEX_POINT ( 'NONE', #207 ) ;
#253 =( GEOMETRIC_REPRESENTATION_CONTEXT ( 3 ) GLOBAL_UNCERTAINTY_ASSIGNED_CONTEXT ( ( #235 ) ) GLOBAL_UNIT_ASSIGNED_CONTEXT ( ( #161, #275, #72 ) ) REPRESENTATION_CONTEXT ( 'NONE', 'WORKASPACE' ) );
#254 = APPROVAL_ROLE ( '' ) ;
#255 = EDGE_CURVE ( 'NONE', #252, #168, #263, .T. ) ;
#256 = ORIENTED_EDGE ( 'NONE', *, *, #242, .T. ) ;
#257 = CARTESIAN_POINT ( 'NONE',  ( -2.131628207280299900E-014, 2.131628207280299900E-014, -96.70000000000000300 ) ) ;
#258 = AXIS2_PLACEMENT_3D ( 'NONE', #3, #4, #187 ) ;
#259 = CARTESIAN_POINT ( 'NONE',  ( 12.91819068554701600, -6.502337184977191600, -0.009082441660472834500 ) ) ;
#260 = EDGE_CURVE ( 'NONE', #162, #188, #81, .T. ) ;
#261 = CARTESIAN_POINT ( 'NONE',  ( 18.82239601606638100, 19.27589342986932400, 3.596784407897789700 ) ) ;
#262 = ORIENTED_EDGE ( 'NONE', *, *, #106, .T. ) ;
#263 = CIRCLE ( 'NONE', #5, 19.05000000000000100 ) ;
#264 = CC_DESIGN_PERSON_AND_ORGANIZATION_ASSIGNMENT ( #79, #51, ( #131 ) ) ;
#265 = CARTESIAN_POINT ( 'NONE',  ( -4.662936703425659800E-015, -8.881784197001250400E-016, 1.782273608646930000 ) ) ;
#266 = ORIENTED_EDGE ( 'NONE', *, *, #226, .T. ) ;
#267 = LINE ( 'NONE', #101, #1 ) ;
#268 = APPROVAL ( #190, 'UNSPECIFIED' ) ;
#269 = DIRECTION ( 'NONE',  ( 1.000000000000000000, 8.881784197001252300E-016, -1.138269997360109700E-017 ) ) ;
#270 = DIRECTION ( 'NONE',  ( -1.165588477296749900E-017, -5.434385993627839900E-034, -1.000000000000000000 ) ) ;
#271 = SECURITY_CLASSIFICATION ( '', '', #233 ) ;
#272 = MANIFOLD_SOLID_BREP ( 'Imported1', #24 ) ;
#273 = ORIENTED_EDGE ( 'NONE', *, *, #92, .T. ) ;
#274 = FACE_OUTER_BOUND ( 'NONE', #34, .T. ) ;
#275 =( NAMED_UNIT ( * ) PLANE_ANGLE_UNIT ( ) SI_UNIT ( $, .RADIAN. ) );
#276 = DATE_AND_TIME ( #45, #102 ) ;
#277 = CARTESIAN_POINT ( 'NONE',  ( 18.82239601606637100, -19.27589342986933500, 3.596784407897803500 ) ) ;
#278 = FACE_OUTER_BOUND ( 'NONE', #205, .T. ) ;
#279 = DATE_AND_TIME ( #141, #122 ) ;
#280 = CARTESIAN_POINT ( 'NONE',  ( -12.91819068554707600, 6.502337184977195200, -0.009082441660469148200 ) ) ;
#281 = ADVANCED_FACE ( 'NONE', ( #274 ), #21, .T. ) ;
#282 = PRODUCT_DEFINITION_FORMATION_WITH_SPECIFIED_SOURCE ( 'ANY', '', #155, .NOT_KNOWN. ) ;
#283 = CARTESIAN_POINT ( 'NONE',  ( -4.857225732735059900E-014, 19.27589342986933100, 1.825176914750818100 ) ) ;
#284 = CARTESIAN_POINT ( 'NONE',  ( 12.91819068554705100, 6.502337184977191600, 6.009082441660470200 ) ) ;
#285 = CARTESIAN_POINT ( 'NONE',  ( -12.91819068554708300, -6.502337184977185400, -0.009082441660460256100 ) ) ;
#286 = AXIS2_PLACEMENT_3D ( 'NONE', #257, #97, #12 ) ;
#287 = CARTESIAN_POINT ( 'NONE',  ( -6.473337624019842800, -6.502337184977176500, 6.615686933792429300 ) ) ;
#288 = DATE_AND_TIME ( #234, #192 ) ;
#289 = CARTESIAN_POINT ( 'NONE',  ( 6.320403096313442300, -19.27589342986929900, 4.174823085249165000 ) ) ;
#290 = CARTESIAN_POINT ( 'NONE',  ( -12.61299458639950900, 19.27589342986931700, 3.582549804757491500 ) ) ;
#291 = CC_DESIGN_SECURITY_CLASSIFICATION ( #271, ( #282 ) ) ;
#292 = CARTESIAN_POINT ( 'NONE',  ( 8.228389994494452600E-015, 6.502337184977191600, 6.615686933792438200 ) ) ;
#293 = ORIENTED_EDGE ( 'NONE', *, *, #248, .T. ) ;
#294 = CC_DESIGN_PERSON_AND_ORGANIZATION_ASSIGNMENT ( #117, #120, ( #282 ) ) ;
#295 = LOCAL_TIME ( 12, 17, 1.000000000000000000, #20 ) ;
ENDSEC;
END-ISO-10303-21;
