ISO-10303-21;
HEADER;
FILE_DESCRIPTION (( 'STEP AP203' ),
    '1' );
FILE_NAME ('111-0404E BK7 bi-cx 38.1 F50.STEP',
    '2019-01-10T08:42:19',
    ( '' ),
    ( '' ),
    'SwSTEP 2.0',
    'SolidWorks 2017',
    '' );
FILE_SCHEMA (( 'CONFIG_CONTROL_DESIGN' ));
ENDSEC;

DATA;
#1 = DIRECTION ( 'NONE',  ( 0.0000000000000000000, 0.0000000000000000000, 1.000000000000000000 ) ) ;
#2 = APPROVAL_PERSON_ORGANIZATION ( #65, #169, #208 ) ;
#3 = PERSON_AND_ORGANIZATION_ROLE ( 'design_owner' ) ;
#4 = VECTOR ( 'NONE', #22, 1000.000000000000000 ) ;
#5 = APPROVAL_STATUS ( 'not_yet_approved' ) ;
#6 = UNCERTAINTY_MEASURE_WITH_UNIT (LENGTH_MEASURE( 1.000000000000000100E-005 ), #159, 'distance_accuracy_value', 'NONE');
#7 = APPROVAL_PERSON_ORGANIZATION ( #265, #86, #235 ) ;
#8 = CARTESIAN_POINT ( 'NONE',  ( -13.41979373023881400, 6.770627629037605300, 10.53333991283146500 ) ) ;
#9 = FACE_OUTER_BOUND ( 'NONE', #282, .T. ) ;
#10 = DESIGN_CONTEXT ( 'detailed design', #182, 'design' ) ;
#11 = DIRECTION ( 'NONE',  ( 2.331176954593499900E-017, 1.086877198725570000E-033, 1.000000000000000000 ) ) ;
#12 = CARTESIAN_POINT ( 'NONE',  ( -4.662936703425659800E-015, -8.881784197001250400E-016, 3.770432527974500100 ) ) ;
#13 = CARTESIAN_POINT ( 'NONE',  ( -3.552713678800500100E-015, 19.26663216543204300, 3.860276436343207600 ) ) ;
#14 = DIRECTION ( 'NONE',  ( -2.331176954593499900E-017, -1.086877198725570000E-033, -1.000000000000000000 ) ) ;
#15 = CIRCLE ( 'NONE', #130, 50.00999999999999800 ) ;
#16 = ORIENTED_EDGE ( 'NONE', *, *, #178, .T. ) ;
#17 = CARTESIAN_POINT ( 'NONE',  ( 12.05686493233385000, -19.26663216543203200, 5.450884065774852500 ) ) ;
#18 = DIRECTION ( 'NONE',  ( -2.331176954593499900E-017, -1.086877198725570000E-033, -1.000000000000000000 ) ) ;
#19 = CARTESIAN_POINT ( 'NONE',  ( 1.734723475976806800E-014, -6.770627629037608800, 11.85656787710526300 ) ) ;
#20 = APPROVAL_PERSON_ORGANIZATION ( #140, #98, #179 ) ;
#21 = EDGE_LOOP ( 'NONE', ( #257, #227, #73 ) ) ;
#22 = DIRECTION ( 'NONE',  ( 2.331176954593499900E-017, 1.086877198725570000E-033, 1.000000000000000000 ) ) ;
#23 = APPLICATION_PROTOCOL_DEFINITION ( 'international standard', 'config_control_design', 1994, #25 ) ;
#24 = APPLICATION_PROTOCOL_DEFINITION ( 'international standard', 'config_control_design', 1994, #182 ) ;
#25 = APPLICATION_CONTEXT ( 'configuration controlled 3d designs of mechanical parts and assemblies' ) ;
#26 = EDGE_LOOP ( 'NONE', ( #232, #102, #36, #77, #132, #279 ) ) ;
#27 = PRODUCT ( '111-0404E BK7 bi-cx 38.1 F50', '111-0404E BK7 bi-cx 38.1 F50', '', ( #276 ) ) ;
#28 = CC_DESIGN_PERSON_AND_ORGANIZATION_ASSIGNMENT ( #216, #181, ( #145 ) ) ;
#29 = VERTEX_POINT ( 'NONE', #33 ) ;
#30 = CARTESIAN_POINT ( 'NONE',  ( -6.087043861403406800, -19.26663216543203600, 6.639723563656803100 ) ) ;
#31 = ADVANCED_FACE ( 'NONE', ( #153 ), #212, .T. ) ;
#32 = CIRCLE ( 'NONE', #143, 19.05000000000000100 ) ;
#33 = CARTESIAN_POINT ( 'NONE',  ( -19.05000000000000400, 1.444773732675583000E-015, 3.770432527974501000 ) ) ;
#34 = ADVANCED_FACE ( 'NONE', ( #286 ), #207, .T. ) ;
#35 = LOCAL_TIME ( 10, 42, 19.00000000000000000, #211 ) ;
#36 = ORIENTED_EDGE ( 'NONE', *, *, #233, .T. ) ;
#37 = CARTESIAN_POINT ( 'NONE',  ( -4.593954031554619700E-015, -8.881784197001250400E-016, 6.729567472025509600 ) ) ;
#38 = AXIS2_PLACEMENT_3D ( 'NONE', #49, #71, #280 ) ;
#39 = DIRECTION ( 'NONE',  ( -2.331176954593499900E-017, -1.086877198725570000E-033, -1.000000000000000000 ) ) ;
#40 = CARTESIAN_POINT ( 'NONE',  ( -6.775133793519109400, -6.770627629037617700, -1.356567877105260500 ) ) ;
#41 = VERTEX_POINT ( 'NONE', #123 ) ;
#42 = DIRECTION ( 'NONE',  ( -2.331176954593499900E-017, -1.086877198725570000E-033, -1.000000000000000000 ) ) ;
#43 = COORDINATED_UNIVERSAL_TIME_OFFSET ( 2, 0, .AHEAD. ) ;
#44 = CARTESIAN_POINT ( 'NONE',  ( 17.67953252706179500, -19.26663216543204300, 3.118993826109757600 ) ) ;
#45 = CC_DESIGN_APPROVAL ( #98, ( #183 ) ) ;
#46 = ORIENTED_EDGE ( 'NONE', *, *, #180, .T. ) ;
#47 = CARTESIAN_POINT ( 'NONE',  ( 13.41979373023883900, 6.770627629037604400, 10.53333991283145300 ) ) ;
#48 = DIRECTION ( 'NONE',  ( -2.331176954593499900E-017, -1.086877198725570000E-033, -1.000000000000000000 ) ) ;
#49 = CARTESIAN_POINT ( 'NONE',  ( -4.662936703425659800E-015, -8.881784197001250400E-016, 3.770432527974500100 ) ) ;
#50 = DIRECTION ( 'NONE',  ( 0.0000000000000000000, -1.000000000000000000, -2.775002561050681300E-016 ) ) ;
#51 = PERSON_AND_ORGANIZATION_ROLE ( 'design_supplier' ) ;
#52 = VERTEX_POINT ( 'NONE', #152 ) ;
#53 = PERSON_AND_ORGANIZATION_ROLE ( 'classification_officer' ) ;
#54 = CC_DESIGN_APPROVAL ( #169, ( #145 ) ) ;
#55 = ADVANCED_FACE ( 'NONE', ( #9 ), #91, .T. ) ;
#56 = CARTESIAN_POINT ( 'NONE',  ( -13.41979373023880500, -6.770627629037610600, 10.53333991283146000 ) ) ;
#57 = APPROVAL_DATE_TIME ( #113, #86 ) ;
#58 = AXIS2_PLACEMENT_3D ( 'NONE', #12, #11, #221 ) ;
#59 = ORIENTED_EDGE ( 'NONE', *, *, #150, .T. ) ;
#60 = CC_DESIGN_DATE_AND_TIME_ASSIGNMENT ( #151, #205, ( #183 ) ) ;
#61 = DATE_AND_TIME ( #116, #176 ) ;
#62 = CARTESIAN_POINT ( 'NONE',  ( -6.087043861403432600, -19.26663216543204600, 3.860276436343209400 ) ) ;
#63 = CARTESIAN_POINT ( 'NONE',  ( -19.67805736331590400, -6.770627629037621300, 2.562151219688463900 ) ) ;
#64 = CARTESIAN_POINT ( 'NONE',  ( -13.41979373023884400, 6.770627629037604400, -0.03333991283145133800 ) ) ;
#65 = PERSON_AND_ORGANIZATION ( #168, #251 ) ;
#66 = CARTESIAN_POINT ( 'NONE',  ( -4.593954031554619700E-015, -8.881784197001250400E-016, 6.729567472025509600 ) ) ;
#67 = EDGE_CURVE ( 'NONE', #187, #41, #32, .T. ) ;
#68 = CARTESIAN_POINT ( 'NONE',  ( 6.775133793519113800, 6.770627629037605300, 11.85656787710526500 ) ) ;
#69 = DIRECTION ( 'NONE',  ( 1.000000000000000000, 0.0000000000000000000, 0.0000000000000000000 ) ) ;
#70 = CARTESIAN_POINT ( 'NONE',  ( 1.214306433183765000E-014, 19.26663216543203600, 6.639723563656803900 ) ) ;
#71 = DIRECTION ( 'NONE',  ( 2.331176954593499900E-017, 1.086877198725570000E-033, 1.000000000000000000 ) ) ;
#72 = AXIS2_PLACEMENT_3D ( 'NONE', #199, #42, #247 ) ;
#73 = ORIENTED_EDGE ( 'NONE', *, *, #67, .F. ) ;
#74 = CC_DESIGN_SECURITY_CLASSIFICATION ( #231, ( #145 ) ) ;
#75 = CIRCLE ( 'NONE', #139, 50.00999999999999800 ) ;
#76 = FACE_OUTER_BOUND ( 'NONE', #21, .T. ) ;
#77 = ORIENTED_EDGE ( 'NONE', *, *, #67, .T. ) ;
#78 = MANIFOLD_SOLID_BREP ( 'Imported1', #270 ) ;
#79 = CARTESIAN_POINT ( 'NONE',  ( -6.775133793519081000, -6.770627629037609700, 11.85656787710526500 ) ) ;
#80 = CARTESIAN_POINT ( 'NONE',  ( 17.67953252706175600, -19.26663216543205300, 7.381006173890236600 ) ) ;
#81 = CARTESIAN_POINT ( 'NONE',  ( 19.67805736331586200, -6.770627629037618600, 2.562151219688446200 ) ) ;
#82 = ORIENTED_EDGE ( 'NONE', *, *, #260, .F. ) ;
#83 = ADVANCED_FACE ( 'NONE', ( #267 ), #202, .T. ) ;
#84 = CARTESIAN_POINT ( 'NONE',  ( -13.41979373023883500, -6.770627629037617700, -0.03333991283144786800 ) ) ;
#85 = CARTESIAN_POINT ( 'NONE',  ( -6.775133793519119200, 6.770627629037604400, -1.356567877105264900 ) ) ;
#86 = APPROVAL ( #5, 'UNSPECIFIED' ) ;
#87 = CARTESIAN_POINT ( 'NONE',  ( -19.05000000000000400, 1.444773732675583000E-015, 3.770432527974500600 ) ) ;
#88 = VERTEX_POINT ( 'NONE', #192 ) ;
#89 = AXIS2_PLACEMENT_3D ( 'NONE', #107, #157, #268 ) ;
#90 = CARTESIAN_POINT ( 'NONE',  ( -6.087043861403434300, 19.26663216543203600, 3.860276436343206700 ) ) ;
#91 =( BOUNDED_SURFACE ( )  B_SPLINE_SURFACE ( 3, 3, ( 
 ( #263, #218, #262, #80 ),
 ( #126, #125, #167, #81 ),
 ( #287, #148, #124, #144 ),
 ( #13, #165, #288, #264 ) ),
 .UNSPECIFIED., .F., .F., .F. ) 
 B_SPLINE_SURFACE_WITH_KNOTS ( ( 4, 4 ),
 ( 4, 4 ),
 ( 0.0000000000000000000, 1.000000000000000000 ),
 ( 0.0000000000000000000, 1.000000000000000000 ),
 .UNSPECIFIED. ) 
 GEOMETRIC_REPRESENTATION_ITEM ( )  RATIONAL_B_SPLINE_SURFACE ( (
 ( 1.000000000000000000, 0.9871614976396802000, 0.9871614976396802000, 1.000000000000000000),
 ( 0.9485399395275183600, 0.9363621072750366600, 0.9363621072750366600, 0.9485399395275183600),
 ( 0.9485399395275183600, 0.9363621072750366600, 0.9363621072750366600, 0.9485399395275183600),
 ( 1.000000000000000000, 0.9871614976396802000, 0.9871614976396802000, 1.000000000000000000) ) ) 
 REPRESENTATION_ITEM ( '' )  SURFACE ( )  );
#92 = PRODUCT_RELATED_PRODUCT_CATEGORY ( 'detail', '', ( #27 ) ) ;
#93 = VERTEX_POINT ( 'NONE', #292 ) ;
#94 = DIRECTION ( 'NONE',  ( 1.000000000000000000, 0.0000000000000000000, -2.276539994720219300E-017 ) ) ;
#95 = PERSON_AND_ORGANIZATION_ROLE ( 'creator' ) ;
#96 = VERTEX_POINT ( 'NONE', #155 ) ;
#97 = CARTESIAN_POINT ( 'NONE',  ( 0.0000000000000000000, 0.0000000000000000000, 0.0000000000000000000 ) ) ;
#98 = APPROVAL ( #229, 'UNSPECIFIED' ) ;
#99 = CARTESIAN_POINT ( 'NONE',  ( 6.087043861403435200, 19.26663216543202900, 6.639723563656803100 ) ) ;
#100 = LOCAL_TIME ( 10, 42, 19.00000000000000000, #210 ) ;
#101 = LINE ( 'NONE', #87, #105 ) ;
#102 = ORIENTED_EDGE ( 'NONE', *, *, #194, .T. ) ;
#103 = ORIENTED_EDGE ( 'NONE', *, *, #244, .T. ) ;
#104 = CC_DESIGN_PERSON_AND_ORGANIZATION_ASSIGNMENT ( #239, #95, ( #183 ) ) ;
#105 = VECTOR ( 'NONE', #173, 1000.000000000000000 ) ;
#106 = CARTESIAN_POINT ( 'NONE',  ( -17.67953252706180200, 19.26663216543203900, 7.381006173890251700 ) ) ;
#107 = CARTESIAN_POINT ( 'NONE',  ( -4.662936703425659800E-015, -8.881784197001250400E-016, 3.770432527974500600 ) ) ;
#108 = AXIS2_PLACEMENT_3D ( 'NONE', #66, #18, #224 ) ;
#109 = CARTESIAN_POINT ( 'NONE',  ( 13.41979373023883900, -6.770627629037610600, 10.53333991283144900 ) ) ;
#110 = CARTESIAN_POINT ( 'NONE',  ( 3.552713678800500100E-015, -7.105427357601000300E-015, -39.50999999999999800 ) ) ;
#111 = SHAPE_DEFINITION_REPRESENTATION ( #175, #222 ) ;
#112 = DIRECTION ( 'NONE',  ( -2.331176954593499900E-017, -1.086877198725570000E-033, -1.000000000000000000 ) ) ;
#113 = DATE_AND_TIME ( #234, #142 ) ;
#114 = CYLINDRICAL_SURFACE ( 'NONE', #38, 19.05000000000000100 ) ;
#115 = EDGE_LOOP ( 'NONE', ( #184, #214, #248 ) ) ;
#116 = CALENDAR_DATE ( 2019, 10, 1 ) ;
#117 = EDGE_CURVE ( 'NONE', #41, #163, #122, .T. ) ;
#118 = CARTESIAN_POINT ( 'NONE',  ( -17.67953252706175600, -19.26663216543204300, 3.118993826109773600 ) ) ;
#119 = CARTESIAN_POINT ( 'NONE',  ( 3.552713678800500100E-015, -19.26663216543203900, 6.639723563656802200 ) ) ;
#120 = CARTESIAN_POINT ( 'NONE',  ( -19.67805736331586200, -6.770627629037612400, 7.937848780311555600 ) ) ;
#121 = CIRCLE ( 'NONE', #161, 19.05000000000000100 ) ;
#122 = CIRCLE ( 'NONE', #108, 19.05000000000000100 ) ;
#123 = CARTESIAN_POINT ( 'NONE',  ( 19.04999999999999700, -8.881784197001250400E-016, 6.729567472025508800 ) ) ;
#124 = CARTESIAN_POINT ( 'NONE',  ( 13.41979373023880700, 6.770627629037605300, -0.03333991283145783900 ) ) ;
#125 = CARTESIAN_POINT ( 'NONE',  ( 6.775133793519081000, -6.770627629037616800, -1.356567877105262100 ) ) ;
#126 = CARTESIAN_POINT ( 'NONE',  ( -3.552713678800500100E-015, -6.770627629037617700, -1.356567877105262100 ) ) ;
#127 = CARTESIAN_POINT ( 'NONE',  ( 3.552713678800500100E-015, 19.05000000000000400, 6.729567472025512300 ) ) ;
#128 = EDGE_CURVE ( 'NONE', #93, #88, #195, .T. ) ;
#129 = ORIENTED_EDGE ( 'NONE', *, *, #260, .T. ) ;
#130 = AXIS2_PLACEMENT_3D ( 'NONE', #136, #252, #50 ) ;
#131 = CARTESIAN_POINT ( 'NONE',  ( 19.67805736331589700, -6.770627629037612400, 7.937848780311538700 ) ) ;
#132 = ORIENTED_EDGE ( 'NONE', *, *, #150, .F. ) ;
#133 =( NAMED_UNIT ( * ) SI_UNIT ( $, .STERADIAN. ) SOLID_ANGLE_UNIT ( ) );
#134 = DIRECTION ( 'NONE',  ( 1.000000000000000000, 0.0000000000000000000, -2.276539994720219300E-017 ) ) ;
#135 = PERSON_AND_ORGANIZATION ( #168, #251 ) ;
#136 = CARTESIAN_POINT ( 'NONE',  ( -3.552713678800500100E-015, -7.105427357601000300E-015, 50.00999999999999800 ) ) ;
#137 = CIRCLE ( 'NONE', #72, 19.05000000000000100 ) ;
#138 = LINE ( 'NONE', #171, #4 ) ;
#139 = AXIS2_PLACEMENT_3D ( 'NONE', #110, #226, #196 ) ;
#140 = PERSON_AND_ORGANIZATION ( #168, #251 ) ;
#141 = ORIENTED_EDGE ( 'NONE', *, *, #295, .F. ) ;
#142 = LOCAL_TIME ( 10, 42, 19.00000000000000000, #43 ) ;
#143 = AXIS2_PLACEMENT_3D ( 'NONE', #37, #39, #190 ) ;
#144 = CARTESIAN_POINT ( 'NONE',  ( 19.67805736331586200, 6.770627629037605300, 2.562151219688445700 ) ) ;
#145 = PRODUCT_DEFINITION_FORMATION_WITH_SPECIFIED_SOURCE ( 'ANY', '', #27, .NOT_KNOWN. ) ;
#146 = DATE_AND_TIME ( #269, #35 ) ;
#147 = ORIENTED_EDGE ( 'NONE', *, *, #117, .T. ) ;
#148 = CARTESIAN_POINT ( 'NONE',  ( 6.775133793519081800, 6.770627629037605300, -1.356567877105262900 ) ) ;
#149 = CARTESIAN_POINT ( 'NONE',  ( -1.387778780781445700E-014, -19.26663216543205300, 3.860276436343207600 ) ) ;
#150 = EDGE_CURVE ( 'NONE', #93, #41, #138, .T. ) ;
#151 = DATE_AND_TIME ( #225, #100 ) ;
#152 = CARTESIAN_POINT ( 'NONE',  ( -19.05000000000000400, 1.444773732675583000E-015, 6.729567472025510500 ) ) ;
#153 = FACE_OUTER_BOUND ( 'NONE', #115, .T. ) ;
#154 = CARTESIAN_POINT ( 'NONE',  ( -4.662936703425659800E-015, -8.881784197001250400E-016, 3.770432527974500600 ) ) ;
#155 = CARTESIAN_POINT ( 'NONE',  ( -3.552713678800500100E-015, 19.05000000000001800, 3.770432527974497500 ) ) ;
#156 = ORIENTED_EDGE ( 'NONE', *, *, #194, .F. ) ;
#157 = DIRECTION ( 'NONE',  ( -2.331176954593499900E-017, -1.086877198725570000E-033, -1.000000000000000000 ) ) ;
#158 = CALENDAR_DATE ( 2019, 10, 1 ) ;
#159 =( LENGTH_UNIT ( ) NAMED_UNIT ( * ) SI_UNIT ( .MILLI., .METRE. ) );
#160 = CARTESIAN_POINT ( 'NONE',  ( -4.662936703425659800E-015, -8.881784197001250400E-016, 3.770432527974500600 ) ) ;
#161 = AXIS2_PLACEMENT_3D ( 'NONE', #177, #112, #134 ) ;
#162 = AXIS2_PLACEMENT_3D ( 'NONE', #97, #1, #69 ) ;
#163 = VERTEX_POINT ( 'NONE', #246 ) ;
#164 = EDGE_CURVE ( 'NONE', #163, #187, #75, .T. ) ;
#165 = CARTESIAN_POINT ( 'NONE',  ( 6.087043861403408600, 19.26663216543203900, 3.860276436343208100 ) ) ;
#166 = DATE_AND_TIME ( #158, #170 ) ;
#167 = CARTESIAN_POINT ( 'NONE',  ( 13.41979373023880300, -6.770627629037616800, -0.03333991283145696500 ) ) ;
#168 = PERSON ( 'UNSPECIFIED', 'UNSPECIFIED', 'UNSPECIFIED', ('UNSPECIFIED'), ('UNSPECIFIED'), ('UNSPECIFIED') ) ;
#169 = APPROVAL ( #253, 'UNSPECIFIED' ) ;
#170 = LOCAL_TIME ( 10, 42, 19.00000000000000000, #254 ) ;
#171 = CARTESIAN_POINT ( 'NONE',  ( 19.04999999999999700, -8.881784197001250400E-016, 3.770432527974499700 ) ) ;
#172 = ORIENTED_EDGE ( 'NONE', *, *, #295, .T. ) ;
#173 = DIRECTION ( 'NONE',  ( 2.331176954593499900E-017, 1.086877198725570000E-033, 1.000000000000000000 ) ) ;
#174 = CARTESIAN_POINT ( 'NONE',  ( 19.67805736331590100, 6.770627629037602600, 7.937848780311541400 ) ) ;
#175 = PRODUCT_DEFINITION_SHAPE ( 'NONE', 'NONE',  #183 ) ;
#176 = LOCAL_TIME ( 10, 42, 19.00000000000000000, #274 ) ;
#177 = CARTESIAN_POINT ( 'NONE',  ( -4.662936703425659800E-015, -8.881784197001250400E-016, 3.770432527974500600 ) ) ;
#178 = EDGE_CURVE ( 'NONE', #96, #93, #281, .T. ) ;
#179 = APPROVAL_ROLE ( '' ) ;
#180 = EDGE_CURVE ( 'NONE', #163, #52, #290, .T. ) ;
#181 = PERSON_AND_ORGANIZATION_ROLE ( 'creator' ) ;
#182 = APPLICATION_CONTEXT ( 'configuration controlled 3d designs of mechanical parts and assemblies' ) ;
#183 = PRODUCT_DEFINITION ( 'UNKNOWN', '', #145, #10 ) ;
#184 = ORIENTED_EDGE ( 'NONE', *, *, #180, .F. ) ;
#185 = CARTESIAN_POINT ( 'NONE',  ( 3.552713678800500100E-015, -6.770627629037608800, 11.85656787710526500 ) ) ;
#186 = CARTESIAN_POINT ( 'NONE',  ( -12.05686493233382000, -19.26663216543203600, 5.450884065774861400 ) ) ;
#187 = VERTEX_POINT ( 'NONE', #127 ) ;
#188 = CARTESIAN_POINT ( 'NONE',  ( 3.552713678800500100E-015, 19.26663216543203600, 6.639723563656802200 ) ) ;
#189 = CARTESIAN_POINT ( 'NONE',  ( -17.67953252706179500, -19.26663216543205700, 7.381006173890251700 ) ) ;
#190 = DIRECTION ( 'NONE',  ( 1.000000000000000000, -1.776356839400250500E-015, -4.553079989440438700E-017 ) ) ;
#191 = ORIENTED_EDGE ( 'NONE', *, *, #128, .F. ) ;
#192 = CARTESIAN_POINT ( 'NONE',  ( -3.552713678800500100E-015, -19.05000000000002600, 3.770432527974497500 ) ) ;
#193 = CARTESIAN_POINT ( 'NONE',  ( -19.67805736331591100, 6.770627629037603500, 2.562151219688462200 ) ) ;
#194 = EDGE_CURVE ( 'NONE', #29, #52, #101, .T. ) ;
#195 = CIRCLE ( 'NONE', #213, 19.05000000000000100 ) ;
#196 = DIRECTION ( 'NONE',  ( 0.0000000000000000000, -1.000000000000000000, 8.325007683152044000E-016 ) ) ;
#197 = CARTESIAN_POINT ( 'NONE',  ( 6.087043861403434300, -19.26663216543203200, 6.639723563656800400 ) ) ;
#198 = CC_DESIGN_APPROVAL ( #86, ( #231 ) ) ;
#199 = CARTESIAN_POINT ( 'NONE',  ( -4.593954031554619700E-015, -8.881784197001250400E-016, 6.729567472025509600 ) ) ;
#200 = CARTESIAN_POINT ( 'NONE',  ( -4.593954031554619700E-015, -8.881784197001250400E-016, 6.729567472025509600 ) ) ;
#201 = PERSON_AND_ORGANIZATION ( #168, #251 ) ;
#202 =( BOUNDED_SURFACE ( )  B_SPLINE_SURFACE ( 3, 3, ( 
 ( #189, #223, #62, #149 ),
 ( #63, #84, #40, #243 ),
 ( #193, #64, #85, #245 ),
 ( #106, #266, #90, #250 ) ),
 .UNSPECIFIED., .F., .F., .T. ) 
 B_SPLINE_SURFACE_WITH_KNOTS ( ( 4, 4 ),
 ( 4, 4 ),
 ( 0.0000000000000000000, 1.000000000000000000 ),
 ( 0.0000000000000000000, 1.000000000000000000 ),
 .UNSPECIFIED. ) 
 GEOMETRIC_REPRESENTATION_ITEM ( )  RATIONAL_B_SPLINE_SURFACE ( (
 ( 1.000000000000000000, 0.9871614976396800900, 0.9871614976396800900, 1.000000000000000000),
 ( 0.9485399395275183600, 0.9363621072750366600, 0.9363621072750366600, 0.9485399395275183600),
 ( 0.9485399395275183600, 0.9363621072750366600, 0.9363621072750366600, 0.9485399395275183600),
 ( 1.000000000000000000, 0.9871614976396800900, 0.9871614976396800900, 1.000000000000000000) ) ) 
 REPRESENTATION_ITEM ( '' )  SURFACE ( )  );
#203 = EDGE_LOOP ( 'NONE', ( #156, #141, #191, #59, #147, #46 ) ) ;
#204 = DIRECTION ( 'NONE',  ( 1.000000000000000000, 0.0000000000000000000, -2.276539994720219300E-017 ) ) ;
#205 = DATE_TIME_ROLE ( 'creation_date' ) ;
#206 = CARTESIAN_POINT ( 'NONE',  ( 12.05686493233385500, 19.26663216543202900, 5.450884065774854300 ) ) ;
#207 = CYLINDRICAL_SURFACE ( 'NONE', #58, 19.05000000000000100 ) ;
#208 = APPROVAL_ROLE ( '' ) ;
#209 = SECURITY_CLASSIFICATION_LEVEL ( 'unclassified' ) ;
#210 = COORDINATED_UNIVERSAL_TIME_OFFSET ( 2, 0, .AHEAD. ) ;
#211 = COORDINATED_UNIVERSAL_TIME_OFFSET ( 2, 0, .AHEAD. ) ;
#212 =( BOUNDED_SURFACE ( )  B_SPLINE_SURFACE ( 3, 3, ( 
 ( #119, #30, #186, #118 ),
 ( #185, #79, #56, #120 ),
 ( #215, #284, #8, #283 ),
 ( #188, #238, #285, #240 ) ),
 .UNSPECIFIED., .F., .F., .F. ) 
 B_SPLINE_SURFACE_WITH_KNOTS ( ( 4, 4 ),
 ( 4, 4 ),
 ( 0.0000000000000000000, 1.000000000000000000 ),
 ( 0.0000000000000000000, 1.000000000000000000 ),
 .UNSPECIFIED. ) 
 GEOMETRIC_REPRESENTATION_ITEM ( )  RATIONAL_B_SPLINE_SURFACE ( (
 ( 1.000000000000000000, 0.9871614976396802000, 0.9871614976396802000, 1.000000000000000000),
 ( 0.9485399395275184700, 0.9363621072750367700, 0.9363621072750367700, 0.9485399395275184700),
 ( 0.9485399395275184700, 0.9363621072750367700, 0.9363621072750367700, 0.9485399395275184700),
 ( 1.000000000000000000, 0.9871614976396802000, 0.9871614976396802000, 1.000000000000000000) ) ) 
 REPRESENTATION_ITEM ( '' )  SURFACE ( )  );
#213 = AXIS2_PLACEMENT_3D ( 'NONE', #154, #14, #94 ) ;
#214 = ORIENTED_EDGE ( 'NONE', *, *, #164, .T. ) ;
#215 = CARTESIAN_POINT ( 'NONE',  ( 3.552713678800500100E-015, 6.770627629037605300, 11.85656787710526700 ) ) ;
#216 = PERSON_AND_ORGANIZATION ( #168, #251 ) ;
#217 =( GEOMETRIC_REPRESENTATION_CONTEXT ( 3 ) GLOBAL_UNCERTAINTY_ASSIGNED_CONTEXT ( ( #6 ) ) GLOBAL_UNIT_ASSIGNED_CONTEXT ( ( #159, #273, #133 ) ) REPRESENTATION_CONTEXT ( 'NONE', 'WORKASPACE' ) );
#218 = CARTESIAN_POINT ( 'NONE',  ( 6.087043861403406800, -19.26663216543205300, 3.860276436343208100 ) ) ;
#219 = FACE_OUTER_BOUND ( 'NONE', #203, .T. ) ;
#220 = ORIENTED_EDGE ( 'NONE', *, *, #128, .T. ) ;
#221 = DIRECTION ( 'NONE',  ( 1.000000000000000000, 0.0000000000000000000, -2.276539994720219300E-017 ) ) ;
#222 = ADVANCED_BREP_SHAPE_REPRESENTATION ( '111-0404E BK7 bi-cx 38.1 F50', ( #78, #162 ), #217 ) ;
#223 = CARTESIAN_POINT ( 'NONE',  ( -12.05686493233385000, -19.26663216543205000, 5.049115934225154600 ) ) ;
#224 = DIRECTION ( 'NONE',  ( 1.000000000000000000, 0.0000000000000000000, -4.553079989440438700E-017 ) ) ;
#225 = CALENDAR_DATE ( 2019, 10, 1 ) ;
#226 = DIRECTION ( 'NONE',  ( -1.000000000000000000, 0.0000000000000000000, 0.0000000000000000000 ) ) ;
#227 = ORIENTED_EDGE ( 'NONE', *, *, #117, .F. ) ;
#228 = CARTESIAN_POINT ( 'NONE',  ( 1.561251128379126400E-014, -19.26663216543203900, 6.639723563656802200 ) ) ;
#229 = APPROVAL_STATUS ( 'not_yet_approved' ) ;
#230 = CARTESIAN_POINT ( 'NONE',  ( 1.387778780781445500E-014, 6.770627629037604400, 11.85656787710526700 ) ) ;
#231 = SECURITY_CLASSIFICATION ( '', '', #209 ) ;
#232 = ORIENTED_EDGE ( 'NONE', *, *, #244, .F. ) ;
#233 = EDGE_CURVE ( 'NONE', #52, #187, #137, .T. ) ;
#234 = CALENDAR_DATE ( 2019, 10, 1 ) ;
#235 = APPROVAL_ROLE ( '' ) ;
#236 = ADVANCED_FACE ( 'NONE', ( #76 ), #242, .T. ) ;
#237 = PERSON_AND_ORGANIZATION ( #168, #251 ) ;
#238 = CARTESIAN_POINT ( 'NONE',  ( -6.087043861403410400, 19.26663216543203200, 6.639723563656803100 ) ) ;
#239 = PERSON_AND_ORGANIZATION ( #168, #251 ) ;
#240 = CARTESIAN_POINT ( 'NONE',  ( -17.67953252706176700, 19.26663216543203200, 3.118993826109770900 ) ) ;
#241 = CC_DESIGN_DATE_AND_TIME_ASSIGNMENT ( #166, #256, ( #231 ) ) ;
#242 =( BOUNDED_SURFACE ( )  B_SPLINE_SURFACE ( 3, 3, ( 
 ( #44, #17, #197, #228 ),
 ( #131, #109, #249, #19 ),
 ( #174, #47, #68, #230 ),
 ( #278, #206, #99, #70 ) ),
 .UNSPECIFIED., .F., .F., .F. ) 
 B_SPLINE_SURFACE_WITH_KNOTS ( ( 4, 4 ),
 ( 4, 4 ),
 ( 0.0000000000000000000, 1.000000000000000000 ),
 ( 0.0000000000000000000, 1.000000000000000000 ),
 .UNSPECIFIED. ) 
 GEOMETRIC_REPRESENTATION_ITEM ( )  RATIONAL_B_SPLINE_SURFACE ( (
 ( 1.000000000000000000, 0.9871614976396800900, 0.9871614976396800900, 1.000000000000000000),
 ( 0.9485399395275184700, 0.9363621072750367700, 0.9363621072750367700, 0.9485399395275184700),
 ( 0.9485399395275184700, 0.9363621072750367700, 0.9363621072750367700, 0.9485399395275184700),
 ( 1.000000000000000000, 0.9871614976396800900, 0.9871614976396800900, 1.000000000000000000) ) ) 
 REPRESENTATION_ITEM ( '' )  SURFACE ( )  );
#243 = CARTESIAN_POINT ( 'NONE',  ( -1.387778780781445700E-014, -6.770627629037618600, -1.356567877105261400 ) ) ;
#244 = EDGE_CURVE ( 'NONE', #29, #96, #121, .T. ) ;
#245 = CARTESIAN_POINT ( 'NONE',  ( -2.081668171172168500E-014, 6.770627629037605300, -1.356567877105267800 ) ) ;
#246 = CARTESIAN_POINT ( 'NONE',  ( 3.552713678800500100E-015, -19.05000000000001100, 6.729567472025512300 ) ) ;
#247 = DIRECTION ( 'NONE',  ( 1.000000000000000000, 8.881784197001252300E-016, -4.553079989440438700E-017 ) ) ;
#248 = ORIENTED_EDGE ( 'NONE', *, *, #233, .F. ) ;
#249 = CARTESIAN_POINT ( 'NONE',  ( 6.775133793519114700, -6.770627629037609700, 11.85656787710526100 ) ) ;
#250 = CARTESIAN_POINT ( 'NONE',  ( -1.387778780781445700E-014, 19.26663216543204300, 3.860276436343205400 ) ) ;
#251 = ORGANIZATION ( 'UNSPECIFIED', 'UNSPECIFIED', '' ) ;
#252 = DIRECTION ( 'NONE',  ( 1.000000000000000000, 0.0000000000000000000, 0.0000000000000000000 ) ) ;
#253 = APPROVAL_STATUS ( 'not_yet_approved' ) ;
#254 = COORDINATED_UNIVERSAL_TIME_OFFSET ( 2, 0, .AHEAD. ) ;
#255 = EDGE_LOOP ( 'NONE', ( #82, #172, #103 ) ) ;
#256 = DATE_TIME_ROLE ( 'classification_date' ) ;
#257 = ORIENTED_EDGE ( 'NONE', *, *, #164, .F. ) ;
#258 = CC_DESIGN_PERSON_AND_ORGANIZATION_ASSIGNMENT ( #201, #3, ( #27 ) ) ;
#259 = ADVANCED_FACE ( 'NONE', ( #219 ), #114, .T. ) ;
#260 = EDGE_CURVE ( 'NONE', #88, #96, #15, .T. ) ;
#261 = APPROVAL_DATE_TIME ( #146, #98 ) ;
#262 = CARTESIAN_POINT ( 'NONE',  ( 12.05686493233382000, -19.26663216543205300, 5.049115934225148400 ) ) ;
#263 = CARTESIAN_POINT ( 'NONE',  ( -3.552713678800500100E-015, -19.26663216543205300, 3.860276436343207600 ) ) ;
#264 = CARTESIAN_POINT ( 'NONE',  ( 17.67953252706176000, 19.26663216543204300, 7.381006173890237500 ) ) ;
#265 = PERSON_AND_ORGANIZATION ( #168, #251 ) ;
#266 = CARTESIAN_POINT ( 'NONE',  ( -12.05686493233385400, 19.26663216543203200, 5.049115934225153700 ) ) ;
#267 = FACE_OUTER_BOUND ( 'NONE', #255, .T. ) ;
#268 = DIRECTION ( 'NONE',  ( 1.000000000000000000, 0.0000000000000000000, -2.276539994720219300E-017 ) ) ;
#269 = CALENDAR_DATE ( 2019, 10, 1 ) ;
#270 = CLOSED_SHELL ( 'NONE', ( #55, #31, #34, #83, #259, #236 ) ) ;
#271 = DIRECTION ( 'NONE',  ( -2.331176954593499900E-017, -1.086877198725570000E-033, -1.000000000000000000 ) ) ;
#272 = CC_DESIGN_PERSON_AND_ORGANIZATION_ASSIGNMENT ( #237, #53, ( #231 ) ) ;
#273 =( NAMED_UNIT ( * ) PLANE_ANGLE_UNIT ( ) SI_UNIT ( $, .RADIAN. ) );
#274 = COORDINATED_UNIVERSAL_TIME_OFFSET ( 2, 0, .AHEAD. ) ;
#275 = CC_DESIGN_PERSON_AND_ORGANIZATION_ASSIGNMENT ( #135, #51, ( #145 ) ) ;
#276 = MECHANICAL_CONTEXT ( 'NONE', #25, 'mechanical' ) ;
#277 = CIRCLE ( 'NONE', #293, 19.05000000000000100 ) ;
#278 = CARTESIAN_POINT ( 'NONE',  ( 17.67953252706180600, 19.26663216543203200, 3.118993826109757600 ) ) ;
#279 = ORIENTED_EDGE ( 'NONE', *, *, #178, .F. ) ;
#280 = DIRECTION ( 'NONE',  ( 1.000000000000000000, 0.0000000000000000000, -2.276539994720219300E-017 ) ) ;
#281 = CIRCLE ( 'NONE', #89, 19.05000000000000100 ) ;
#282 = EDGE_LOOP ( 'NONE', ( #220, #129, #16 ) ) ;
#283 = CARTESIAN_POINT ( 'NONE',  ( -19.67805736331586900, 6.770627629037602600, 7.937848780311557400 ) ) ;
#284 = CARTESIAN_POINT ( 'NONE',  ( -6.775133793519083600, 6.770627629037606200, 11.85656787710526700 ) ) ;
#285 = CARTESIAN_POINT ( 'NONE',  ( -12.05686493233382700, 19.26663216543203200, 5.450884065774860500 ) ) ;
#286 = FACE_OUTER_BOUND ( 'NONE', #26, .T. ) ;
#287 = CARTESIAN_POINT ( 'NONE',  ( -3.552713678800500100E-015, 6.770627629037606200, -1.356567877105262900 ) ) ;
#288 = CARTESIAN_POINT ( 'NONE',  ( 12.05686493233382000, 19.26663216543203900, 5.049115934225148400 ) ) ;
#289 = APPROVAL_DATE_TIME ( #61, #169 ) ;
#290 = CIRCLE ( 'NONE', #291, 19.05000000000000100 ) ;
#291 = AXIS2_PLACEMENT_3D ( 'NONE', #200, #271, #294 ) ;
#292 = CARTESIAN_POINT ( 'NONE',  ( 19.04999999999999700, -8.881784197001250400E-016, 3.770432527974500100 ) ) ;
#293 = AXIS2_PLACEMENT_3D ( 'NONE', #160, #48, #204 ) ;
#294 = DIRECTION ( 'NONE',  ( 1.000000000000000000, 0.0000000000000000000, -4.553079989440438700E-017 ) ) ;
#295 = EDGE_CURVE ( 'NONE', #88, #29, #277, .T. ) ;
ENDSEC;
END-ISO-10303-21;
