ISO-10303-21;
HEADER;
FILE_DESCRIPTION (( 'STEP AP203' ),
    '1' );
FILE_NAME ('111-0240E BK7 bi-cx 25.4 F700.STEP',
    '2019-01-10T07:45:14',
    ( '' ),
    ( '' ),
    'SwSTEP 2.0',
    'SolidWorks 2017',
    '' );
FILE_SCHEMA (( 'CONFIG_CONTROL_DESIGN' ));
ENDSEC;

DATA;
#1 = EDGE_LOOP ( 'NONE', ( #31, #44, #267 ) ) ;
#2 = APPROVAL ( #112, 'UNSPECIFIED' ) ;
#3 = CARTESIAN_POINT ( 'NONE',  ( 1.491862189340054100E-013, 12.85238415004753100, 3.886149731065465100 ) ) ;
#4 = CLOSED_SHELL ( 'NONE', ( #291, #95, #47, #181, #199, #29 ) ) ;
#5 =( BOUNDED_SURFACE ( )  B_SPLINE_SURFACE ( 3, 3, ( 
 ( #79, #100, #151, #206 ),
 ( #12, #230, #103, #262 ),
 ( #37, #18, #109, #244 ),
 ( #56, #15, #174, #265 ) ),
 .UNSPECIFIED., .F., .F., .F. ) 
 B_SPLINE_SURFACE_WITH_KNOTS ( ( 4, 4 ),
 ( 4, 4 ),
 ( 0.0000000000000000000, 1.000000000000000000 ),
 ( 0.0000000000000000000, 1.000000000000000000 ),
 .UNSPECIFIED. ) 
 GEOMETRIC_REPRESENTATION_ITEM ( )  RATIONAL_B_SPLINE_SURFACE ( (
 ( 1.000000000000000000, 0.9999741542652470500, 0.9999741542652470500, 1.000000000000000000),
 ( 0.9998953822477052400, 0.9998695392168749400, 0.9998695392168749400, 0.9998953822477052400),
 ( 0.9998953822477052400, 0.9998695392168749400, 0.9998695392168749400, 0.9998953822477052400),
 ( 1.000000000000000000, 0.9999741542652470500, 0.9999741542652470500, 1.000000000000000000) ) ) 
 REPRESENTATION_ITEM ( '' )  SURFACE ( )  );
#6 = CARTESIAN_POINT ( 'NONE',  ( 8.516510014816434500, -12.85238415004747700, 3.848653212740569300 ) ) ;
#7 = CIRCLE ( 'NONE', #108, 12.69999999999999900 ) ;
#8 = DIRECTION ( 'NONE',  ( 0.0000000000000000000, 0.0000000000000000000, 1.000000000000000000 ) ) ;
#9 = DIRECTION ( 'NONE',  ( 3.204253727121391000E-016, -1.000000000000000000, 3.060573465541437700E-016 ) ) ;
#10 = CARTESIAN_POINT ( 'NONE',  ( -3.062324319102575700E-014, 12.85238415004753100, 3.886149731065380300 ) ) ;
#11 = CALENDAR_DATE ( 2019, 10, 1 ) ;
#12 = CARTESIAN_POINT ( 'NONE',  ( -12.77686052367964300, -4.284576292756987000, 0.07455612779622700100 ) ) ;
#13 = VERTEX_POINT ( 'NONE', #49 ) ;
#14 = CARTESIAN_POINT ( 'NONE',  ( -2.243486776169923100E-014, -12.69999999999734900, 3.888833660954582200 ) ) ;
#15 = CARTESIAN_POINT ( 'NONE',  ( -8.516510014816427400, 12.85238415004763200, 0.1513467872594343500 ) ) ;
#16 = CARTESIAN_POINT ( 'NONE',  ( 8.518292297385082500, -4.284576292756993300, -0.0004496949489617890300 ) ) ;
#17 = VERTEX_POINT ( 'NONE', #202 ) ;
#18 = CARTESIAN_POINT ( 'NONE',  ( -8.518292297385254800, 4.284576292757243700, -0.0004496949489742030900 ) ) ;
#19 = CARTESIAN_POINT ( 'NONE',  ( 8.516510014816265800, 12.85238415004762800, 0.1513467872594478100 ) ) ;
#20 = PERSON_AND_ORGANIZATION_ROLE ( 'classification_officer' ) ;
#21 = COORDINATED_UNIVERSAL_TIME_OFFSET ( 2, 0, .AHEAD. ) ;
#22 = LOCAL_TIME ( 9, 45, 14.00000000000000000, #226 ) ;
#23 = PERSON_AND_ORGANIZATION_ROLE ( 'design_owner' ) ;
#24 = APPLICATION_CONTEXT ( 'configuration controlled 3d designs of mechanical parts and assemblies' ) ;
#25 = ORIENTED_EDGE ( 'NONE', *, *, #101, .F. ) ;
#26 = AXIS2_PLACEMENT_3D ( 'NONE', #129, #78, #233 ) ;
#27 = DATE_AND_TIME ( #208, #217 ) ;
#28 = CARTESIAN_POINT ( 'NONE',  ( 8.518292297385254800, 4.284576292757145100, 4.000449694948976300 ) ) ;
#29 = ADVANCED_FACE ( 'NONE', ( #83 ), #277, .T. ) ;
#30 = CARTESIAN_POINT ( 'NONE',  ( 8.518292297385254800, -4.284576292757090100, 4.000449694948979800 ) ) ;
#31 = ORIENTED_EDGE ( 'NONE', *, *, #68, .F. ) ;
#32 = DIRECTION ( 'NONE',  ( -1.000000000000000000, -3.204253727121390000E-016, 2.769127344217920200E-016 ) ) ;
#33 = PERSON_AND_ORGANIZATION ( #213, #185 ) ;
#34 = CARTESIAN_POINT ( 'NONE',  ( -8.518292297385084300, 4.284576292757140700, 4.000449694948962100 ) ) ;
#35 = CARTESIAN_POINT ( 'NONE',  ( -4.258337552305296600, 12.85238415004752900, 3.886149731065381200 ) ) ;
#36 = CARTESIAN_POINT ( 'NONE',  ( 4.258337552305296600, 12.85238415004762800, 0.1138502689346220900 ) ) ;
#37 = CARTESIAN_POINT ( 'NONE',  ( -12.77686052367964300, 4.284576292757245500, 0.07455612779622804200 ) ) ;
#38 = ORIENTED_EDGE ( 'NONE', *, *, #247, .T. ) ;
#39 = DIRECTION ( 'NONE',  ( -0.0000000000000000000, -0.0000000000000000000, -1.000000000000000000 ) ) ;
#40 = DIRECTION ( 'NONE',  ( 0.0000000000000000000, 0.0000000000000000000, 1.000000000000000000 ) ) ;
#41 = CIRCLE ( 'NONE', #102, 12.69999999999999900 ) ;
#42 = APPROVAL_STATUS ( 'not_yet_approved' ) ;
#43 = PERSON_AND_ORGANIZATION ( #213, #185 ) ;
#44 = ORIENTED_EDGE ( 'NONE', *, *, #45, .F. ) ;
#45 = EDGE_CURVE ( 'NONE', #66, #220, #7, .T. ) ;
#46 = ORIENTED_EDGE ( 'NONE', *, *, #101, .T. ) ;
#47 = ADVANCED_FACE ( 'NONE', ( #145 ), #126, .T. ) ;
#48 = SHAPE_DEFINITION_REPRESENTATION ( #169, #54 ) ;
#49 = CARTESIAN_POINT ( 'NONE',  ( -12.69999999999999900, 3.997792089092478900E-015, 0.1111663390454450000 ) ) ;
#50 = CC_DESIGN_DATE_AND_TIME_ASSIGNMENT ( #235, #114, ( #162 ) ) ;
#51 = CARTESIAN_POINT ( 'NONE',  ( -12.77686052367944900, 4.284576292757138900, 3.925443872203764800 ) ) ;
#52 = CARTESIAN_POINT ( 'NONE',  ( -8.518292297385082500, -4.284576292757093600, 4.000449694948965600 ) ) ;
#53 = ORIENTED_EDGE ( 'NONE', *, *, #177, .T. ) ;
#54 = ADVANCED_BREP_SHAPE_REPRESENTATION ( '111-0240E BK7 bi-cx 25.4 F700', ( #77, #272 ), #130 ) ;
#55 = DIRECTION ( 'NONE',  ( -0.0000000000000000000, -0.0000000000000000000, -1.000000000000000000 ) ) ;
#56 = CARTESIAN_POINT ( 'NONE',  ( -12.77418722074512500, 12.85238415004763400, 0.2263369165339534900 ) ) ;
#57 = DIRECTION ( 'NONE',  ( 1.000000000000000000, 0.0000000000000000000, 0.0000000000000000000 ) ) ;
#58 = DIRECTION ( 'NONE',  ( 1.000000000000000000, 8.881784197001252300E-016, 0.0000000000000000000 ) ) ;
#59 = CARTESIAN_POINT ( 'NONE',  ( 3.057367222858592500E-014, 12.69999999999751900, 0.1111663390454218600 ) ) ;
#60 = CC_DESIGN_PERSON_AND_ORGANIZATION_ASSIGNMENT ( #241, #245, ( #198 ) ) ;
#61 = PERSON_AND_ORGANIZATION_ROLE ( 'creator' ) ;
#62 = APPROVAL ( #91, 'UNSPECIFIED' ) ;
#63 = MECHANICAL_CONTEXT ( 'NONE', #219, 'mechanical' ) ;
#64 = VECTOR ( 'NONE', #8, 1000.000000000000000 ) ;
#65 = PERSON_AND_ORGANIZATION ( #213, #185 ) ;
#66 = VERTEX_POINT ( 'NONE', #165 ) ;
#67 = CARTESIAN_POINT ( 'NONE',  ( 12.77686052367964300, 4.284576292757146000, 3.925443872203774100 ) ) ;
#68 = EDGE_CURVE ( 'NONE', #220, #187, #243, .T. ) ;
#69 = DIRECTION ( 'NONE',  ( -0.0000000000000000000, -0.0000000000000000000, -1.000000000000000000 ) ) ;
#70 = FACE_OUTER_BOUND ( 'NONE', #167, .T. ) ;
#71 = CARTESIAN_POINT ( 'NONE',  ( 4.996003610813200500E-016, 2.442490654175340100E-015, 3.888833660954560000 ) ) ;
#72 = AXIS2_PLACEMENT_3D ( 'NONE', #269, #266, #58 ) ;
#73 = CARTESIAN_POINT ( 'NONE',  ( -2.509008970207778700E-014, -4.284576292757091000, 4.037954060313350800 ) ) ;
#74 = CIRCLE ( 'NONE', #72, 12.69999999999999900 ) ;
#75 = ORIENTED_EDGE ( 'NONE', *, *, #196, .T. ) ;
#76 = CARTESIAN_POINT ( 'NONE',  ( -2.238678322798864400E-014, -12.85238415004747900, 3.886149731065380300 ) ) ;
#77 = MANIFOLD_SOLID_BREP ( 'Imported1', #4 ) ;
#78 = DIRECTION ( 'NONE',  ( -0.0000000000000000000, -0.0000000000000000000, -1.000000000000000000 ) ) ;
#79 = CARTESIAN_POINT ( 'NONE',  ( -12.77418722074513200, -12.85238415004737600, 0.2263369165339534900 ) ) ;
#80 = CARTESIAN_POINT ( 'NONE',  ( 4.259228710864192600, 4.284576292757241100, -0.03795406031334679100 ) ) ;
#81 = DIRECTION ( 'NONE',  ( -0.0000000000000000000, -0.0000000000000000000, -1.000000000000000000 ) ) ;
#82 = DIRECTION ( 'NONE',  ( 1.000000000000000000, -3.204253727121390000E-016, -2.769127344217920200E-016 ) ) ;
#83 = FACE_OUTER_BOUND ( 'NONE', #1, .T. ) ;
#84 = CARTESIAN_POINT ( 'NONE',  ( 8.516510014816258700, -12.85238415004738000, 0.1513467872594478100 ) ) ;
#85 =( NAMED_UNIT ( * ) SI_UNIT ( $, .STERADIAN. ) SOLID_ANGLE_UNIT ( ) );
#86 = PERSON_AND_ORGANIZATION ( #213, #185 ) ;
#87 = DATE_AND_TIME ( #148, #270 ) ;
#88 = EDGE_CURVE ( 'NONE', #13, #204, #175, .T. ) ;
#89 = CC_DESIGN_PERSON_AND_ORGANIZATION_ASSIGNMENT ( #33, #214, ( #198 ) ) ;
#90 = APPROVAL_ROLE ( '' ) ;
#91 = APPROVAL_STATUS ( 'not_yet_approved' ) ;
#92 = APPROVAL_ROLE ( '' ) ;
#93 = CIRCLE ( 'NONE', #248, 725.5000000000000000 ) ;
#94 = ORIENTED_EDGE ( 'NONE', *, *, #192, .F. ) ;
#95 = ADVANCED_FACE ( 'NONE', ( #182 ), #215, .T. ) ;
#96 = CARTESIAN_POINT ( 'NONE',  ( 4.258337552305437900, 12.85238415004753200, 3.886149731065462900 ) ) ;
#97 = APPROVAL_PERSON_ORGANIZATION ( #260, #104, #271 ) ;
#98 = ORIENTED_EDGE ( 'NONE', *, *, #88, .T. ) ;
#99 = CARTESIAN_POINT ( 'NONE',  ( -8.516510014816255100, -12.85238415004748100, 3.848653212740555900 ) ) ;
#100 = CARTESIAN_POINT ( 'NONE',  ( -8.516510014816434500, -12.85238415004737600, 0.1513467872594343500 ) ) ;
#101 = EDGE_CURVE ( 'NONE', #17, #66, #184, .T. ) ;
#102 = AXIS2_PLACEMENT_3D ( 'NONE', #286, #39, #288 ) ;
#103 = CARTESIAN_POINT ( 'NONE',  ( -4.259228710864341000, -4.284576292756989700, -0.03795406031342887100 ) ) ;
#104 = APPROVAL ( #42, 'UNSPECIFIED' ) ;
#105 = CARTESIAN_POINT ( 'NONE',  ( 12.77418722074493800, 12.85238415004762700, 0.2263369165339627100 ) ) ;
#106 = CYLINDRICAL_SURFACE ( 'NONE', #275, 12.69999999999999900 ) ;
#107 = ORIENTED_EDGE ( 'NONE', *, *, #88, .F. ) ;
#108 = AXIS2_PLACEMENT_3D ( 'NONE', #71, #69, #250 ) ;
#109 = CARTESIAN_POINT ( 'NONE',  ( -4.259228710864341000, 4.284576292757242800, -0.03795406031342787900 ) ) ;
#110 = SECURITY_CLASSIFICATION ( '', '', #115 ) ;
#111 = ORIENTED_EDGE ( 'NONE', *, *, #247, .F. ) ;
#112 = APPROVAL_STATUS ( 'not_yet_approved' ) ;
#113 =( BOUNDED_SURFACE ( )  B_SPLINE_SURFACE ( 3, 3, ( 
 ( #193, #176, #84, #132 ),
 ( #207, #171, #16, #173 ),
 ( #242, #80, #268, #287 ),
 ( #237, #36, #19, #105 ) ),
 .UNSPECIFIED., .F., .F., .F. ) 
 B_SPLINE_SURFACE_WITH_KNOTS ( ( 4, 4 ),
 ( 4, 4 ),
 ( 0.0000000000000000000, 1.000000000000000000 ),
 ( 0.0000000000000000000, 1.000000000000000000 ),
 .UNSPECIFIED. ) 
 GEOMETRIC_REPRESENTATION_ITEM ( )  RATIONAL_B_SPLINE_SURFACE ( (
 ( 1.000000000000000000, 0.9999741542652470500, 0.9999741542652470500, 1.000000000000000000),
 ( 0.9998953822477052400, 0.9998695392168749400, 0.9998695392168749400, 0.9998953822477052400),
 ( 0.9998953822477052400, 0.9998695392168749400, 0.9998695392168749400, 0.9998953822477052400),
 ( 1.000000000000000000, 0.9999741542652470500, 0.9999741542652470500, 1.000000000000000000) ) ) 
 REPRESENTATION_ITEM ( '' )  SURFACE ( )  );
#114 = DATE_TIME_ROLE ( 'creation_date' ) ;
#115 = SECURITY_CLASSIFICATION_LEVEL ( 'unclassified' ) ;
#116 = APPROVAL_DATE_TIME ( #128, #104 ) ;
#117 = CC_DESIGN_APPROVAL ( #2, ( #162 ) ) ;
#118 = PRODUCT ( '111-0240E BK7 bi-cx 25.4 F700', '111-0240E BK7 bi-cx 25.4 F700', '', ( #63 ) ) ;
#119 = CARTESIAN_POINT ( 'NONE',  ( 1.561251128379126400E-013, -12.85238415004747900, 3.886149731065464200 ) ) ;
#120 = CIRCLE ( 'NONE', #26, 12.69999999999999900 ) ;
#121 = CARTESIAN_POINT ( 'NONE',  ( 8.516510014816427400, 12.85238415004753200, 3.848653212740569300 ) ) ;
#122 = CARTESIAN_POINT ( 'NONE',  ( 4.259228710864342700, -4.284576292757091000, 4.037954060313433400 ) ) ;
#123 = EDGE_CURVE ( 'NONE', #17, #139, #239, .T. ) ;
#124 = DIRECTION ( 'NONE',  ( 1.000000000000000000, 0.0000000000000000000, 0.0000000000000000000 ) ) ;
#125 = CARTESIAN_POINT ( 'NONE',  ( -2.783586361311837600E-014, 4.284576292757143400, 4.037954060313347200 ) ) ;
#126 = CYLINDRICAL_SURFACE ( 'NONE', #258, 12.69999999999999900 ) ;
#127 = CC_DESIGN_DATE_AND_TIME_ASSIGNMENT ( #27, #178, ( #110 ) ) ;
#128 = DATE_AND_TIME ( #183, #141 ) ;
#129 = CARTESIAN_POINT ( 'NONE',  ( 4.996003610813200500E-016, 2.442490654175340100E-015, 3.888833660954560000 ) ) ;
#130 =( GEOMETRIC_REPRESENTATION_CONTEXT ( 3 ) GLOBAL_UNCERTAINTY_ASSIGNED_CONTEXT ( ( #253 ) ) GLOBAL_UNIT_ASSIGNED_CONTEXT ( ( #195, #295, #85 ) ) REPRESENTATION_CONTEXT ( 'NONE', 'WORKASPACE' ) );
#131 = CARTESIAN_POINT ( 'NONE',  ( 4.996003610813200500E-016, 2.442490654175340100E-015, 0.1111663390454450000 ) ) ;
#132 = CARTESIAN_POINT ( 'NONE',  ( 12.77418722074493100, -12.85238415004738100, 0.2263369165339627100 ) ) ;
#133 = ORIENTED_EDGE ( 'NONE', *, *, #123, .T. ) ;
#134 = DIRECTION ( 'NONE',  ( 1.000000000000000000, 0.0000000000000000000, 0.0000000000000000000 ) ) ;
#135 = AXIS2_PLACEMENT_3D ( 'NONE', #154, #81, #57 ) ;
#136 = CALENDAR_DATE ( 2019, 10, 1 ) ;
#137 = CC_DESIGN_APPROVAL ( #104, ( #110 ) ) ;
#138 = CIRCLE ( 'NONE', #264, 12.69999999999999900 ) ;
#139 = VERTEX_POINT ( 'NONE', #186 ) ;
#140 = CC_DESIGN_PERSON_AND_ORGANIZATION_ASSIGNMENT ( #43, #23, ( #118 ) ) ;
#141 = LOCAL_TIME ( 9, 45, 14.00000000000000000, #194 ) ;
#142 = CARTESIAN_POINT ( 'NONE',  ( -12.69999999999999900, 3.997792089092478900E-015, 0.1111663390454450000 ) ) ;
#143 = CARTESIAN_POINT ( 'NONE',  ( 1.543903893619358300E-013, 4.284576292757142500, 4.037954060313432500 ) ) ;
#144 = DIRECTION ( 'NONE',  ( 0.0000000000000000000, 0.0000000000000000000, 1.000000000000000000 ) ) ;
#145 = FACE_OUTER_BOUND ( 'NONE', #249, .T. ) ;
#146 = DIRECTION ( 'NONE',  ( -0.0000000000000000000, -0.0000000000000000000, -1.000000000000000000 ) ) ;
#147 = CARTESIAN_POINT ( 'NONE',  ( -12.77418722074493700, 12.85238415004752700, 3.773663083466040700 ) ) ;
#148 = CALENDAR_DATE ( 2019, 10, 1 ) ;
#149 = EDGE_CURVE ( 'NONE', #228, #17, #138, .T. ) ;
#150 = CC_DESIGN_SECURITY_CLASSIFICATION ( #110, ( #198 ) ) ;
#151 = CARTESIAN_POINT ( 'NONE',  ( -4.258337552305445000, -12.85238415004737600, 0.1138502689345410300 ) ) ;
#152 = DIRECTION ( 'NONE',  ( 0.0000000000000000000, 0.0000000000000000000, 1.000000000000000000 ) ) ;
#153 = ORIENTED_EDGE ( 'NONE', *, *, #289, .T. ) ;
#154 = CARTESIAN_POINT ( 'NONE',  ( 4.996003610813200500E-016, 2.442490654175340100E-015, 3.888833660954560000 ) ) ;
#155 = CARTESIAN_POINT ( 'NONE',  ( -12.69999999999999900, 3.997792089092478900E-015, 3.888833660954560000 ) ) ;
#156 = APPROVAL_DATE_TIME ( #225, #62 ) ;
#157 = AXIS2_PLACEMENT_3D ( 'NONE', #209, #172, #212 ) ;
#158 = APPROVAL_PERSON_ORGANIZATION ( #65, #2, #90 ) ;
#159 = CARTESIAN_POINT ( 'NONE',  ( 0.0000000000000000000, 0.0000000000000000000, 0.0000000000000000000 ) ) ;
#160 = ORIENTED_EDGE ( 'NONE', *, *, #274, .F. ) ;
#161 = CC_DESIGN_PERSON_AND_ORGANIZATION_ASSIGNMENT ( #290, #61, ( #162 ) ) ;
#162 = PRODUCT_DEFINITION ( 'UNKNOWN', '', #198, #189 ) ;
#163 = PERSON_AND_ORGANIZATION ( #213, #185 ) ;
#164 = DIRECTION ( 'NONE',  ( 0.0000000000000000000, 0.0000000000000000000, 1.000000000000000000 ) ) ;
#165 = CARTESIAN_POINT ( 'NONE',  ( 12.69999999999999900, 2.442490654175340100E-015, 3.888833660954560000 ) ) ;
#166 = CIRCLE ( 'NONE', #135, 12.69999999999999900 ) ;
#167 = EDGE_LOOP ( 'NONE', ( #257, #38, #75 ) ) ;
#168 = ORIENTED_EDGE ( 'NONE', *, *, #68, .T. ) ;
#169 = PRODUCT_DEFINITION_SHAPE ( 'NONE', 'NONE',  #162 ) ;
#170 = CARTESIAN_POINT ( 'NONE',  ( 4.996003610813200500E-016, 2.442490654175340100E-015, 0.1111663390454450000 ) ) ;
#171 = CARTESIAN_POINT ( 'NONE',  ( 4.259228710864190000, -4.284576292756992400, -0.03795406031334781800 ) ) ;
#172 = DIRECTION ( 'NONE',  ( -0.0000000000000000000, -0.0000000000000000000, -1.000000000000000000 ) ) ;
#173 = CARTESIAN_POINT ( 'NONE',  ( 12.77686052367944700, -4.284576292756995000, 0.07455612779623624300 ) ) ;
#174 = CARTESIAN_POINT ( 'NONE',  ( -4.258337552305437900, 12.85238415004763200, 0.1138502689345410200 ) ) ;
#175 = LINE ( 'NONE', #142, #190 ) ;
#176 = CARTESIAN_POINT ( 'NONE',  ( 4.258337552305288700, -12.85238415004738000, 0.1138502689346220900 ) ) ;
#177 = EDGE_CURVE ( 'NONE', #187, #66, #120, .T. ) ;
#178 = DATE_TIME_ROLE ( 'classification_date' ) ;
#179 = CIRCLE ( 'NONE', #157, 12.69999999999999900 ) ;
#180 = APPLICATION_PROTOCOL_DEFINITION ( 'international standard', 'config_control_design', 1994, #24 ) ;
#181 = ADVANCED_FACE ( 'NONE', ( #70 ), #5, .T. ) ;
#182 = FACE_OUTER_BOUND ( 'NONE', #246, .T. ) ;
#183 = CALENDAR_DATE ( 2019, 10, 1 ) ;
#184 = LINE ( 'NONE', #188, #64 ) ;
#185 = ORGANIZATION ( 'UNSPECIFIED', 'UNSPECIFIED', '' ) ;
#186 = CARTESIAN_POINT ( 'NONE',  ( 2.243486776169924400E-014, -12.69999999999734900, 0.1111663390454218600 ) ) ;
#187 = VERTEX_POINT ( 'NONE', #259 ) ;
#188 = CARTESIAN_POINT ( 'NONE',  ( 12.69999999999999900, 2.442490654175340100E-015, 0.1111663390454450000 ) ) ;
#189 = DESIGN_CONTEXT ( 'detailed design', #24, 'design' ) ;
#190 = VECTOR ( 'NONE', #164, 1000.000000000000000 ) ;
#191 = CARTESIAN_POINT ( 'NONE',  ( 2.273736754432320100E-013, 1.705302565824239900E-013, 725.5000000000000000 ) ) ;
#192 = EDGE_CURVE ( 'NONE', #204, #187, #74, .T. ) ;
#193 = CARTESIAN_POINT ( 'NONE',  ( 2.238678322798861900E-014, -12.85238415004737800, 0.1138502689346232400 ) ) ;
#194 = COORDINATED_UNIVERSAL_TIME_OFFSET ( 2, 0, .AHEAD. ) ;
#195 =( LENGTH_UNIT ( ) NAMED_UNIT ( * ) SI_UNIT ( .MILLI., .METRE. ) );
#196 = EDGE_CURVE ( 'NONE', #13, #228, #179, .T. ) ;
#197 = EDGE_LOOP ( 'NONE', ( #133, #153, #211 ) ) ;
#198 = PRODUCT_DEFINITION_FORMATION_WITH_SPECIFIED_SOURCE ( 'ANY', '', #118, .NOT_KNOWN. ) ;
#199 = ADVANCED_FACE ( 'NONE', ( #210 ), #106, .T. ) ;
#200 = COORDINATED_UNIVERSAL_TIME_OFFSET ( 2, 0, .AHEAD. ) ;
#201 = CARTESIAN_POINT ( 'NONE',  ( 4.258337552305445000, -12.85238415004747700, 3.886149731065462000 ) ) ;
#202 = CARTESIAN_POINT ( 'NONE',  ( 12.69999999999999900, 2.442490654175340100E-015, 0.1111663390454450000 ) ) ;
#203 = CARTESIAN_POINT ( 'NONE',  ( 4.259228710864342700, 4.284576292757144200, 4.037954060313429800 ) ) ;
#204 = VERTEX_POINT ( 'NONE', #155 ) ;
#205 = CARTESIAN_POINT ( 'NONE',  ( -4.258337552305288700, -12.85238415004748100, 3.886149731065381200 ) ) ;
#206 = CARTESIAN_POINT ( 'NONE',  ( -1.561251128379126400E-013, -12.85238415004737800, 0.1138502689345388100 ) ) ;
#207 = CARTESIAN_POINT ( 'NONE',  ( 2.509008970207776200E-014, -4.284576292756990600, -0.03795406031334663800 ) ) ;
#208 = CALENDAR_DATE ( 2019, 10, 1 ) ;
#209 = CARTESIAN_POINT ( 'NONE',  ( 4.996003610813200500E-016, 2.442490654175340100E-015, 0.1111663390454450000 ) ) ;
#210 = FACE_OUTER_BOUND ( 'NONE', #232, .T. ) ;
#211 = ORIENTED_EDGE ( 'NONE', *, *, #149, .T. ) ;
#212 = DIRECTION ( 'NONE',  ( 1.000000000000000000, 8.881784197001252300E-016, 0.0000000000000000000 ) ) ;
#213 = PERSON ( 'UNSPECIFIED', 'UNSPECIFIED', 'UNSPECIFIED', ('UNSPECIFIED'), ('UNSPECIFIED'), ('UNSPECIFIED') ) ;
#214 = PERSON_AND_ORGANIZATION_ROLE ( 'creator' ) ;
#215 =( BOUNDED_SURFACE ( )  B_SPLINE_SURFACE ( 3, 3, ( 
 ( #76, #205, #99, #256 ),
 ( #73, #234, #52, #231 ),
 ( #125, #285, #34, #51 ),
 ( #10, #35, #282, #147 ) ),
 .UNSPECIFIED., .F., .F., .T. ) 
 B_SPLINE_SURFACE_WITH_KNOTS ( ( 4, 4 ),
 ( 4, 4 ),
 ( 0.0000000000000000000, 1.000000000000000000 ),
 ( 0.0000000000000000000, 1.000000000000000000 ),
 .UNSPECIFIED. ) 
 GEOMETRIC_REPRESENTATION_ITEM ( )  RATIONAL_B_SPLINE_SURFACE ( (
 ( 1.000000000000000000, 0.9999741542652470500, 0.9999741542652470500, 1.000000000000000000),
 ( 0.9998953822477052400, 0.9998695392168749400, 0.9998695392168749400, 0.9998953822477052400),
 ( 0.9998953822477052400, 0.9998695392168749400, 0.9998695392168749400, 0.9998953822477052400),
 ( 1.000000000000000000, 0.9999741542652470500, 0.9999741542652470500, 1.000000000000000000) ) ) 
 REPRESENTATION_ITEM ( '' )  SURFACE ( )  );
#216 = CC_DESIGN_PERSON_AND_ORGANIZATION_ASSIGNMENT ( #86, #20, ( #110 ) ) ;
#217 = LOCAL_TIME ( 9, 45, 14.00000000000000000, #278 ) ;
#218 = DIRECTION ( 'NONE',  ( 1.000000000000000000, 0.0000000000000000000, 0.0000000000000000000 ) ) ;
#219 = APPLICATION_CONTEXT ( 'configuration controlled 3d designs of mechanical parts and assemblies' ) ;
#220 = VERTEX_POINT ( 'NONE', #14 ) ;
#221 = AXIS2_PLACEMENT_3D ( 'NONE', #170, #55, #124 ) ;
#222 = ORIENTED_EDGE ( 'NONE', *, *, #123, .F. ) ;
#223 = CARTESIAN_POINT ( 'NONE',  ( 12.77418722074512500, 12.85238415004753400, 3.773663083466050100 ) ) ;
#224 = CARTESIAN_POINT ( 'NONE',  ( -2.273736754432320100E-013, 1.705302565824239900E-013, -721.5000000000000000 ) ) ;
#225 = DATE_AND_TIME ( #11, #251 ) ;
#226 = COORDINATED_UNIVERSAL_TIME_OFFSET ( 2, 0, .AHEAD. ) ;
#227 = CARTESIAN_POINT ( 'NONE',  ( 12.77418722074513200, -12.85238415004747600, 3.773663083466050100 ) ) ;
#228 = VERTEX_POINT ( 'NONE', #59 ) ;
#229 = CARTESIAN_POINT ( 'NONE',  ( 4.996003610813200500E-016, 2.442490654175340100E-015, 0.1111663390454450000 ) ) ;
#230 = CARTESIAN_POINT ( 'NONE',  ( -8.518292297385254800, -4.284576292756988800, -0.0004496949489752060300 ) ) ;
#231 = CARTESIAN_POINT ( 'NONE',  ( -12.77686052367944700, -4.284576292757095400, 3.925443872203768300 ) ) ;
#232 = EDGE_LOOP ( 'NONE', ( #107, #111, #222, #46, #252, #284 ) ) ;
#233 = DIRECTION ( 'NONE',  ( 1.000000000000000000, -8.881784197001252300E-016, 0.0000000000000000000 ) ) ;
#234 = CARTESIAN_POINT ( 'NONE',  ( -4.259228710864190000, -4.284576292757093600, 4.037954060313351700 ) ) ;
#235 = DATE_AND_TIME ( #136, #22 ) ;
#236 = CC_DESIGN_APPROVAL ( #62, ( #198 ) ) ;
#237 = CARTESIAN_POINT ( 'NONE',  ( 3.062324319102573800E-014, 12.85238415004763000, 0.1138502689346232400 ) ) ;
#238 = FACE_OUTER_BOUND ( 'NONE', #197, .T. ) ;
#239 = CIRCLE ( 'NONE', #221, 12.69999999999999900 ) ;
#240 = DIRECTION ( 'NONE',  ( -3.204253727121390000E-016, -1.000000000000000000, 0.0000000000000000000 ) ) ;
#241 = PERSON_AND_ORGANIZATION ( #213, #185 ) ;
#242 = CARTESIAN_POINT ( 'NONE',  ( 2.783586361311834500E-014, 4.284576292757241900, -0.03795406031334561100 ) ) ;
#243 = CIRCLE ( 'NONE', #294, 725.5000000000000000 ) ;
#244 = CARTESIAN_POINT ( 'NONE',  ( -1.526556658859590200E-013, 4.284576292757241100, -0.03795406031343012700 ) ) ;
#245 = PERSON_AND_ORGANIZATION_ROLE ( 'design_supplier' ) ;
#246 = EDGE_LOOP ( 'NONE', ( #160, #168, #94 ) ) ;
#247 = EDGE_CURVE ( 'NONE', #139, #13, #41, .T. ) ;
#248 = AXIS2_PLACEMENT_3D ( 'NONE', #191, #82, #240 ) ;
#249 = EDGE_LOOP ( 'NONE', ( #279, #98, #273, #53, #25, #293 ) ) ;
#250 = DIRECTION ( 'NONE',  ( 1.000000000000000000, 0.0000000000000000000, 0.0000000000000000000 ) ) ;
#251 = LOCAL_TIME ( 9, 45, 14.00000000000000000, #21 ) ;
#252 = ORIENTED_EDGE ( 'NONE', *, *, #45, .T. ) ;
#253 = UNCERTAINTY_MEASURE_WITH_UNIT (LENGTH_MEASURE( 1.000000000000000100E-005 ), #195, 'distance_accuracy_value', 'NONE');
#254 = CARTESIAN_POINT ( 'NONE',  ( 12.77686052367964300, -4.284576292757087400, 3.925443872203777700 ) ) ;
#255 = CARTESIAN_POINT ( 'NONE',  ( 1.543903893619358300E-013, -4.284576292757091800, 4.037954060313436100 ) ) ;
#256 = CARTESIAN_POINT ( 'NONE',  ( -12.77418722074492900, -12.85238415004748300, 3.773663083466040700 ) ) ;
#257 = ORIENTED_EDGE ( 'NONE', *, *, #289, .F. ) ;
#258 = AXIS2_PLACEMENT_3D ( 'NONE', #229, #144, #276 ) ;
#259 = CARTESIAN_POINT ( 'NONE',  ( -3.057367222858593800E-014, 12.69999999999751900, 3.888833660954582200 ) ) ;
#260 = PERSON_AND_ORGANIZATION ( #213, #185 ) ;
#261 = APPROVAL_DATE_TIME ( #87, #2 ) ;
#262 = CARTESIAN_POINT ( 'NONE',  ( -1.526556658859590200E-013, -4.284576292756991500, -0.03795406031343109800 ) ) ;
#263 = DIRECTION ( 'NONE',  ( 1.000000000000000000, -1.776356839400250500E-015, 0.0000000000000000000 ) ) ;
#264 = AXIS2_PLACEMENT_3D ( 'NONE', #280, #146, #263 ) ;
#265 = CARTESIAN_POINT ( 'NONE',  ( -1.491862189340054100E-013, 12.85238415004763000, 0.1138502689345387800 ) ) ;
#266 = DIRECTION ( 'NONE',  ( -0.0000000000000000000, -0.0000000000000000000, -1.000000000000000000 ) ) ;
#267 = ORIENTED_EDGE ( 'NONE', *, *, #177, .F. ) ;
#268 = CARTESIAN_POINT ( 'NONE',  ( 8.518292297385086100, 4.284576292757240200, -0.0004496949489607589300 ) ) ;
#269 = CARTESIAN_POINT ( 'NONE',  ( 4.996003610813200500E-016, 2.442490654175340100E-015, 3.888833660954560000 ) ) ;
#270 = LOCAL_TIME ( 9, 45, 14.00000000000000000, #200 ) ;
#271 = APPROVAL_ROLE ( '' ) ;
#272 = AXIS2_PLACEMENT_3D ( 'NONE', #159, #40, #218 ) ;
#273 = ORIENTED_EDGE ( 'NONE', *, *, #192, .T. ) ;
#274 = EDGE_CURVE ( 'NONE', #220, #204, #166, .T. ) ;
#275 = AXIS2_PLACEMENT_3D ( 'NONE', #131, #152, #134 ) ;
#276 = DIRECTION ( 'NONE',  ( 1.000000000000000000, 0.0000000000000000000, 0.0000000000000000000 ) ) ;
#277 =( BOUNDED_SURFACE ( )  B_SPLINE_SURFACE ( 3, 3, ( 
 ( #227, #6, #201, #119 ),
 ( #254, #30, #122, #255 ),
 ( #67, #28, #203, #143 ),
 ( #223, #121, #96, #3 ) ),
 .UNSPECIFIED., .F., .F., .F. ) 
 B_SPLINE_SURFACE_WITH_KNOTS ( ( 4, 4 ),
 ( 4, 4 ),
 ( 0.0000000000000000000, 1.000000000000000000 ),
 ( 0.0000000000000000000, 1.000000000000000000 ),
 .UNSPECIFIED. ) 
 GEOMETRIC_REPRESENTATION_ITEM ( )  RATIONAL_B_SPLINE_SURFACE ( (
 ( 1.000000000000000000, 0.9999741542652470500, 0.9999741542652470500, 1.000000000000000000),
 ( 0.9998953822477052400, 0.9998695392168749400, 0.9998695392168749400, 0.9998953822477052400),
 ( 0.9998953822477052400, 0.9998695392168749400, 0.9998695392168749400, 0.9998953822477052400),
 ( 1.000000000000000000, 0.9999741542652470500, 0.9999741542652470500, 1.000000000000000000) ) ) 
 REPRESENTATION_ITEM ( '' )  SURFACE ( )  );
#278 = COORDINATED_UNIVERSAL_TIME_OFFSET ( 2, 0, .AHEAD. ) ;
#279 = ORIENTED_EDGE ( 'NONE', *, *, #196, .F. ) ;
#280 = CARTESIAN_POINT ( 'NONE',  ( 4.996003610813200500E-016, 2.442490654175340100E-015, 0.1111663390454450000 ) ) ;
#281 = PRODUCT_RELATED_PRODUCT_CATEGORY ( 'detail', '', ( #118 ) ) ;
#282 = CARTESIAN_POINT ( 'NONE',  ( -8.516510014816265800, 12.85238415004752900, 3.848653212740555900 ) ) ;
#283 = APPROVAL_PERSON_ORGANIZATION ( #163, #62, #92 ) ;
#284 = ORIENTED_EDGE ( 'NONE', *, *, #274, .T. ) ;
#285 = CARTESIAN_POINT ( 'NONE',  ( -4.259228710864192600, 4.284576292757141600, 4.037954060313349000 ) ) ;
#286 = CARTESIAN_POINT ( 'NONE',  ( 4.996003610813200500E-016, 2.442490654175340100E-015, 0.1111663390454450000 ) ) ;
#287 = CARTESIAN_POINT ( 'NONE',  ( 12.77686052367945100, 4.284576292757237500, 0.07455612779623727000 ) ) ;
#288 = DIRECTION ( 'NONE',  ( 1.000000000000000000, 0.0000000000000000000, 0.0000000000000000000 ) ) ;
#289 = EDGE_CURVE ( 'NONE', #139, #228, #93, .T. ) ;
#290 = PERSON_AND_ORGANIZATION ( #213, #185 ) ;
#291 = ADVANCED_FACE ( 'NONE', ( #238 ), #113, .T. ) ;
#292 = APPLICATION_PROTOCOL_DEFINITION ( 'international standard', 'config_control_design', 1994, #219 ) ;
#293 = ORIENTED_EDGE ( 'NONE', *, *, #149, .F. ) ;
#294 = AXIS2_PLACEMENT_3D ( 'NONE', #224, #32, #9 ) ;
#295 =( NAMED_UNIT ( * ) PLANE_ANGLE_UNIT ( ) SI_UNIT ( $, .RADIAN. ) );
ENDSEC;
END-ISO-10303-21;
