ISO-10303-21;
HEADER;
FILE_DESCRIPTION (( 'STEP AP203' ),
    '1' );
FILE_NAME ('111-0234E BK7 bi-cx 25.4 F500.STEP',
    '2019-01-10T07:32:45',
    ( '' ),
    ( '' ),
    'SwSTEP 2.0',
    'SolidWorks 2017',
    '' );
FILE_SCHEMA (( 'CONFIG_CONTROL_DESIGN' ));
ENDSEC;

DATA;
#1 = DATE_TIME_ROLE ( 'creation_date' ) ;
#2 = ORIENTED_EDGE ( 'NONE', *, *, #188, .F. ) ;
#3 = APPROVAL_DATE_TIME ( #249, #184 ) ;
#4 = PRODUCT_DEFINITION ( 'UNKNOWN', '', #25, #58 ) ;
#5 = CLOSED_SHELL ( 'NONE', ( #242, #135, #177, #220, #169, #264 ) ) ;
#6 = LOCAL_TIME ( 9, 32, 45.00000000000000000, #88 ) ;
#7 = AXIS2_PLACEMENT_3D ( 'NONE', #151, #64, #254 ) ;
#8 = EDGE_CURVE ( 'NONE', #43, #69, #21, .T. ) ;
#9 = ORIENTED_EDGE ( 'NONE', *, *, #8, .F. ) ;
#10 = LOCAL_TIME ( 9, 32, 45.00000000000000000, #214 ) ;
#11 = CARTESIAN_POINT ( 'NONE',  ( -4.257956858287804500, 12.85236890473604800, 3.840532030408570800 ) ) ;
#12 =( BOUNDED_SURFACE ( )  B_SPLINE_SURFACE ( 3, 3, ( 
 ( #168, #256, #36, #280 ),
 ( #170, #106, #86, #193 ),
 ( #61, #216, #130, #279 ),
 ( #110, #11, #84, #42 ) ),
 .UNSPECIFIED., .F., .F., .F. ) 
 B_SPLINE_SURFACE_WITH_KNOTS ( ( 4, 4 ),
 ( 4, 4 ),
 ( 0.0000000000000000000, 1.000000000000000000 ),
 ( 0.0000000000000000000, 1.000000000000000000 ),
 .UNSPECIFIED. ) 
 GEOMETRIC_REPRESENTATION_ITEM ( )  RATIONAL_B_SPLINE_SURFACE ( (
 ( 1.000000000000000000, 0.9999492957725335500, 0.9999492957725335500, 1.000000000000000000),
 ( 0.9997947645179002800, 0.9997440706967404300, 0.9997440706967404300, 0.9997947645179002800),
 ( 0.9997947645179002800, 0.9997440706967404300, 0.9997440706967404300, 0.9997947645179002800),
 ( 1.000000000000000000, 0.9999492957725335500, 0.9999492957725335500, 1.000000000000000000) ) ) 
 REPRESENTATION_ITEM ( '' )  SURFACE ( )  );
#13 = DIRECTION ( 'NONE',  ( 1.000000000000000000, 0.0000000000000000000, 0.0000000000000000000 ) ) ;
#14 = CARTESIAN_POINT ( 'NONE',  ( 2.150092557823268600E-013, 12.70000000000074000, 0.1557087308966271000 ) ) ;
#15 = CARTESIAN_POINT ( 'NONE',  ( -4.257956858287649900, -12.85236890473601100, 0.1594679695914870700 ) ) ;
#16 = CALENDAR_DATE ( 2019, 10, 1 ) ;
#17 = EDGE_LOOP ( 'NONE', ( #212, #210, #2 ) ) ;
#18 = CARTESIAN_POINT ( 'NONE',  ( 12.77225140102572200, -12.85236890473600700, 0.3170022033893192300 ) ) ;
#19 = CARTESIAN_POINT ( 'NONE',  ( 8.519086530180706200, 4.285002402779295700, -0.0006312643999254847400 ) ) ;
#20 = CC_DESIGN_APPROVAL ( #33, ( #96 ) ) ;
#21 = CIRCLE ( 'NONE', #234, 12.69999999999999900 ) ;
#22 = ORIENTED_EDGE ( 'NONE', *, *, #253, .T. ) ;
#23 = CARTESIAN_POINT ( 'NONE',  ( 8.515589871955764800, 12.85236890473604800, 0.2119820435429339300 ) ) ;
#24 = PERSON_AND_ORGANIZATION_ROLE ( 'design_supplier' ) ;
#25 = PRODUCT_DEFINITION_FORMATION_WITH_SPECIFIED_SOURCE ( 'ANY', '', #53, .NOT_KNOWN. ) ;
#26 = ORIENTED_EDGE ( 'NONE', *, *, #207, .T. ) ;
#27 = CARTESIAN_POINT ( 'NONE',  ( 4.996003610813200500E-016, 2.442490654175340100E-015, 0.1557087308966010100 ) ) ;
#28 = APPROVAL_DATE_TIME ( #182, #244 ) ;
#29 = ORIENTED_EDGE ( 'NONE', *, *, #72, .T. ) ;
#30 = DIRECTION ( 'NONE',  ( 1.000000000000000000, 0.0000000000000000000, 0.0000000000000000000 ) ) ;
#31 =( BOUNDED_SURFACE ( )  B_SPLINE_SURFACE ( 3, 3, ( 
 ( #224, #153, #290, #18 ),
 ( #114, #240, #136, #286 ),
 ( #265, #112, #19, #175 ),
 ( #261, #158, #23, #65 ) ),
 .UNSPECIFIED., .F., .F., .F. ) 
 B_SPLINE_SURFACE_WITH_KNOTS ( ( 4, 4 ),
 ( 4, 4 ),
 ( 0.0000000000000000000, 1.000000000000000000 ),
 ( 0.0000000000000000000, 1.000000000000000000 ),
 .UNSPECIFIED. ) 
 GEOMETRIC_REPRESENTATION_ITEM ( )  RATIONAL_B_SPLINE_SURFACE ( (
 ( 1.000000000000000000, 0.9999492957725335500, 0.9999492957725335500, 1.000000000000000000),
 ( 0.9997947645179002800, 0.9997440706967404300, 0.9997440706967404300, 0.9997947645179002800),
 ( 0.9997947645179002800, 0.9997440706967404300, 0.9997440706967404300, 0.9997947645179002800),
 ( 1.000000000000000000, 0.9999492957725335500, 0.9999492957725335500, 1.000000000000000000) ) ) 
 REPRESENTATION_ITEM ( '' )  SURFACE ( )  );
#32 = CIRCLE ( 'NONE', #102, 518.0000000000000000 ) ;
#33 = APPROVAL ( #144, 'UNSPECIFIED' ) ;
#34 = AXIS2_PLACEMENT_3D ( 'NONE', #263, #284, #92 ) ;
#35 = SHAPE_DEFINITION_REPRESENTATION ( #218, #66 ) ;
#36 = CARTESIAN_POINT ( 'NONE',  ( -8.515589871955768300, -12.85236890473600700, 3.788017956457070000 ) ) ;
#37 = EDGE_CURVE ( 'NONE', #69, #221, #119, .T. ) ;
#38 = DIRECTION ( 'NONE',  ( 0.0000000000000000000, 0.0000000000000000000, 1.000000000000000000 ) ) ;
#39 = CYLINDRICAL_SURFACE ( 'NONE', #294, 12.69999999999999900 ) ;
#40 = DIRECTION ( 'NONE',  ( -0.0000000000000000000, -0.0000000000000000000, -1.000000000000000000 ) ) ;
#41 = CC_DESIGN_PERSON_AND_ORGANIZATION_ASSIGNMENT ( #203, #205, ( #96 ) ) ;
#42 = CARTESIAN_POINT ( 'NONE',  ( -12.77225140102571600, 12.85236890473605200, 3.682997796610684400 ) ) ;
#43 = VERTEX_POINT ( 'NONE', #167 ) ;
#44 = CARTESIAN_POINT ( 'NONE',  ( 2.207087757058093000E-013, -12.70000000000068300, 0.1557087308966271000 ) ) ;
#45 = EDGE_CURVE ( 'NONE', #56, #149, #128, .T. ) ;
#46 = DIRECTION ( 'NONE',  ( -0.0000000000000000000, -0.0000000000000000000, -1.000000000000000000 ) ) ;
#47 = APPLICATION_CONTEXT ( 'configuration controlled 3d designs of mechanical parts and assemblies' ) ;
#48 = EDGE_LOOP ( 'NONE', ( #226, #267, #180, #283, #132, #91 ) ) ;
#49 =( LENGTH_UNIT ( ) NAMED_UNIT ( * ) SI_UNIT ( .MILLI., .METRE. ) );
#50 = UNCERTAINTY_MEASURE_WITH_UNIT (LENGTH_MEASURE( 1.000000000000000100E-005 ), #49, 'distance_accuracy_value', 'NONE');
#51 = CARTESIAN_POINT ( 'NONE',  ( 8.515589871955771900, 12.85236890473604500, 3.788017956457022400 ) ) ;
#52 = AXIS2_PLACEMENT_3D ( 'NONE', #111, #178, #200 ) ;
#53 = PRODUCT ( '111-0234E BK7 bi-cx 25.4 F500', '111-0234E BK7 bi-cx 25.4 F500', '', ( #248 ) ) ;
#54 = CARTESIAN_POINT ( 'NONE',  ( 4.259705253888408400, 4.285002402779292100, 4.053166901598475900 ) ) ;
#55 = DATE_AND_TIME ( #140, #115 ) ;
#56 = VERTEX_POINT ( 'NONE', #62 ) ;
#57 = ORIENTED_EDGE ( 'NONE', *, *, #211, .F. ) ;
#58 = DESIGN_CONTEXT ( 'detailed design', #47, 'design' ) ;
#59 = CIRCLE ( 'NONE', #187, 12.69999999999999900 ) ;
#60 = CARTESIAN_POINT ( 'NONE',  ( 4.996003610813200500E-016, 2.442490654175340100E-015, 0.1557087308966010100 ) ) ;
#61 = CARTESIAN_POINT ( 'NONE',  ( -2.169853764600100800E-013, 4.285002402779294800, 4.053166901598532800 ) ) ;
#62 = CARTESIAN_POINT ( 'NONE',  ( -2.150092557823268600E-013, 12.70000000000074000, 3.844291269103375700 ) ) ;
#63 = CIRCLE ( 'NONE', #260, 518.0000000000000000 ) ;
#64 = DIRECTION ( 'NONE',  ( -0.0000000000000000000, -0.0000000000000000000, -1.000000000000000000 ) ) ;
#65 = CARTESIAN_POINT ( 'NONE',  ( 12.77225140102571600, 12.85236890473605200, 0.3170022033893192300 ) ) ;
#66 = ADVANCED_BREP_SHAPE_REPRESENTATION ( '111-0234E BK7 bi-cx 25.4 F500', ( #89, #252 ), #101 ) ;
#67 = PERSON_AND_ORGANIZATION ( #147, #255 ) ;
#68 = CARTESIAN_POINT ( 'NONE',  ( -8.515589871955764800, -12.85236890473601100, 0.2119820435429812000 ) ) ;
#69 = VERTEX_POINT ( 'NONE', #14 ) ;
#70 = CARTESIAN_POINT ( 'NONE',  ( -12.69999999999999900, 3.997792089092478900E-015, 0.1557087308966010100 ) ) ;
#71 = CARTESIAN_POINT ( 'NONE',  ( -4.259705253888408400, -4.285002402779259300, -0.05316690159847312800 ) ) ;
#72 = EDGE_CURVE ( 'NONE', #225, #69, #63, .T. ) ;
#73 = APPROVAL_ROLE ( '' ) ;
#74 = PERSON_AND_ORGANIZATION_ROLE ( 'creator' ) ;
#75 = DIRECTION ( 'NONE',  ( 1.000000000000000000, 0.0000000000000000000, 0.0000000000000000000 ) ) ;
#76 = APPROVAL_PERSON_ORGANIZATION ( #285, #184, #230 ) ;
#77 = CC_DESIGN_PERSON_AND_ORGANIZATION_ASSIGNMENT ( #236, #271, ( #25 ) ) ;
#78 = AXIS2_PLACEMENT_3D ( 'NONE', #27, #123, #75 ) ;
#79 = LOCAL_TIME ( 9, 32, 45.00000000000000000, #134 ) ;
#80 = DIRECTION ( 'NONE',  ( -2.243905481685872100E-016, -1.000000000000000000, 4.286575384653113900E-016 ) ) ;
#81 = EDGE_LOOP ( 'NONE', ( #103, #22, #137 ) ) ;
#82 = CARTESIAN_POINT ( 'NONE',  ( 0.0000000000000000000, 5.684341886080800200E-014, 518.0000000000000000 ) ) ;
#83 = PERSON_AND_ORGANIZATION ( #147, #255 ) ;
#84 = CARTESIAN_POINT ( 'NONE',  ( -8.515589871955764800, 12.85236890473604800, 3.788017956457070000 ) ) ;
#85 = EDGE_CURVE ( 'NONE', #176, #56, #32, .T. ) ;
#86 = CARTESIAN_POINT ( 'NONE',  ( -8.519086530180706200, -4.285002402779255700, 4.000631264399930700 ) ) ;
#87 = VECTOR ( 'NONE', #227, 1000.000000000000000 ) ;
#88 = COORDINATED_UNIVERSAL_TIME_OFFSET ( 2, 0, .AHEAD. ) ;
#89 = MANIFOLD_SOLID_BREP ( 'Imported1', #5 ) ;
#90 = CARTESIAN_POINT ( 'NONE',  ( -8.515589871955771900, 12.85236890473604500, 0.2119820435429812000 ) ) ;
#91 = ORIENTED_EDGE ( 'NONE', *, *, #287, .T. ) ;
#92 = DIRECTION ( 'NONE',  ( 1.000000000000000000, 0.0000000000000000000, 0.0000000000000000000 ) ) ;
#93 = DATE_AND_TIME ( #155, #10 ) ;
#94 = DIRECTION ( 'NONE',  ( 0.0000000000000000000, 0.0000000000000000000, 1.000000000000000000 ) ) ;
#95 = CARTESIAN_POINT ( 'NONE',  ( 8.519086530180707900, 4.285002402779291200, 4.000631264399882700 ) ) ;
#96 = SECURITY_CLASSIFICATION ( '', '', #291 ) ;
#97 = CARTESIAN_POINT ( 'NONE',  ( -9.020562075079396900E-014, 4.285002402779293900, 4.053166901598475900 ) ) ;
#98 = CYLINDRICAL_SURFACE ( 'NONE', #138, 12.69999999999999900 ) ;
#99 = APPLICATION_PROTOCOL_DEFINITION ( 'international standard', 'config_control_design', 1994, #160 ) ;
#100 = APPROVAL_DATE_TIME ( #93, #33 ) ;
#101 =( GEOMETRIC_REPRESENTATION_CONTEXT ( 3 ) GLOBAL_UNCERTAINTY_ASSIGNED_CONTEXT ( ( #50 ) ) GLOBAL_UNIT_ASSIGNED_CONTEXT ( ( #49, #250, #295 ) ) REPRESENTATION_CONTEXT ( 'NONE', 'WORKASPACE' ) );
#102 = AXIS2_PLACEMENT_3D ( 'NONE', #239, #107, #80 ) ;
#103 = ORIENTED_EDGE ( 'NONE', *, *, #72, .F. ) ;
#104 =( BOUNDED_SURFACE ( )  B_SPLINE_SURFACE ( 3, 3, ( 
 ( #121, #142, #231, #232 ),
 ( #293, #159, #185, #229 ),
 ( #161, #95, #54, #97 ),
 ( #143, #51, #120, #245 ) ),
 .UNSPECIFIED., .F., .F., .F. ) 
 B_SPLINE_SURFACE_WITH_KNOTS ( ( 4, 4 ),
 ( 4, 4 ),
 ( 0.0000000000000000000, 1.000000000000000000 ),
 ( 0.0000000000000000000, 1.000000000000000000 ),
 .UNSPECIFIED. ) 
 GEOMETRIC_REPRESENTATION_ITEM ( )  RATIONAL_B_SPLINE_SURFACE ( (
 ( 1.000000000000000000, 0.9999492957725335500, 0.9999492957725335500, 1.000000000000000000),
 ( 0.9997947645179002800, 0.9997440706967404300, 0.9997440706967404300, 0.9997947645179002800),
 ( 0.9997947645179002800, 0.9997440706967404300, 0.9997440706967404300, 0.9997947645179002800),
 ( 1.000000000000000000, 0.9999492957725335500, 0.9999492957725335500, 1.000000000000000000) ) ) 
 REPRESENTATION_ITEM ( '' )  SURFACE ( )  );
#105 = FACE_OUTER_BOUND ( 'NONE', #282, .T. ) ;
#106 = CARTESIAN_POINT ( 'NONE',  ( -4.259705253888562000, -4.285002402779256600, 4.053166901598531000 ) ) ;
#107 = DIRECTION ( 'NONE',  ( -1.000000000000000000, 2.243905481685870100E-016, -4.207037123266370000E-016 ) ) ;
#108 = CC_DESIGN_PERSON_AND_ORGANIZATION_ASSIGNMENT ( #241, #270, ( #53 ) ) ;
#109 = CARTESIAN_POINT ( 'NONE',  ( 4.996003610813200500E-016, 2.442490654175340100E-015, 0.1557087308966010100 ) ) ;
#110 = CARTESIAN_POINT ( 'NONE',  ( -2.149734841145950600E-013, 12.85236890473604800, 3.840532030408572200 ) ) ;
#111 = CARTESIAN_POINT ( 'NONE',  ( 4.996003610813200500E-016, 2.442490654175340100E-015, 3.844291269103400100 ) ) ;
#112 = CARTESIAN_POINT ( 'NONE',  ( 4.259705253888560300, 4.285002402779294800, -0.05316690159852576600 ) ) ;
#113 = ORIENTED_EDGE ( 'NONE', *, *, #45, .T. ) ;
#114 = CARTESIAN_POINT ( 'NONE',  ( 2.189084045361367100E-013, -4.285002402779258400, -0.05316690159852885400 ) ) ;
#115 = LOCAL_TIME ( 9, 32, 45.00000000000000000, #166 ) ;
#116 = CARTESIAN_POINT ( 'NONE',  ( 9.367506770274758300E-014, -12.85236890473601100, 0.1594679695914878500 ) ) ;
#117 = ORIENTED_EDGE ( 'NONE', *, *, #179, .T. ) ;
#118 = CARTESIAN_POINT ( 'NONE',  ( -8.519086530180707900, 4.285002402779291200, -0.0006312643998781998700 ) ) ;
#119 = CIRCLE ( 'NONE', #246, 12.69999999999999900 ) ;
#120 = CARTESIAN_POINT ( 'NONE',  ( 4.257956858287656100, 12.85236890473604500, 3.840532030408517100 ) ) ;
#121 = CARTESIAN_POINT ( 'NONE',  ( 12.77225140102587300, -12.85236890473601400, 3.682997796610632000 ) ) ;
#122 = EDGE_LOOP ( 'NONE', ( #117, #29, #238 ) ) ;
#123 = DIRECTION ( 'NONE',  ( -0.0000000000000000000, -0.0000000000000000000, -1.000000000000000000 ) ) ;
#124 = DATE_AND_TIME ( #16, #79 ) ;
#125 = AXIS2_PLACEMENT_3D ( 'NONE', #202, #46, #243 ) ;
#126 = PERSON_AND_ORGANIZATION ( #147, #255 ) ;
#127 = PRODUCT_RELATED_PRODUCT_CATEGORY ( 'detail', '', ( #53 ) ) ;
#128 = CIRCLE ( 'NONE', #7, 12.69999999999999900 ) ;
#129 = CARTESIAN_POINT ( 'NONE',  ( 4.996003610813200500E-016, 2.442490654175340100E-015, 0.1557087308966010100 ) ) ;
#130 = CARTESIAN_POINT ( 'NONE',  ( -8.519086530180706200, 4.285002402779295700, 4.000631264399929800 ) ) ;
#131 = DIRECTION ( 'NONE',  ( 1.000000000000000000, 0.0000000000000000000, 0.0000000000000000000 ) ) ;
#132 = ORIENTED_EDGE ( 'NONE', *, *, #199, .T. ) ;
#133 = CARTESIAN_POINT ( 'NONE',  ( -4.257956858287656100, 12.85236890473604500, 0.1594679695914870400 ) ) ;
#134 = COORDINATED_UNIVERSAL_TIME_OFFSET ( 2, 0, .AHEAD. ) ;
#135 = ADVANCED_FACE ( 'NONE', ( #251 ), #12, .T. ) ;
#136 = CARTESIAN_POINT ( 'NONE',  ( 8.519086530180706200, -4.285002402779255700, -0.0006312643999267723400 ) ) ;
#137 = ORIENTED_EDGE ( 'NONE', *, *, #8, .T. ) ;
#138 = AXIS2_PLACEMENT_3D ( 'NONE', #258, #38, #195 ) ;
#139 = CARTESIAN_POINT ( 'NONE',  ( 12.69999999999999900, 2.442490654175340100E-015, 0.1557087308966010100 ) ) ;
#140 = CALENDAR_DATE ( 2019, 10, 1 ) ;
#141 = CIRCLE ( 'NONE', #125, 12.69999999999999900 ) ;
#142 = CARTESIAN_POINT ( 'NONE',  ( 8.515589871955764800, -12.85236890473601100, 3.788017956457022400 ) ) ;
#143 = CARTESIAN_POINT ( 'NONE',  ( 12.77225140102588000, 12.85236890473604500, 3.682997796610632000 ) ) ;
#144 = APPROVAL_STATUS ( 'not_yet_approved' ) ;
#145 = APPROVAL_STATUS ( 'not_yet_approved' ) ;
#146 = CARTESIAN_POINT ( 'NONE',  ( 4.996003610813200500E-016, 2.442490654175340100E-015, 3.844291269103400100 ) ) ;
#147 = PERSON ( 'UNSPECIFIED', 'UNSPECIFIED', 'UNSPECIFIED', ('UNSPECIFIED'), ('UNSPECIFIED'), ('UNSPECIFIED') ) ;
#148 = LINE ( 'NONE', #174, #276 ) ;
#149 = VERTEX_POINT ( 'NONE', #281 ) ;
#150 = ORIENTED_EDGE ( 'NONE', *, *, #45, .F. ) ;
#151 = CARTESIAN_POINT ( 'NONE',  ( 4.996003610813200500E-016, 2.442490654175340100E-015, 3.844291269103400100 ) ) ;
#152 = CARTESIAN_POINT ( 'NONE',  ( -12.77225140102587300, -12.85236890473601400, 0.3170022033893715700 ) ) ;
#153 = CARTESIAN_POINT ( 'NONE',  ( 4.257956858287808900, -12.85236890473600700, 0.1594679695914331700 ) ) ;
#154 = CARTESIAN_POINT ( 'NONE',  ( 8.673617379884035500E-014, 12.85236890473604800, 0.1594679695914877900 ) ) ;
#155 = CALENDAR_DATE ( 2019, 10, 1 ) ;
#156 = CARTESIAN_POINT ( 'NONE',  ( -12.77749592296550700, -4.285002402779261900, 0.1044320186606667300 ) ) ;
#157 = CC_DESIGN_DATE_AND_TIME_ASSIGNMENT ( #55, #228, ( #96 ) ) ;
#158 = CARTESIAN_POINT ( 'NONE',  ( 4.257956858287804500, 12.85236890473604800, 0.1594679695914331700 ) ) ;
#159 = CARTESIAN_POINT ( 'NONE',  ( 8.519086530180706200, -4.285002402779260100, 4.000631264399884500 ) ) ;
#160 = APPLICATION_CONTEXT ( 'configuration controlled 3d designs of mechanical parts and assemblies' ) ;
#161 = CARTESIAN_POINT ( 'NONE',  ( 12.77749592296550900, 4.285002402779291200, 3.895567981339336200 ) ) ;
#162 = APPROVAL_ROLE ( '' ) ;
#163 = FACE_OUTER_BOUND ( 'NONE', #122, .T. ) ;
#164 = CC_DESIGN_PERSON_AND_ORGANIZATION_ASSIGNMENT ( #126, #74, ( #4 ) ) ;
#165 = CIRCLE ( 'NONE', #52, 12.69999999999999900 ) ;
#166 = COORDINATED_UNIVERSAL_TIME_OFFSET ( 2, 0, .AHEAD. ) ;
#167 = CARTESIAN_POINT ( 'NONE',  ( -12.69999999999999900, 3.997792089092478900E-015, 0.1557087308966010100 ) ) ;
#168 = CARTESIAN_POINT ( 'NONE',  ( -2.207413843221922800E-013, -12.85236890473601100, 3.840532030408572200 ) ) ;
#169 = ADVANCED_FACE ( 'NONE', ( #206 ), #98, .T. ) ;
#170 = CARTESIAN_POINT ( 'NONE',  ( -2.189084045361367400E-013, -4.285002402779258400, 4.053166901598533700 ) ) ;
#171 = DIRECTION ( 'NONE',  ( 1.000000000000000000, 0.0000000000000000000, 0.0000000000000000000 ) ) ;
#172 = FACE_OUTER_BOUND ( 'NONE', #191, .T. ) ;
#173 = CARTESIAN_POINT ( 'NONE',  ( -2.207087757058093300E-013, -12.70000000000068300, 3.844291269103375700 ) ) ;
#174 = CARTESIAN_POINT ( 'NONE',  ( 12.69999999999999900, 2.442490654175340100E-015, 0.1557087308966010100 ) ) ;
#175 = CARTESIAN_POINT ( 'NONE',  ( 12.77749592296535000, 4.285002402779297400, 0.1044320186606156100 ) ) ;
#176 = VERTEX_POINT ( 'NONE', #173 ) ;
#177 = ADVANCED_FACE ( 'NONE', ( #172 ), #39, .T. ) ;
#178 = DIRECTION ( 'NONE',  ( -0.0000000000000000000, -0.0000000000000000000, -1.000000000000000000 ) ) ;
#179 = EDGE_CURVE ( 'NONE', #221, #225, #275, .T. ) ;
#180 = ORIENTED_EDGE ( 'NONE', *, *, #179, .F. ) ;
#181 = CARTESIAN_POINT ( 'NONE',  ( -12.77225140102588000, 12.85236890473604500, 0.3170022033893715700 ) ) ;
#182 = DATE_AND_TIME ( #292, #6 ) ;
#183 = APPLICATION_PROTOCOL_DEFINITION ( 'international standard', 'config_control_design', 1994, #47 ) ;
#184 = APPROVAL ( #247, 'UNSPECIFIED' ) ;
#185 = CARTESIAN_POINT ( 'NONE',  ( 4.259705253888407500, -4.285002402779259300, 4.053166901598476800 ) ) ;
#186 = ORIENTED_EDGE ( 'NONE', *, *, #188, .T. ) ;
#187 = AXIS2_PLACEMENT_3D ( 'NONE', #146, #268, #269 ) ;
#188 = EDGE_CURVE ( 'NONE', #198, #56, #141, .T. ) ;
#189 = APPROVAL_PERSON_ORGANIZATION ( #67, #244, #73 ) ;
#190 = ORIENTED_EDGE ( 'NONE', *, *, #199, .F. ) ;
#191 = EDGE_LOOP ( 'NONE', ( #9, #26, #186, #113, #57, #273 ) ) ;
#192 = COORDINATED_UNIVERSAL_TIME_OFFSET ( 2, 0, .AHEAD. ) ;
#193 = CARTESIAN_POINT ( 'NONE',  ( -12.77749592296535200, -4.285002402779255700, 3.895567981339389500 ) ) ;
#194 = FACE_OUTER_BOUND ( 'NONE', #81, .T. ) ;
#195 = DIRECTION ( 'NONE',  ( 1.000000000000000000, 0.0000000000000000000, 0.0000000000000000000 ) ) ;
#196 = DIRECTION ( 'NONE',  ( 1.000000000000000000, 2.243905481685870100E-016, 4.207037123266370000E-016 ) ) ;
#197 = CARTESIAN_POINT ( 'NONE',  ( 8.847089727481714900E-014, 4.285002402779293900, -0.05316690159847112200 ) ) ;
#198 = VERTEX_POINT ( 'NONE', #288 ) ;
#199 = EDGE_CURVE ( 'NONE', #149, #176, #165, .T. ) ;
#200 = DIRECTION ( 'NONE',  ( 1.000000000000000000, 0.0000000000000000000, 0.0000000000000000000 ) ) ;
#201 = CARTESIAN_POINT ( 'NONE',  ( -8.519086530180706200, -4.285002402779260100, -0.0006312643998794873600 ) ) ;
#202 = CARTESIAN_POINT ( 'NONE',  ( 4.996003610813200500E-016, 2.442490654175340100E-015, 3.844291269103400100 ) ) ;
#203 = PERSON_AND_ORGANIZATION ( #147, #255 ) ;
#204 = CC_DESIGN_SECURITY_CLASSIFICATION ( #96, ( #25 ) ) ;
#205 = PERSON_AND_ORGANIZATION_ROLE ( 'classification_officer' ) ;
#206 = FACE_OUTER_BOUND ( 'NONE', #48, .T. ) ;
#207 = EDGE_CURVE ( 'NONE', #43, #198, #235, .T. ) ;
#208 = CARTESIAN_POINT ( 'NONE',  ( 0.0000000000000000000, 0.0000000000000000000, 0.0000000000000000000 ) ) ;
#209 = CIRCLE ( 'NONE', #78, 12.69999999999999900 ) ;
#210 = ORIENTED_EDGE ( 'NONE', *, *, #85, .T. ) ;
#211 = EDGE_CURVE ( 'NONE', #221, #149, #148, .T. ) ;
#212 = ORIENTED_EDGE ( 'NONE', *, *, #287, .F. ) ;
#213 = DIRECTION ( 'NONE',  ( -0.0000000000000000000, -0.0000000000000000000, -1.000000000000000000 ) ) ;
#214 = COORDINATED_UNIVERSAL_TIME_OFFSET ( 2, 0, .AHEAD. ) ;
#215 = CC_DESIGN_APPROVAL ( #244, ( #4 ) ) ;
#216 = CARTESIAN_POINT ( 'NONE',  ( -4.259705253888560300, 4.285002402779294800, 4.053166901598530100 ) ) ;
#217 = DIRECTION ( 'NONE',  ( 2.243905481685872100E-016, -1.000000000000000000, -4.286575384653113900E-016 ) ) ;
#218 = PRODUCT_DEFINITION_SHAPE ( 'NONE', 'NONE',  #4 ) ;
#219 = CARTESIAN_POINT ( 'NONE',  ( -12.77749592296550900, 4.285002402779291200, 0.1044320186606680100 ) ) ;
#220 = ADVANCED_FACE ( 'NONE', ( #194 ), #289, .T. ) ;
#221 = VERTEX_POINT ( 'NONE', #139 ) ;
#222 = CARTESIAN_POINT ( 'NONE',  ( -4.259705253888410100, 4.285002402779292100, -0.05316690159847186500 ) ) ;
#223 = LOCAL_TIME ( 9, 32, 45.00000000000000000, #192 ) ;
#224 = CARTESIAN_POINT ( 'NONE',  ( 2.207413843221922600E-013, -12.85236890473601100, 0.1594679695914313900 ) ) ;
#225 = VERTEX_POINT ( 'NONE', #44 ) ;
#226 = ORIENTED_EDGE ( 'NONE', *, *, #207, .F. ) ;
#227 = DIRECTION ( 'NONE',  ( 0.0000000000000000000, 0.0000000000000000000, 1.000000000000000000 ) ) ;
#228 = DATE_TIME_ROLE ( 'classification_date' ) ;
#229 = CARTESIAN_POINT ( 'NONE',  ( -9.194034422677078900E-014, -4.285002402779259300, 4.053166901598476800 ) ) ;
#230 = APPROVAL_ROLE ( '' ) ;
#231 = CARTESIAN_POINT ( 'NONE',  ( 4.257956858287649900, -12.85236890473601100, 3.840532030408517100 ) ) ;
#232 = CARTESIAN_POINT ( 'NONE',  ( -9.367506770274758300E-014, -12.85236890473601100, 3.840532030408515800 ) ) ;
#233 = CALENDAR_DATE ( 2019, 10, 1 ) ;
#234 = AXIS2_PLACEMENT_3D ( 'NONE', #129, #213, #171 ) ;
#235 = LINE ( 'NONE', #70, #87 ) ;
#236 = PERSON_AND_ORGANIZATION ( #147, #255 ) ;
#237 = CC_DESIGN_DATE_AND_TIME_ASSIGNMENT ( #124, #1, ( #4 ) ) ;
#238 = ORIENTED_EDGE ( 'NONE', *, *, #37, .T. ) ;
#239 = CARTESIAN_POINT ( 'NONE',  ( 0.0000000000000000000, 5.684341886080800200E-014, -514.0000000000000000 ) ) ;
#240 = CARTESIAN_POINT ( 'NONE',  ( 4.259705253888562000, -4.285002402779256600, -0.05316690159852707100 ) ) ;
#241 = PERSON_AND_ORGANIZATION ( #147, #255 ) ;
#242 = ADVANCED_FACE ( 'NONE', ( #163 ), #31, .T. ) ;
#243 = DIRECTION ( 'NONE',  ( 1.000000000000000000, -8.881784197001252300E-016, 0.0000000000000000000 ) ) ;
#244 = APPROVAL ( #145, 'UNSPECIFIED' ) ;
#245 = CARTESIAN_POINT ( 'NONE',  ( -8.673617379884035500E-014, 12.85236890473604800, 3.840532030408515800 ) ) ;
#246 = AXIS2_PLACEMENT_3D ( 'NONE', #60, #40, #13 ) ;
#247 = APPROVAL_STATUS ( 'not_yet_approved' ) ;
#248 = MECHANICAL_CONTEXT ( 'NONE', #160, 'mechanical' ) ;
#249 = DATE_AND_TIME ( #233, #223 ) ;
#250 =( NAMED_UNIT ( * ) PLANE_ANGLE_UNIT ( ) SI_UNIT ( $, .RADIAN. ) );
#251 = FACE_OUTER_BOUND ( 'NONE', #17, .T. ) ;
#252 = AXIS2_PLACEMENT_3D ( 'NONE', #208, #266, #30 ) ;
#253 = EDGE_CURVE ( 'NONE', #225, #43, #209, .T. ) ;
#254 = DIRECTION ( 'NONE',  ( 1.000000000000000000, 8.881784197001252300E-016, 0.0000000000000000000 ) ) ;
#255 = ORGANIZATION ( 'UNSPECIFIED', 'UNSPECIFIED', '' ) ;
#256 = CARTESIAN_POINT ( 'NONE',  ( -4.257956858287808900, -12.85236890473600700, 3.840532030408570800 ) ) ;
#257 = CC_DESIGN_APPROVAL ( #184, ( #25 ) ) ;
#258 = CARTESIAN_POINT ( 'NONE',  ( 4.996003610813200500E-016, 2.442490654175340100E-015, 0.1557087308966010100 ) ) ;
#259 = DIRECTION ( 'NONE',  ( 0.0000000000000000000, 0.0000000000000000000, 1.000000000000000000 ) ) ;
#260 = AXIS2_PLACEMENT_3D ( 'NONE', #82, #196, #217 ) ;
#261 = CARTESIAN_POINT ( 'NONE',  ( 2.149734841145950300E-013, 12.85236890473604800, 0.1594679695914313900 ) ) ;
#262 = CARTESIAN_POINT ( 'NONE',  ( 9.020562075079396900E-014, -4.285002402779259300, -0.05316690159847239900 ) ) ;
#263 = CARTESIAN_POINT ( 'NONE',  ( 4.996003610813200500E-016, 2.442490654175340100E-015, 0.1557087308966010100 ) ) ;
#264 = ADVANCED_FACE ( 'NONE', ( #105 ), #104, .T. ) ;
#265 = CARTESIAN_POINT ( 'NONE',  ( 2.169853764600100500E-013, 4.285002402779294800, -0.05316690159852754900 ) ) ;
#266 = DIRECTION ( 'NONE',  ( 0.0000000000000000000, 0.0000000000000000000, 1.000000000000000000 ) ) ;
#267 = ORIENTED_EDGE ( 'NONE', *, *, #253, .F. ) ;
#268 = DIRECTION ( 'NONE',  ( -0.0000000000000000000, -0.0000000000000000000, -1.000000000000000000 ) ) ;
#269 = DIRECTION ( 'NONE',  ( 1.000000000000000000, 0.0000000000000000000, 0.0000000000000000000 ) ) ;
#270 = PERSON_AND_ORGANIZATION_ROLE ( 'design_owner' ) ;
#271 = PERSON_AND_ORGANIZATION_ROLE ( 'creator' ) ;
#272 = APPROVAL_PERSON_ORGANIZATION ( #277, #33, #162 ) ;
#273 = ORIENTED_EDGE ( 'NONE', *, *, #37, .F. ) ;
#274 = ORIENTED_EDGE ( 'NONE', *, *, #85, .F. ) ;
#275 = CIRCLE ( 'NONE', #34, 12.69999999999999900 ) ;
#276 = VECTOR ( 'NONE', #94, 1000.000000000000000 ) ;
#277 = PERSON_AND_ORGANIZATION ( #147, #255 ) ;
#278 = CC_DESIGN_PERSON_AND_ORGANIZATION_ASSIGNMENT ( #83, #24, ( #25 ) ) ;
#279 = CARTESIAN_POINT ( 'NONE',  ( -12.77749592296535000, 4.285002402779297400, 3.895567981339388600 ) ) ;
#280 = CARTESIAN_POINT ( 'NONE',  ( -12.77225140102572200, -12.85236890473600700, 3.682997796610684400 ) ) ;
#281 = CARTESIAN_POINT ( 'NONE',  ( 12.69999999999999900, 2.442490654175340100E-015, 3.844291269103400100 ) ) ;
#282 = EDGE_LOOP ( 'NONE', ( #274, #190, #150 ) ) ;
#283 = ORIENTED_EDGE ( 'NONE', *, *, #211, .T. ) ;
#284 = DIRECTION ( 'NONE',  ( -0.0000000000000000000, -0.0000000000000000000, -1.000000000000000000 ) ) ;
#285 = PERSON_AND_ORGANIZATION ( #147, #255 ) ;
#286 = CARTESIAN_POINT ( 'NONE',  ( 12.77749592296535200, -4.285002402779255700, 0.1044320186606143000 ) ) ;
#287 = EDGE_CURVE ( 'NONE', #176, #198, #59, .T. ) ;
#288 = CARTESIAN_POINT ( 'NONE',  ( -12.69999999999999900, 3.997792089092478900E-015, 3.844291269103400100 ) ) ;
#289 =( BOUNDED_SURFACE ( )  B_SPLINE_SURFACE ( 3, 3, ( 
 ( #152, #68, #15, #116 ),
 ( #156, #201, #71, #262 ),
 ( #219, #118, #222, #197 ),
 ( #181, #90, #133, #154 ) ),
 .UNSPECIFIED., .F., .F., .T. ) 
 B_SPLINE_SURFACE_WITH_KNOTS ( ( 4, 4 ),
 ( 4, 4 ),
 ( 0.0000000000000000000, 1.000000000000000000 ),
 ( 0.0000000000000000000, 1.000000000000000000 ),
 .UNSPECIFIED. ) 
 GEOMETRIC_REPRESENTATION_ITEM ( )  RATIONAL_B_SPLINE_SURFACE ( (
 ( 1.000000000000000000, 0.9999492957725335500, 0.9999492957725335500, 1.000000000000000000),
 ( 0.9997947645179002800, 0.9997440706967404300, 0.9997440706967404300, 0.9997947645179002800),
 ( 0.9997947645179002800, 0.9997440706967404300, 0.9997440706967404300, 0.9997947645179002800),
 ( 1.000000000000000000, 0.9999492957725335500, 0.9999492957725335500, 1.000000000000000000) ) ) 
 REPRESENTATION_ITEM ( '' )  SURFACE ( )  );
#290 = CARTESIAN_POINT ( 'NONE',  ( 8.515589871955768300, -12.85236890473600700, 0.2119820435429339300 ) ) ;
#291 = SECURITY_CLASSIFICATION_LEVEL ( 'unclassified' ) ;
#292 = CALENDAR_DATE ( 2019, 10, 1 ) ;
#293 = CARTESIAN_POINT ( 'NONE',  ( 12.77749592296550700, -4.285002402779261900, 3.895567981339337600 ) ) ;
#294 = AXIS2_PLACEMENT_3D ( 'NONE', #109, #259, #131 ) ;
#295 =( NAMED_UNIT ( * ) SI_UNIT ( $, .STERADIAN. ) SOLID_ANGLE_UNIT ( ) );
ENDSEC;
END-ISO-10303-21;
