ISO-10303-21;
HEADER;
FILE_DESCRIPTION (( 'STEP AP203' ),
    '1' );
FILE_NAME ('111-0229E BK7 bi-cx 25.4 F300.STEP',
    '2019-01-10T07:19:15',
    ( '' ),
    ( '' ),
    'SwSTEP 2.0',
    'SolidWorks 2017',
    '' );
FILE_SCHEMA (( 'CONFIG_CONTROL_DESIGN' ));
ENDSEC;

DATA;
#1 = PERSON_AND_ORGANIZATION ( #37, #29 ) ;
#2 = VECTOR ( 'NONE', #191, 1000.000000000000000 ) ;
#3 = CIRCLE ( 'NONE', #112, 12.69999999999999900 ) ;
#4 = CIRCLE ( 'NONE', #102, 12.69999999999999900 ) ;
#5 =( BOUNDED_SURFACE ( )  B_SPLINE_SURFACE ( 3, 3, ( 
 ( #167, #28, #220, #30 ),
 ( #12, #79, #243, #86 ),
 ( #172, #246, #104, #268 ),
 ( #202, #286, #169, #125 ) ),
 .UNSPECIFIED., .F., .F., .F. ) 
 B_SPLINE_SURFACE_WITH_KNOTS ( ( 4, 4 ),
 ( 4, 4 ),
 ( 0.0000000000000000000, 1.000000000000000000 ),
 ( 0.0000000000000000000, 1.000000000000000000 ),
 .UNSPECIFIED. ) 
 GEOMETRIC_REPRESENTATION_ITEM ( )  RATIONAL_B_SPLINE_SURFACE ( (
 ( 1.000000000000000000, 0.9998589262812464000, 0.9998589262812464000, 1.000000000000000000),
 ( 0.9994290152838494200, 0.9992880221160330700, 0.9992880221160330700, 0.9994290152838494200),
 ( 0.9994290152838494200, 0.9992880221160330700, 0.9992880221160330700, 0.9994290152838494200),
 ( 1.000000000000000000, 0.9998589262812464000, 0.9998589262812464000, 1.000000000000000000) ) ) 
 REPRESENTATION_ITEM ( '' )  SURFACE ( )  );
#6 = APPROVAL ( #231, 'UNSPECIFIED' ) ;
#7 = DIRECTION ( 'NONE',  ( -0.0000000000000000000, -0.0000000000000000000, -1.000000000000000000 ) ) ;
#8 = AXIS2_PLACEMENT_3D ( 'NONE', #19, #225, #249 ) ;
#9 = CALENDAR_DATE ( 2019, 10, 1 ) ;
#10 = SHAPE_DEFINITION_REPRESENTATION ( #179, #282 ) ;
#11 = CLOSED_SHELL ( 'NONE', ( #143, #260, #264, #193, #49, #164 ) ) ;
#12 = CARTESIAN_POINT ( 'NONE',  ( -2.842170943040401400E-014, -4.286552047711076300, -0.08872458680110759100 ) ) ;
#13 = CARTESIAN_POINT ( 'NONE',  ( 4.510281037539698400E-014, -12.85231347602061000, 3.733978220745363800 ) ) ;
#14 = CARTESIAN_POINT ( 'NONE',  ( -8.521974999452865500, -4.286552047711075500, -0.001061467228815542000 ) ) ;
#15 = APPROVAL_PERSON_ORGANIZATION ( #257, #6, #92 ) ;
#16 = ORIENTED_EDGE ( 'NONE', *, *, #280, .F. ) ;
#17 = CARTESIAN_POINT ( 'NONE',  ( -2.842170943040400100E-014, 12.85231347602069400, 3.733978220745393100 ) ) ;
#18 = AXIS2_PLACEMENT_3D ( 'NONE', #281, #217, #144 ) ;
#19 = CARTESIAN_POINT ( 'NONE',  ( 4.996003610813200500E-016, 2.442490654175340100E-015, 0.2597512406745530200 ) ) ;
#20 =( BOUNDED_SURFACE ( )  B_SPLINE_SURFACE ( 3, 3, ( 
 ( #128, #222, #287, #284 ),
 ( #150, #14, #35, #90 ),
 ( #250, #153, #271, #134 ),
 ( #175, #87, #253, #91 ) ),
 .UNSPECIFIED., .F., .F., .F. ) 
 B_SPLINE_SURFACE_WITH_KNOTS ( ( 4, 4 ),
 ( 4, 4 ),
 ( 0.0000000000000000000, 1.000000000000000000 ),
 ( 0.0000000000000000000, 1.000000000000000000 ),
 .UNSPECIFIED. ) 
 GEOMETRIC_REPRESENTATION_ITEM ( )  RATIONAL_B_SPLINE_SURFACE ( (
 ( 1.000000000000000000, 0.9998589262812464000, 0.9998589262812464000, 1.000000000000000000),
 ( 0.9994290152838494200, 0.9992880221160330700, 0.9992880221160330700, 0.9994290152838494200),
 ( 0.9994290152838494200, 0.9992880221160330700, 0.9992880221160330700, 0.9994290152838494200),
 ( 1.000000000000000000, 0.9998589262812464000, 0.9998589262812464000, 1.000000000000000000) ) ) 
 REPRESENTATION_ITEM ( '' )  SURFACE ( )  );
#21 = CARTESIAN_POINT ( 'NONE',  ( 4.996003610813200500E-016, 2.442490654175340100E-015, 3.740248759325449900 ) ) ;
#22 = FACE_OUTER_BOUND ( 'NONE', #111, .T. ) ;
#23 = VERTEX_POINT ( 'NONE', #123 ) ;
#24 = DATE_TIME_ROLE ( 'classification_date' ) ;
#25 = LOCAL_TIME ( 9, 19, 15.00000000000000000, #212 ) ;
#26 = ORIENTED_EDGE ( 'NONE', *, *, #27, .F. ) ;
#27 = EDGE_CURVE ( 'NONE', #138, #116, #227, .T. ) ;
#28 = CARTESIAN_POINT ( 'NONE',  ( 4.256572644938847500, -12.85231347602061500, 0.2660217792546659700 ) ) ;
#29 = ORGANIZATION ( 'UNSPECIFIED', 'UNSPECIFIED', '' ) ;
#30 = CARTESIAN_POINT ( 'NONE',  ( 12.76521463703579900, -12.85231347602061400, 0.5286737965207368700 ) ) ;
#31 = CARTESIAN_POINT ( 'NONE',  ( 8.521974999452812200, 4.286552047711153600, 4.001061467228872500 ) ) ;
#32 = CARTESIAN_POINT ( 'NONE',  ( -12.69999999999999900, 3.997792089092478900E-015, 0.2597512406745530200 ) ) ;
#33 = CARTESIAN_POINT ( 'NONE',  ( 8.512244554079570600, 12.85231347602069500, 3.646415195481791400 ) ) ;
#34 = VERTEX_POINT ( 'NONE', #145 ) ;
#35 = CARTESIAN_POINT ( 'NONE',  ( -4.261438382446372400, -4.286552047711075500, -0.08872458680113186300 ) ) ;
#36 = CARTESIAN_POINT ( 'NONE',  ( -2.842170943040401400E-014, -4.286552047711072800, 4.088724586801113500 ) ) ;
#37 = PERSON ( 'UNSPECIFIED', 'UNSPECIFIED', 'UNSPECIFIED', ('UNSPECIFIED'), ('UNSPECIFIED'), ('UNSPECIFIED') ) ;
#38 = CARTESIAN_POINT ( 'NONE',  ( -8.512244554079496000, 12.85231347602069500, 3.646415195481768700 ) ) ;
#39 = CARTESIAN_POINT ( 'NONE',  ( -12.76521463703580000, -12.85231347602061000, 3.471326203479266700 ) ) ;
#40 = DIRECTION ( 'NONE',  ( 1.000000000000000000, -8.881784197001252300E-016, 0.0000000000000000000 ) ) ;
#41 = PERSON_AND_ORGANIZATION ( #37, #29 ) ;
#42 = ORIENTED_EDGE ( 'NONE', *, *, #70, .T. ) ;
#43 = APPLICATION_CONTEXT ( 'configuration controlled 3d designs of mechanical parts and assemblies' ) ;
#44 = PERSON_AND_ORGANIZATION_ROLE ( 'design_supplier' ) ;
#45 = APPROVAL_STATUS ( 'not_yet_approved' ) ;
#46 = APPROVAL_DATE_TIME ( #273, #255 ) ;
#47 = AXIS2_PLACEMENT_3D ( 'NONE', #291, #160, #181 ) ;
#48 = ORIENTED_EDGE ( 'NONE', *, *, #139, .T. ) ;
#49 = ADVANCED_FACE ( 'NONE', ( #61 ), #52, .T. ) ;
#50 = EDGE_CURVE ( 'NONE', #277, #23, #171, .T. ) ;
#51 = AXIS2_PLACEMENT_3D ( 'NONE', #195, #7, #174 ) ;
#52 = CYLINDRICAL_SURFACE ( 'NONE', #18, 12.69999999999999900 ) ;
#53 = DIRECTION ( 'NONE',  ( 1.000000000000000000, 0.0000000000000000000, 0.0000000000000000000 ) ) ;
#54 = CARTESIAN_POINT ( 'NONE',  ( 12.69999999999999900, 2.442490654175340100E-015, 3.740248759325449900 ) ) ;
#55 = CARTESIAN_POINT ( 'NONE',  ( 8.521974999452810500, -4.286552047711071900, 4.001061467228821800 ) ) ;
#56 = EDGE_CURVE ( 'NONE', #118, #34, #229, .T. ) ;
#57 = CARTESIAN_POINT ( 'NONE',  ( 4.510281037539698400E-014, 12.85231347602069400, 3.733978220745419300 ) ) ;
#58 = CALENDAR_DATE ( 2019, 10, 1 ) ;
#59 = CARTESIAN_POINT ( 'NONE',  ( 12.76521463703590200, -12.85231347602061000, 3.471326203479285800 ) ) ;
#60 = CARTESIAN_POINT ( 'NONE',  ( -12.76521463703580000, 12.85231347602069400, 3.471326203479322200 ) ) ;
#61 = FACE_OUTER_BOUND ( 'NONE', #263, .T. ) ;
#62 = DIRECTION ( 'NONE',  ( 0.0000000000000000000, 0.0000000000000000000, 1.000000000000000000 ) ) ;
#63 = AXIS2_PLACEMENT_3D ( 'NONE', #199, #269, #201 ) ;
#64 = CARTESIAN_POINT ( 'NONE',  ( -2.842170943040400100E-014, -12.69999999999957700, 0.2597512406745595700 ) ) ;
#65 =( NAMED_UNIT ( * ) SI_UNIT ( $, .STERADIAN. ) SOLID_ANGLE_UNIT ( ) );
#66 = CC_DESIGN_APPROVAL ( #255, ( #126 ) ) ;
#67 = LOCAL_TIME ( 9, 19, 15.00000000000000000, #233 ) ;
#68 = CARTESIAN_POINT ( 'NONE',  ( -2.842170943040400100E-014, -12.85231347602061000, 3.733978220745337600 ) ) ;
#69 = DATE_TIME_ROLE ( 'creation_date' ) ;
#70 = EDGE_CURVE ( 'NONE', #146, #105, #240, .T. ) ;
#71 = AXIS2_PLACEMENT_3D ( 'NONE', #148, #129, #147 ) ;
#72 = ORIENTED_EDGE ( 'NONE', *, *, #189, .F. ) ;
#73 = AXIS2_PLACEMENT_3D ( 'NONE', #289, #177, #152 ) ;
#74 = FACE_OUTER_BOUND ( 'NONE', #210, .T. ) ;
#75 = ORIENTED_EDGE ( 'NONE', *, *, #27, .T. ) ;
#76 = DIRECTION ( 'NONE',  ( 0.0000000000000000000, -1.000000000000000000, -3.574446312379770200E-016 ) ) ;
#77 = CARTESIAN_POINT ( 'NONE',  ( -12.69999999999999900, 3.997792089092478900E-015, 0.2597512406745530200 ) ) ;
#78 = PERSON_AND_ORGANIZATION ( #37, #29 ) ;
#79 = CARTESIAN_POINT ( 'NONE',  ( 4.261438382446232100, -4.286552047711075500, -0.08872458680110757700 ) ) ;
#80 = CC_DESIGN_PERSON_AND_ORGANIZATION_ASSIGNMENT ( #41, #254, ( #126 ) ) ;
#81 = PRODUCT ( '111-0229E BK7 bi-cx 25.4 F300', '111-0229E BK7 bi-cx 25.4 F300', '', ( #295 ) ) ;
#82 = CARTESIAN_POINT ( 'NONE',  ( 4.256572644938930900, -12.85231347602061200, 3.733978220745362000 ) ) ;
#83 = EDGE_CURVE ( 'NONE', #23, #138, #3, .T. ) ;
#84 = CARTESIAN_POINT ( 'NONE',  ( 4.996003610813200500E-016, 2.442490654175340100E-015, 3.740248759325449900 ) ) ;
#85 = ORIENTED_EDGE ( 'NONE', *, *, #56, .T. ) ;
#86 = CARTESIAN_POINT ( 'NONE',  ( 12.77980670178608600, -4.286552047711076300, 0.1742276710290051900 ) ) ;
#87 = CARTESIAN_POINT ( 'NONE',  ( -8.512244554079627400, 12.85231347602069400, 0.3535848045182121100 ) ) ;
#88 = PERSON_AND_ORGANIZATION ( #37, #29 ) ;
#89 = ORIENTED_EDGE ( 'NONE', *, *, #56, .F. ) ;
#90 = CARTESIAN_POINT ( 'NONE',  ( -1.006139616066548200E-013, -4.286552047711076300, -0.08872458680113284900 ) ) ;
#91 = CARTESIAN_POINT ( 'NONE',  ( -1.006139616066548100E-013, 12.85231347602069200, 0.2660217792545850900 ) ) ;
#92 = APPROVAL_ROLE ( '' ) ;
#93 = APPLICATION_PROTOCOL_DEFINITION ( 'international standard', 'config_control_design', 1994, #43 ) ;
#94 = CALENDAR_DATE ( 2019, 10, 1 ) ;
#95 = CC_DESIGN_PERSON_AND_ORGANIZATION_ASSIGNMENT ( #88, #136, ( #81 ) ) ;
#96 = AXIS2_PLACEMENT_3D ( 'NONE', #194, #53, #76 ) ;
#97 = CIRCLE ( 'NONE', #71, 12.69999999999999900 ) ;
#98 = CARTESIAN_POINT ( 'NONE',  ( 4.996003610813200500E-016, 2.442490654175340100E-015, 0.2597512406745530200 ) ) ;
#99 = FACE_OUTER_BOUND ( 'NONE', #203, .T. ) ;
#100 = MANIFOLD_SOLID_BREP ( 'Imported1', #11 ) ;
#101 = CARTESIAN_POINT ( 'NONE',  ( 12.76521463703590300, 12.85231347602069400, 3.471326203479341300 ) ) ;
#102 = AXIS2_PLACEMENT_3D ( 'NONE', #21, #180, #40 ) ;
#103 = CYLINDRICAL_SURFACE ( 'NONE', #276, 12.69999999999999900 ) ;
#104 = CARTESIAN_POINT ( 'NONE',  ( 8.521974999452719900, 4.286552047711151800, -0.001061467228847580200 ) ) ;
#105 = VERTEX_POINT ( 'NONE', #119 ) ;
#106 = AXIS2_PLACEMENT_3D ( 'NONE', #261, #168, #238 ) ;
#107 = CARTESIAN_POINT ( 'NONE',  ( -8.521974999452737600, 4.286552047711153600, 4.001061467228851100 ) ) ;
#108 = CARTESIAN_POINT ( 'NONE',  ( -4.256572644938887400, 12.85231347602069500, 3.733978220745392700 ) ) ;
#109 = CC_DESIGN_APPROVAL ( #6, ( #232 ) ) ;
#110 = DATE_AND_TIME ( #58, #183 ) ;
#111 = EDGE_LOOP ( 'NONE', ( #184, #42, #215, #165, #26, #237 ) ) ;
#112 = AXIS2_PLACEMENT_3D ( 'NONE', #98, #120, #241 ) ;
#113 = PERSON_AND_ORGANIZATION_ROLE ( 'classification_officer' ) ;
#114 = DATE_AND_TIME ( #185, #272 ) ;
#115 = APPROVAL_ROLE ( '' ) ;
#116 = VERTEX_POINT ( 'NONE', #54 ) ;
#117 = FACE_OUTER_BOUND ( 'NONE', #230, .T. ) ;
#118 = VERTEX_POINT ( 'NONE', #218 ) ;
#119 = CARTESIAN_POINT ( 'NONE',  ( -12.69999999999999900, 3.997792089092478900E-015, 3.740248759325449900 ) ) ;
#120 = DIRECTION ( 'NONE',  ( -0.0000000000000000000, -0.0000000000000000000, -1.000000000000000000 ) ) ;
#121 = APPROVAL_DATE_TIME ( #114, #6 ) ;
#122 = CIRCLE ( 'NONE', #8, 12.69999999999999900 ) ;
#123 = CARTESIAN_POINT ( 'NONE',  ( -2.842170943040400100E-014, 12.69999999999966200, 0.2597512406745595700 ) ) ;
#124 = CARTESIAN_POINT ( 'NONE',  ( 12.69999999999999900, 2.442490654175340100E-015, 0.2597512406745530200 ) ) ;
#125 = CARTESIAN_POINT ( 'NONE',  ( 12.76521463703580000, 12.85231347602069200, 0.5286737965206814700 ) ) ;
#126 = PRODUCT_DEFINITION ( 'UNKNOWN', '', #205, #224 ) ;
#127 = ORIENTED_EDGE ( 'NONE', *, *, #154, .T. ) ;
#128 = CARTESIAN_POINT ( 'NONE',  ( -12.76521463703595700, -12.85231347602061400, 0.5286737965207177800 ) ) ;
#129 = DIRECTION ( 'NONE',  ( -0.0000000000000000000, -0.0000000000000000000, -1.000000000000000000 ) ) ;
#130 = DIRECTION ( 'NONE',  ( 1.000000000000000000, 8.881784197001252300E-016, 0.0000000000000000000 ) ) ;
#131 = CARTESIAN_POINT ( 'NONE',  ( 4.261438382446317300, -4.286552047711071900, 4.088724586801137500 ) ) ;
#132 = EDGE_CURVE ( 'NONE', #116, #118, #161, .T. ) ;
#133 = CARTESIAN_POINT ( 'NONE',  ( 4.996003610813200500E-016, 2.442490654175340100E-015, 0.2597512406745530200 ) ) ;
#134 = CARTESIAN_POINT ( 'NONE',  ( -1.006139616066548200E-013, 4.286552047711150900, -0.08872458680118597300 ) ) ;
#135 = CARTESIAN_POINT ( 'NONE',  ( -12.77980670178608600, -4.286552047711072800, 3.825772328970999500 ) ) ;
#136 = PERSON_AND_ORGANIZATION_ROLE ( 'design_owner' ) ;
#137 = COORDINATED_UNIVERSAL_TIME_OFFSET ( 2, 0, .AHEAD. ) ;
#138 = VERTEX_POINT ( 'NONE', #166 ) ;
#139 = EDGE_CURVE ( 'NONE', #138, #277, #97, .T. ) ;
#140 = DATE_AND_TIME ( #207, #25 ) ;
#141 = CC_DESIGN_DATE_AND_TIME_ASSIGNMENT ( #149, #24, ( #232 ) ) ;
#142 = ORIENTED_EDGE ( 'NONE', *, *, #154, .F. ) ;
#143 = ADVANCED_FACE ( 'NONE', ( #99 ), #5, .T. ) ;
#144 = DIRECTION ( 'NONE',  ( 1.000000000000000000, 0.0000000000000000000, 0.0000000000000000000 ) ) ;
#145 = CARTESIAN_POINT ( 'NONE',  ( -2.842170943040400100E-014, 12.69999999999967600, 3.740248759325443700 ) ) ;
#146 = VERTEX_POINT ( 'NONE', #32 ) ;
#147 = DIRECTION ( 'NONE',  ( 1.000000000000000000, 0.0000000000000000000, 0.0000000000000000000 ) ) ;
#148 = CARTESIAN_POINT ( 'NONE',  ( 4.996003610813200500E-016, 2.442490654175340100E-015, 0.2597512406745530200 ) ) ;
#149 = DATE_AND_TIME ( #9, #214 ) ;
#150 = CARTESIAN_POINT ( 'NONE',  ( -12.77980670178624400, -4.286552047711076300, 0.1742276710289861200 ) ) ;
#151 = CARTESIAN_POINT ( 'NONE',  ( 8.512244554079568800, -12.85231347602061200, 3.646415195481735900 ) ) ;
#152 = DIRECTION ( 'NONE',  ( 1.000000000000000000, 8.881784197001252300E-016, 0.0000000000000000000 ) ) ;
#153 = CARTESIAN_POINT ( 'NONE',  ( -8.521974999452867300, 4.286552047711151800, -0.001061467228868586800 ) ) ;
#154 = EDGE_CURVE ( 'NONE', #277, #146, #266, .T. ) ;
#155 = FACE_OUTER_BOUND ( 'NONE', #198, .T. ) ;
#156 = ORIENTED_EDGE ( 'NONE', *, *, #50, .F. ) ;
#157 = CARTESIAN_POINT ( 'NONE',  ( -8.521974999452737600, -4.286552047711071900, 4.001061467228798700 ) ) ;
#158 =( NAMED_UNIT ( * ) PLANE_ANGLE_UNIT ( ) SI_UNIT ( $, .RADIAN. ) );
#159 = CC_DESIGN_SECURITY_CLASSIFICATION ( #232, ( #205 ) ) ;
#160 = DIRECTION ( 'NONE',  ( 0.0000000000000000000, 0.0000000000000000000, 1.000000000000000000 ) ) ;
#161 = CIRCLE ( 'NONE', #51, 12.69999999999999900 ) ;
#162 = ORIENTED_EDGE ( 'NONE', *, *, #245, .F. ) ;
#163 = ORIENTED_EDGE ( 'NONE', *, *, #245, .T. ) ;
#164 = ADVANCED_FACE ( 'NONE', ( #155 ), #292, .T. ) ;
#165 = ORIENTED_EDGE ( 'NONE', *, *, #280, .T. ) ;
#166 = CARTESIAN_POINT ( 'NONE',  ( 12.69999999999999900, 2.442490654175340100E-015, 0.2597512406745530200 ) ) ;
#167 = CARTESIAN_POINT ( 'NONE',  ( -2.842170943040400100E-014, -12.85231347602061400, 0.2660217792546659700 ) ) ;
#168 = DIRECTION ( 'NONE',  ( -1.000000000000000000, 0.0000000000000000000, 0.0000000000000000000 ) ) ;
#169 = CARTESIAN_POINT ( 'NONE',  ( 8.512244554079480000, 12.85231347602069400, 0.3535848045182332100 ) ) ;
#170 = PRODUCT_RELATED_PRODUCT_CATEGORY ( 'detail', '', ( #81 ) ) ;
#171 = CIRCLE ( 'NONE', #96, 310.5999999999999700 ) ;
#172 = CARTESIAN_POINT ( 'NONE',  ( -2.842170943040401400E-014, 4.286552047711150900, -0.08872458680116054900 ) ) ;
#173 = CARTESIAN_POINT ( 'NONE',  ( 12.77980670178618900, 4.286552047711152700, 3.825772328971070100 ) ) ;
#174 = DIRECTION ( 'NONE',  ( 1.000000000000000000, 0.0000000000000000000, 0.0000000000000000000 ) ) ;
#175 = CARTESIAN_POINT ( 'NONE',  ( -12.76521463703595800, 12.85231347602069200, 0.5286737965206622600 ) ) ;
#176 = APPROVAL_PERSON_ORGANIZATION ( #258, #255, #279 ) ;
#177 = DIRECTION ( 'NONE',  ( -0.0000000000000000000, -0.0000000000000000000, -1.000000000000000000 ) ) ;
#178 = CC_DESIGN_PERSON_AND_ORGANIZATION_ASSIGNMENT ( #1, #113, ( #232 ) ) ;
#179 = PRODUCT_DEFINITION_SHAPE ( 'NONE', 'NONE',  #126 ) ;
#180 = DIRECTION ( 'NONE',  ( -0.0000000000000000000, -0.0000000000000000000, -1.000000000000000000 ) ) ;
#181 = DIRECTION ( 'NONE',  ( 1.000000000000000000, 0.0000000000000000000, 0.0000000000000000000 ) ) ;
#182 =( GEOMETRIC_REPRESENTATION_CONTEXT ( 3 ) GLOBAL_UNCERTAINTY_ASSIGNED_CONTEXT ( ( #234 ) ) GLOBAL_UNIT_ASSIGNED_CONTEXT ( ( #208, #158, #65 ) ) REPRESENTATION_CONTEXT ( 'NONE', 'WORKASPACE' ) );
#183 = LOCAL_TIME ( 9, 19, 15.00000000000000000, #244 ) ;
#184 = ORIENTED_EDGE ( 'NONE', *, *, #200, .F. ) ;
#185 = CALENDAR_DATE ( 2019, 10, 1 ) ;
#186 = CIRCLE ( 'NONE', #73, 12.69999999999999900 ) ;
#187 = CC_DESIGN_DATE_AND_TIME_ASSIGNMENT ( #140, #69, ( #126 ) ) ;
#188 = APPROVAL_STATUS ( 'not_yet_approved' ) ;
#189 = EDGE_CURVE ( 'NONE', #105, #34, #290, .T. ) ;
#190 = ORIENTED_EDGE ( 'NONE', *, *, #139, .F. ) ;
#191 = DIRECTION ( 'NONE',  ( 0.0000000000000000000, 0.0000000000000000000, 1.000000000000000000 ) ) ;
#192 = CC_DESIGN_PERSON_AND_ORGANIZATION_ASSIGNMENT ( #236, #211, ( #205 ) ) ;
#193 = ADVANCED_FACE ( 'NONE', ( #74 ), #20, .T. ) ;
#194 = CARTESIAN_POINT ( 'NONE',  ( -2.842170943040400100E-014, 8.526512829121199700E-014, 310.6000000000000200 ) ) ;
#195 = CARTESIAN_POINT ( 'NONE',  ( 4.996003610813200500E-016, 2.442490654175340100E-015, 3.740248759325449900 ) ) ;
#196 = CARTESIAN_POINT ( 'NONE',  ( 4.510281037539699700E-014, -4.286552047711072800, 4.088724586801138400 ) ) ;
#197 = APPROVAL_PERSON_ORGANIZATION ( #78, #216, #115 ) ;
#198 = EDGE_LOOP ( 'NONE', ( #89, #274, #16 ) ) ;
#199 = CARTESIAN_POINT ( 'NONE',  ( 4.996003610813200500E-016, 2.442490654175340100E-015, 0.2597512406745530200 ) ) ;
#200 = EDGE_CURVE ( 'NONE', #146, #23, #122, .T. ) ;
#201 = DIRECTION ( 'NONE',  ( 1.000000000000000000, 8.881784197001252300E-016, 0.0000000000000000000 ) ) ;
#202 = CARTESIAN_POINT ( 'NONE',  ( -2.842170943040400100E-014, 12.85231347602069200, 0.2660217792546104600 ) ) ;
#203 = EDGE_LOOP ( 'NONE', ( #48, #256, #252 ) ) ;
#204 = CARTESIAN_POINT ( 'NONE',  ( -4.261438382446270300, -4.286552047711071900, 4.088724586801113500 ) ) ;
#205 = PRODUCT_DEFINITION_FORMATION_WITH_SPECIFIED_SOURCE ( 'ANY', '', #81, .NOT_KNOWN. ) ;
#206 = CARTESIAN_POINT ( 'NONE',  ( -2.842170943040401400E-014, 4.286552047711152700, 4.088724586801165000 ) ) ;
#207 = CALENDAR_DATE ( 2019, 10, 1 ) ;
#208 =( LENGTH_UNIT ( ) NAMED_UNIT ( * ) SI_UNIT ( .MILLI., .METRE. ) );
#209 = SECURITY_CLASSIFICATION_LEVEL ( 'unclassified' ) ;
#210 = EDGE_LOOP ( 'NONE', ( #156, #127, #221 ) ) ;
#211 = PERSON_AND_ORGANIZATION_ROLE ( 'creator' ) ;
#212 = COORDINATED_UNIVERSAL_TIME_OFFSET ( 2, 0, .AHEAD. ) ;
#213 = ORIENTED_EDGE ( 'NONE', *, *, #132, .T. ) ;
#214 = LOCAL_TIME ( 9, 19, 15.00000000000000000, #137 ) ;
#215 = ORIENTED_EDGE ( 'NONE', *, *, #189, .T. ) ;
#216 = APPROVAL ( #45, 'UNSPECIFIED' ) ;
#217 = DIRECTION ( 'NONE',  ( 0.0000000000000000000, 0.0000000000000000000, 1.000000000000000000 ) ) ;
#218 = CARTESIAN_POINT ( 'NONE',  ( -2.842170943040400100E-014, -12.69999999999955900, 3.740248759325443700 ) ) ;
#219 = CARTESIAN_POINT ( 'NONE',  ( 4.510281037539699700E-014, 4.286552047711152700, 4.088724586801189000 ) ) ;
#220 = CARTESIAN_POINT ( 'NONE',  ( 8.512244554079476400, -12.85231347602061500, 0.3535848045182885000 ) ) ;
#221 = ORIENTED_EDGE ( 'NONE', *, *, #200, .T. ) ;
#222 = CARTESIAN_POINT ( 'NONE',  ( -8.512244554079625700, -12.85231347602061500, 0.3535848045182677400 ) ) ;
#223 = CC_DESIGN_PERSON_AND_ORGANIZATION_ASSIGNMENT ( #285, #44, ( #205 ) ) ;
#224 = DESIGN_CONTEXT ( 'detailed design', #43, 'design' ) ;
#225 = DIRECTION ( 'NONE',  ( -0.0000000000000000000, -0.0000000000000000000, -1.000000000000000000 ) ) ;
#226 = DIRECTION ( 'NONE',  ( 1.000000000000000000, 0.0000000000000000000, 0.0000000000000000000 ) ) ;
#227 = LINE ( 'NONE', #124, #248 ) ;
#228 = CARTESIAN_POINT ( 'NONE',  ( -4.261438382446271200, 4.286552047711153600, 4.088724586801164100 ) ) ;
#229 = CIRCLE ( 'NONE', #106, 310.5999999999999700 ) ;
#230 = EDGE_LOOP ( 'NONE', ( #162, #85, #72 ) ) ;
#231 = APPROVAL_STATUS ( 'not_yet_approved' ) ;
#232 = SECURITY_CLASSIFICATION ( '', '', #209 ) ;
#233 = COORDINATED_UNIVERSAL_TIME_OFFSET ( 2, 0, .AHEAD. ) ;
#234 = UNCERTAINTY_MEASURE_WITH_UNIT (LENGTH_MEASURE( 1.000000000000000100E-005 ), #208, 'distance_accuracy_value', 'NONE');
#235 = AXIS2_PLACEMENT_3D ( 'NONE', #84, #247, #130 ) ;
#236 = PERSON_AND_ORGANIZATION ( #37, #29 ) ;
#237 = ORIENTED_EDGE ( 'NONE', *, *, #83, .F. ) ;
#238 = DIRECTION ( 'NONE',  ( 0.0000000000000000000, -1.000000000000000000, 7.148892624759540400E-016 ) ) ;
#239 = COORDINATED_UNIVERSAL_TIME_OFFSET ( 2, 0, .AHEAD. ) ;
#240 = LINE ( 'NONE', #77, #2 ) ;
#241 = DIRECTION ( 'NONE',  ( 1.000000000000000000, -8.881784197001252300E-016, 0.0000000000000000000 ) ) ;
#242 = CC_DESIGN_APPROVAL ( #216, ( #205 ) ) ;
#243 = CARTESIAN_POINT ( 'NONE',  ( 8.521974999452718100, -4.286552047711075500, -0.001061467228794644000 ) ) ;
#244 = COORDINATED_UNIVERSAL_TIME_OFFSET ( 2, 0, .AHEAD. ) ;
#245 = EDGE_CURVE ( 'NONE', #118, #105, #186, .T. ) ;
#246 = CARTESIAN_POINT ( 'NONE',  ( 4.261438382446232100, 4.286552047711151800, -0.08872458680116054900 ) ) ;
#247 = DIRECTION ( 'NONE',  ( -0.0000000000000000000, -0.0000000000000000000, -1.000000000000000000 ) ) ;
#248 = VECTOR ( 'NONE', #265, 1000.000000000000000 ) ;
#249 = DIRECTION ( 'NONE',  ( 1.000000000000000000, 8.881784197001252300E-016, 0.0000000000000000000 ) ) ;
#250 = CARTESIAN_POINT ( 'NONE',  ( -12.77980670178624600, 4.286552047711150900, 0.1742276710289331600 ) ) ;
#251 = CARTESIAN_POINT ( 'NONE',  ( -12.77980670178608800, 4.286552047711152700, 3.825772328971051000 ) ) ;
#252 = ORIENTED_EDGE ( 'NONE', *, *, #83, .T. ) ;
#253 = CARTESIAN_POINT ( 'NONE',  ( -4.256572644938986900, 12.85231347602069400, 0.2660217792545860300 ) ) ;
#254 = PERSON_AND_ORGANIZATION_ROLE ( 'creator' ) ;
#255 = APPROVAL ( #188, 'UNSPECIFIED' ) ;
#256 = ORIENTED_EDGE ( 'NONE', *, *, #50, .T. ) ;
#257 = PERSON_AND_ORGANIZATION ( #37, #29 ) ;
#258 = PERSON_AND_ORGANIZATION ( #37, #29 ) ;
#259 = ORIENTED_EDGE ( 'NONE', *, *, #70, .F. ) ;
#260 = ADVANCED_FACE ( 'NONE', ( #117 ), #262, .T. ) ;
#261 = CARTESIAN_POINT ( 'NONE',  ( -2.842170943040400100E-014, 1.136868377216160000E-013, -306.6000000000000200 ) ) ;
#262 =( BOUNDED_SURFACE ( )  B_SPLINE_SURFACE ( 3, 3, ( 
 ( #68, #270, #275, #39 ),
 ( #36, #204, #157, #135 ),
 ( #206, #228, #107, #251 ),
 ( #17, #108, #38, #60 ) ),
 .UNSPECIFIED., .F., .F., .F. ) 
 B_SPLINE_SURFACE_WITH_KNOTS ( ( 4, 4 ),
 ( 4, 4 ),
 ( 0.0000000000000000000, 1.000000000000000000 ),
 ( 0.0000000000000000000, 1.000000000000000000 ),
 .UNSPECIFIED. ) 
 GEOMETRIC_REPRESENTATION_ITEM ( )  RATIONAL_B_SPLINE_SURFACE ( (
 ( 1.000000000000000000, 0.9998589262812464000, 0.9998589262812464000, 1.000000000000000000),
 ( 0.9994290152838494200, 0.9992880221160330700, 0.9992880221160330700, 0.9994290152838494200),
 ( 0.9994290152838494200, 0.9992880221160330700, 0.9992880221160330700, 0.9994290152838494200),
 ( 1.000000000000000000, 0.9998589262812464000, 0.9998589262812464000, 1.000000000000000000) ) ) 
 REPRESENTATION_ITEM ( '' )  SURFACE ( )  );
#263 = EDGE_LOOP ( 'NONE', ( #259, #142, #190, #75, #213, #163 ) ) ;
#264 = ADVANCED_FACE ( 'NONE', ( #22 ), #103, .T. ) ;
#265 = DIRECTION ( 'NONE',  ( 0.0000000000000000000, 0.0000000000000000000, 1.000000000000000000 ) ) ;
#266 = CIRCLE ( 'NONE', #63, 12.69999999999999900 ) ;
#267 = CARTESIAN_POINT ( 'NONE',  ( 12.77980670178618700, -4.286552047711072800, 3.825772328971018200 ) ) ;
#268 = CARTESIAN_POINT ( 'NONE',  ( 12.77980670178608800, 4.286552047711150900, 0.1742276710289522900 ) ) ;
#269 = DIRECTION ( 'NONE',  ( -0.0000000000000000000, -0.0000000000000000000, -1.000000000000000000 ) ) ;
#270 = CARTESIAN_POINT ( 'NONE',  ( -4.256572644938886500, -12.85231347602061200, 3.733978220745337100 ) ) ;
#271 = CARTESIAN_POINT ( 'NONE',  ( -4.261438382446373300, 4.286552047711151800, -0.08872458680118500100 ) ) ;
#272 = LOCAL_TIME ( 9, 19, 15.00000000000000000, #239 ) ;
#273 = DATE_AND_TIME ( #94, #67 ) ;
#274 = ORIENTED_EDGE ( 'NONE', *, *, #132, .F. ) ;
#275 = CARTESIAN_POINT ( 'NONE',  ( -8.512244554079496000, -12.85231347602061200, 3.646415195481713200 ) ) ;
#276 = AXIS2_PLACEMENT_3D ( 'NONE', #133, #62, #226 ) ;
#277 = VERTEX_POINT ( 'NONE', #64 ) ;
#278 = APPLICATION_PROTOCOL_DEFINITION ( 'international standard', 'config_control_design', 1994, #293 ) ;
#279 = APPROVAL_ROLE ( '' ) ;
#280 = EDGE_CURVE ( 'NONE', #34, #116, #4, .T. ) ;
#281 = CARTESIAN_POINT ( 'NONE',  ( 4.996003610813200500E-016, 2.442490654175340100E-015, 0.2597512406745530200 ) ) ;
#282 = ADVANCED_BREP_SHAPE_REPRESENTATION ( '111-0229E BK7 bi-cx 25.4 F300', ( #100, #47 ), #182 ) ;
#283 = CARTESIAN_POINT ( 'NONE',  ( 4.261438382446318200, 4.286552047711153600, 4.088724586801189900 ) ) ;
#284 = CARTESIAN_POINT ( 'NONE',  ( -1.023486850826316200E-013, -12.85231347602061400, 0.2660217792546407100 ) ) ;
#285 = PERSON_AND_ORGANIZATION ( #37, #29 ) ;
#286 = CARTESIAN_POINT ( 'NONE',  ( 4.256572644938848300, 12.85231347602069400, 0.2660217792546104600 ) ) ;
#287 = CARTESIAN_POINT ( 'NONE',  ( -4.256572644938987800, -12.85231347602061500, 0.2660217792546417100 ) ) ;
#288 = CARTESIAN_POINT ( 'NONE',  ( 4.256572644938931800, 12.85231347602069500, 3.733978220745417500 ) ) ;
#289 = CARTESIAN_POINT ( 'NONE',  ( 4.996003610813200500E-016, 2.442490654175340100E-015, 3.740248759325449900 ) ) ;
#290 = CIRCLE ( 'NONE', #235, 12.69999999999999900 ) ;
#291 = CARTESIAN_POINT ( 'NONE',  ( 0.0000000000000000000, 0.0000000000000000000, 0.0000000000000000000 ) ) ;
#292 =( BOUNDED_SURFACE ( )  B_SPLINE_SURFACE ( 3, 3, ( 
 ( #59, #151, #82, #13 ),
 ( #267, #55, #131, #196 ),
 ( #173, #31, #283, #219 ),
 ( #101, #33, #288, #57 ) ),
 .UNSPECIFIED., .F., .F., .F. ) 
 B_SPLINE_SURFACE_WITH_KNOTS ( ( 4, 4 ),
 ( 4, 4 ),
 ( 0.0000000000000000000, 1.000000000000000000 ),
 ( 0.0000000000000000000, 1.000000000000000000 ),
 .UNSPECIFIED. ) 
 GEOMETRIC_REPRESENTATION_ITEM ( )  RATIONAL_B_SPLINE_SURFACE ( (
 ( 1.000000000000000000, 0.9998589262812464000, 0.9998589262812464000, 1.000000000000000000),
 ( 0.9994290152838494200, 0.9992880221160330700, 0.9992880221160330700, 0.9994290152838494200),
 ( 0.9994290152838494200, 0.9992880221160330700, 0.9992880221160330700, 0.9994290152838494200),
 ( 1.000000000000000000, 0.9998589262812464000, 0.9998589262812464000, 1.000000000000000000) ) ) 
 REPRESENTATION_ITEM ( '' )  SURFACE ( )  );
#293 = APPLICATION_CONTEXT ( 'configuration controlled 3d designs of mechanical parts and assemblies' ) ;
#294 = APPROVAL_DATE_TIME ( #110, #216 ) ;
#295 = MECHANICAL_CONTEXT ( 'NONE', #293, 'mechanical' ) ;
ENDSEC;
END-ISO-10303-21;
