ISO-10303-21;
HEADER;
FILE_DESCRIPTION (( 'STEP AP203' ),
    '1' );
FILE_NAME ('111-0228E BK7 bi-cx 25.4 F250.STEP',
    '2019-01-10T07:07:52',
    ( '' ),
    ( '' ),
    'SwSTEP 2.0',
    'SolidWorks 2017',
    '' );
FILE_SCHEMA (( 'CONFIG_CONTROL_DESIGN' ));
ENDSEC;

DATA;
#1 = VECTOR ( 'NONE', #117, 1000.000000000000000 ) ;
#2 = ORIENTED_EDGE ( 'NONE', *, *, #64, .F. ) ;
#3 = CC_DESIGN_APPROVAL ( #266, ( #225 ) ) ;
#4 = PRODUCT_RELATED_PRODUCT_CATEGORY ( 'detail', '', ( #263 ) ) ;
#5 = EDGE_LOOP ( 'NONE', ( #17, #292, #13 ) ) ;
#6 = ADVANCED_FACE ( 'NONE', ( #267 ), #183, .T. ) ;
#7 = CALENDAR_DATE ( 2019, 10, 1 ) ;
#8 = ORIENTED_EDGE ( 'NONE', *, *, #222, .T. ) ;
#9 = ORIENTED_EDGE ( 'NONE', *, *, #145, .F. ) ;
#10 = CARTESIAN_POINT ( 'NONE',  ( -8.523968260005929700, -4.287621388053049800, 4.001281613869007700 ) ) ;
#11 = PERSON ( 'UNSPECIFIED', 'UNSPECIFIED', 'UNSPECIFIED', ('UNSPECIFIED'), ('UNSPECIFIED'), ('UNSPECIFIED') ) ;
#12 = DIRECTION ( 'NONE',  ( 1.000000000000000000, 0.0000000000000000000, 0.0000000000000000000 ) ) ;
#13 = ORIENTED_EDGE ( 'NONE', *, *, #179, .T. ) ;
#14 = CARTESIAN_POINT ( 'NONE',  ( 8.509937004315451900, -12.85227524023224700, 3.575434905027819800 ) ) ;
#15 = CARTESIAN_POINT ( 'NONE',  ( -12.76036188031461500, 12.85227524023229200, 3.365267298473809500 ) ) ;
#16 = AXIS2_PLACEMENT_3D ( 'NONE', #153, #102, #242 ) ;
#17 = ORIENTED_EDGE ( 'NONE', *, *, #232, .T. ) ;
#18 = PERSON_AND_ORGANIZATION_ROLE ( 'design_supplier' ) ;
#19 = CARTESIAN_POINT ( 'NONE',  ( 2.842170943040400100E-014, 12.85227524023229300, 0.3194492204389720600 ) ) ;
#20 = CARTESIAN_POINT ( 'NONE',  ( 12.76036188031461500, 12.85227524023229300, 0.6347327015261941000 ) ) ;
#21 = APPROVAL_DATE_TIME ( #154, #266 ) ;
#22 = SECURITY_CLASSIFICATION_LEVEL ( 'unclassified' ) ;
#23 = CIRCLE ( 'NONE', #273, 12.69999999999999900 ) ;
#24 = CC_DESIGN_PERSON_AND_ORGANIZATION_ASSIGNMENT ( #279, #18, ( #79 ) ) ;
#25 = DATE_AND_TIME ( #236, #119 ) ;
#26 =( BOUNDED_SURFACE ( )  B_SPLINE_SURFACE ( 3, 3, ( 
 ( #48, #14, #265, #124 ),
 ( #186, #50, #165, #33 ),
 ( #219, #114, #234, #191 ),
 ( #216, #190, #285, #213 ) ),
 .UNSPECIFIED., .F., .F., .F. ) 
 B_SPLINE_SURFACE_WITH_KNOTS ( ( 4, 4 ),
 ( 4, 4 ),
 ( 0.0000000000000000000, 1.000000000000000000 ),
 ( 0.0000000000000000000, 1.000000000000000000 ),
 .UNSPECIFIED. ) 
 GEOMETRIC_REPRESENTATION_ITEM ( )  RATIONAL_B_SPLINE_SURFACE ( (
 ( 1.000000000000000000, 0.9997965974447550200, 0.9997965974447550200, 1.000000000000000000),
 ( 0.9991767833515293700, 0.9989735482406542100, 0.9989735482406542100, 0.9991767833515293700),
 ( 0.9991767833515293700, 0.9989735482406542100, 0.9989735482406542100, 0.9991767833515293700),
 ( 1.000000000000000000, 0.9997965974447550200, 0.9997965974447550200, 1.000000000000000000) ) ) 
 REPRESENTATION_ITEM ( '' )  SURFACE ( )  );
#27 = EDGE_LOOP ( 'NONE', ( #47, #61, #8, #69, #29, #55 ) ) ;
#28 = APPROVAL_PERSON_ORGANIZATION ( #151, #266, #224 ) ;
#29 = ORIENTED_EDGE ( 'NONE', *, *, #127, .F. ) ;
#30 = CARTESIAN_POINT ( 'NONE',  ( 4.996003610813200500E-016, 2.442490654175340100E-015, 3.688080220431220600 ) ) ;
#31 = CARTESIAN_POINT ( 'NONE',  ( -12.76036188031468100, -12.85227524023224500, 0.6347327015261972100 ) ) ;
#32 = CARTESIAN_POINT ( 'NONE',  ( -8.509937004315451900, -12.85227524023224500, 0.4245650949721837000 ) ) ;
#33 = CARTESIAN_POINT ( 'NONE',  ( 3.469446951953613600E-014, -4.287621388053049800, 4.106570804340065300 ) ) ;
#34 = DIRECTION ( 'NONE',  ( -0.0000000000000000000, -0.0000000000000000000, -1.000000000000000000 ) ) ;
#35 = CARTESIAN_POINT ( 'NONE',  ( -4.255617704794191900, 12.85227524023229300, 3.680550779561031500 ) ) ;
#36 = EDGE_CURVE ( 'NONE', #168, #158, #23, .T. ) ;
#37 = CIRCLE ( 'NONE', #155, 12.69999999999999900 ) ;
#38 = CARTESIAN_POINT ( 'NONE',  ( 4.255617704794191900, -12.85227524023224500, 0.3194492204389720000 ) ) ;
#39 = CALENDAR_DATE ( 2019, 10, 1 ) ;
#40 = PRODUCT_DEFINITION ( 'UNKNOWN', '', #79, #202 ) ;
#41 = CARTESIAN_POINT ( 'NONE',  ( 8.509937004315403900, 12.85227524023229300, 0.4245650949721835300 ) ) ;
#42 = ORIENTED_EDGE ( 'NONE', *, *, #226, .F. ) ;
#43 = CC_DESIGN_DATE_AND_TIME_ASSIGNMENT ( #161, #78, ( #40 ) ) ;
#44 = PERSON_AND_ORGANIZATION ( #11, #160 ) ;
#45 = CARTESIAN_POINT ( 'NONE',  ( -2.842170943040400100E-014, 12.70000000000018800, 3.688080220431215700 ) ) ;
#46 = CARTESIAN_POINT ( 'NONE',  ( 4.996003610813200500E-016, 2.442490654175340100E-015, 0.3119197795687770300 ) ) ;
#47 = ORIENTED_EDGE ( 'NONE', *, *, #85, .F. ) ;
#48 = CARTESIAN_POINT ( 'NONE',  ( 12.76036188031468100, -12.85227524023224700, 3.365267298473806300 ) ) ;
#49 = DIRECTION ( 'NONE',  ( 1.000000000000000000, 0.0000000000000000000, 0.0000000000000000000 ) ) ;
#50 = CARTESIAN_POINT ( 'NONE',  ( 8.523968260005974100, -4.287621388053049800, 4.001281613869007700 ) ) ;
#51 = DIRECTION ( 'NONE',  ( 1.000000000000000000, 0.0000000000000000000, 0.0000000000000000000 ) ) ;
#52 = ORIENTED_EDGE ( 'NONE', *, *, #278, .F. ) ;
#53 = CC_DESIGN_PERSON_AND_ORGANIZATION_ASSIGNMENT ( #132, #57, ( #225 ) ) ;
#54 = CARTESIAN_POINT ( 'NONE',  ( 4.262634403050220100, 4.287621388053096900, -0.1065708043400364800 ) ) ;
#55 = ORIENTED_EDGE ( 'NONE', *, *, #179, .F. ) ;
#56 = CARTESIAN_POINT ( 'NONE',  ( 8.523968260005931400, 4.287621388053096900, -0.001281613869003077900 ) ) ;
#57 = PERSON_AND_ORGANIZATION_ROLE ( 'classification_officer' ) ;
#58 = DATE_AND_TIME ( #7, #274 ) ;
#59 = EDGE_LOOP ( 'NONE', ( #177, #120, #2 ) ) ;
#60 = ORIENTED_EDGE ( 'NONE', *, *, #222, .F. ) ;
#61 = ORIENTED_EDGE ( 'NONE', *, *, #226, .T. ) ;
#62 = CARTESIAN_POINT ( 'NONE',  ( -4.262634403050246800, 4.287621388053096900, -0.1065708043400593500 ) ) ;
#63 = VERTEX_POINT ( 'NONE', #45 ) ;
#64 = EDGE_CURVE ( 'NONE', #63, #168, #162, .T. ) ;
#65 = CARTESIAN_POINT ( 'NONE',  ( 4.996003610813200500E-016, 2.442490654175340100E-015, 3.688080220431220600 ) ) ;
#66 =( BOUNDED_SURFACE ( )  B_SPLINE_SURFACE ( 3, 3, ( 
 ( #129, #38, #291, #172 ),
 ( #77, #269, #245, #126 ),
 ( #81, #54, #56, #194 ),
 ( #19, #195, #41, #20 ) ),
 .UNSPECIFIED., .F., .F., .F. ) 
 B_SPLINE_SURFACE_WITH_KNOTS ( ( 4, 4 ),
 ( 4, 4 ),
 ( 0.0000000000000000000, 1.000000000000000000 ),
 ( 0.0000000000000000000, 1.000000000000000000 ),
 .UNSPECIFIED. ) 
 GEOMETRIC_REPRESENTATION_ITEM ( )  RATIONAL_B_SPLINE_SURFACE ( (
 ( 1.000000000000000000, 0.9997965974447550200, 0.9997965974447550200, 1.000000000000000000),
 ( 0.9991767833515293700, 0.9989735482406542100, 0.9989735482406542100, 0.9991767833515293700),
 ( 0.9991767833515293700, 0.9989735482406542100, 0.9989735482406542100, 0.9991767833515293700),
 ( 1.000000000000000000, 0.9997965974447550200, 0.9997965974447550200, 1.000000000000000000) ) ) 
 REPRESENTATION_ITEM ( '' )  SURFACE ( )  );
#67 = COORDINATED_UNIVERSAL_TIME_OFFSET ( 2, 0, .AHEAD. ) ;
#68 = CARTESIAN_POINT ( 'NONE',  ( 4.996003610813200500E-016, 2.442490654175340100E-015, 0.3119197795687770300 ) ) ;
#69 = ORIENTED_EDGE ( 'NONE', *, *, #64, .T. ) ;
#70 = DIRECTION ( 'NONE',  ( 1.000000000000000000, 0.0000000000000000000, 0.0000000000000000000 ) ) ;
#71 = DIRECTION ( 'NONE',  ( 1.000000000000000000, 0.0000000000000000000, 0.0000000000000000000 ) ) ;
#72 = AXIS2_PLACEMENT_3D ( 'NONE', #293, #171, #220 ) ;
#73 = DIRECTION ( 'NONE',  ( 1.000000000000000000, 8.881784197001252300E-016, 0.0000000000000000000 ) ) ;
#74 =( NAMED_UNIT ( * ) SI_UNIT ( $, .STERADIAN. ) SOLID_ANGLE_UNIT ( ) );
#75 = APPROVAL_PERSON_ORGANIZATION ( #211, #130, #196 ) ;
#76 = APPLICATION_PROTOCOL_DEFINITION ( 'international standard', 'config_control_design', 1994, #241 ) ;
#77 = CARTESIAN_POINT ( 'NONE',  ( 2.842170943040399500E-014, -4.287621388053048000, -0.1065708043400377800 ) ) ;
#78 = DATE_TIME_ROLE ( 'creation_date' ) ;
#79 = PRODUCT_DEFINITION_FORMATION_WITH_SPECIFIED_SOURCE ( 'ANY', '', #263, .NOT_KNOWN. ) ;
#80 = APPROVAL_DATE_TIME ( #259, #289 ) ;
#81 = CARTESIAN_POINT ( 'NONE',  ( 2.842170943040399500E-014, 4.287621388053096900, -0.1065708043400364800 ) ) ;
#82 = UNCERTAINTY_MEASURE_WITH_UNIT (LENGTH_MEASURE( 1.000000000000000100E-005 ), #221, 'distance_accuracy_value', 'NONE');
#83 = LOCAL_TIME ( 9, 7, 52.00000000000000000, #253 ) ;
#84 = FACE_OUTER_BOUND ( 'NONE', #59, .T. ) ;
#85 = EDGE_CURVE ( 'NONE', #135, #143, #139, .T. ) ;
#86 = CIRCLE ( 'NONE', #16, 12.69999999999999900 ) ;
#87 = AXIS2_PLACEMENT_3D ( 'NONE', #192, #71, #264 ) ;
#88 = MANIFOLD_SOLID_BREP ( 'Imported1', #89 ) ;
#89 = CLOSED_SHELL ( 'NONE', ( #276, #248, #200, #6, #141, #204 ) ) ;
#90 = CARTESIAN_POINT ( 'NONE',  ( -3.469446951953613600E-014, 4.287621388053096900, -0.1065708043400603600 ) ) ;
#91 = DIRECTION ( 'NONE',  ( 0.0000000000000000000, -1.000000000000000000, 6.437319431533571400E-016 ) ) ;
#92 = DIRECTION ( 'NONE',  ( -0.0000000000000000000, -0.0000000000000000000, -1.000000000000000000 ) ) ;
#93 = COORDINATED_UNIVERSAL_TIME_OFFSET ( 2, 0, .AHEAD. ) ;
#94 =( GEOMETRIC_REPRESENTATION_CONTEXT ( 3 ) GLOBAL_UNCERTAINTY_ASSIGNED_CONTEXT ( ( #82 ) ) GLOBAL_UNIT_ASSIGNED_CONTEXT ( ( #221, #156, #74 ) ) REPRESENTATION_CONTEXT ( 'NONE', 'WORKASPACE' ) );
#95 = CARTESIAN_POINT ( 'NONE',  ( 4.996003610813200500E-016, 2.442490654175340100E-015, 0.3119197795687770300 ) ) ;
#96 = CARTESIAN_POINT ( 'NONE',  ( -2.842170943040400100E-014, -12.85227524023224700, 3.680550779561031500 ) ) ;
#97 = CARTESIAN_POINT ( 'NONE',  ( -12.69999999999999900, 3.997792089092478900E-015, 0.3119197795687770300 ) ) ;
#98 = ORIENTED_EDGE ( 'NONE', *, *, #127, .T. ) ;
#99 = CARTESIAN_POINT ( 'NONE',  ( -8.509937004315403900, -12.85227524023224700, 3.575434905027819800 ) ) ;
#100 = APPROVAL_STATUS ( 'not_yet_approved' ) ;
#101 = AXIS2_PLACEMENT_3D ( 'NONE', #148, #237, #49 ) ;
#102 = DIRECTION ( 'NONE',  ( -0.0000000000000000000, -0.0000000000000000000, -1.000000000000000000 ) ) ;
#103 = LINE ( 'NONE', #97, #1 ) ;
#104 = APPROVAL_STATUS ( 'not_yet_approved' ) ;
#105 = LOCAL_TIME ( 9, 7, 52.00000000000000000, #93 ) ;
#106 = EDGE_LOOP ( 'NONE', ( #52, #208, #60 ) ) ;
#107 = EDGE_CURVE ( 'NONE', #158, #63, #180, .T. ) ;
#108 = EDGE_LOOP ( 'NONE', ( #42, #9, #181, #98, #173, #251 ) ) ;
#109 = PRODUCT_DEFINITION_SHAPE ( 'NONE', 'NONE',  #40 ) ;
#110 = CARTESIAN_POINT ( 'NONE',  ( -4.255617704794218500, 12.85227524023229300, 0.3194492204389490800 ) ) ;
#111 = ORIENTED_EDGE ( 'NONE', *, *, #205, .F. ) ;
#112 = CARTESIAN_POINT ( 'NONE',  ( -3.469446951953613600E-014, -4.287621388053048000, -0.1065708043400616100 ) ) ;
#113 = CARTESIAN_POINT ( 'NONE',  ( 12.69999999999999900, 2.442490654175340100E-015, 0.3119197795687770300 ) ) ;
#114 = CARTESIAN_POINT ( 'NONE',  ( 8.523968260005974100, 4.287621388053095100, 4.001281613869006800 ) ) ;
#115 = AXIS2_PLACEMENT_3D ( 'NONE', #210, #212, #91 ) ;
#116 = DIRECTION ( 'NONE',  ( -0.0000000000000000000, -0.0000000000000000000, -1.000000000000000000 ) ) ;
#117 = DIRECTION ( 'NONE',  ( 0.0000000000000000000, 0.0000000000000000000, 1.000000000000000000 ) ) ;
#118 = CARTESIAN_POINT ( 'NONE',  ( -12.76036188031461400, -12.85227524023224700, 3.365267298473809500 ) ) ;
#119 = LOCAL_TIME ( 9, 7, 52.00000000000000000, #67 ) ;
#120 = ORIENTED_EDGE ( 'NONE', *, *, #36, .F. ) ;
#121 = DIRECTION ( 'NONE',  ( 0.0000000000000000000, 0.0000000000000000000, 1.000000000000000000 ) ) ;
#122 = CARTESIAN_POINT ( 'NONE',  ( -4.255617704794191900, -12.85227524023224700, 3.680550779561031500 ) ) ;
#123 = AXIS2_PLACEMENT_3D ( 'NONE', #170, #92, #12 ) ;
#124 = CARTESIAN_POINT ( 'NONE',  ( 3.469446951953614200E-014, -12.85227524023224700, 3.680550779561055500 ) ) ;
#125 = EDGE_LOOP ( 'NONE', ( #111, #254, #188 ) ) ;
#126 = CARTESIAN_POINT ( 'NONE',  ( 12.78140127228138200, -4.287621388053048000, 0.2092325188019361600 ) ) ;
#127 = EDGE_CURVE ( 'NONE', #247, #168, #218, .T. ) ;
#128 = PERSON_AND_ORGANIZATION_ROLE ( 'design_owner' ) ;
#129 = CARTESIAN_POINT ( 'NONE',  ( 2.842170943040400100E-014, -12.85227524023224500, 0.3194492204389720600 ) ) ;
#130 = APPROVAL ( #175, 'UNSPECIFIED' ) ;
#131 = DATE_TIME_ROLE ( 'classification_date' ) ;
#132 = PERSON_AND_ORGANIZATION ( #11, #160 ) ;
#133 = FACE_OUTER_BOUND ( 'NONE', #108, .T. ) ;
#134 = FACE_OUTER_BOUND ( 'NONE', #5, .T. ) ;
#135 = VERTEX_POINT ( 'NONE', #182 ) ;
#136 = ADVANCED_BREP_SHAPE_REPRESENTATION ( '111-0228E BK7 bi-cx 25.4 F250', ( #88, #72 ), #94 ) ;
#137 = AXIS2_PLACEMENT_3D ( 'NONE', #68, #260, #51 ) ;
#138 = LOCAL_TIME ( 9, 7, 52.00000000000000000, #227 ) ;
#139 = CIRCLE ( 'NONE', #295, 12.69999999999999900 ) ;
#140 = AXIS2_PLACEMENT_3D ( 'NONE', #65, #235, #73 ) ;
#141 = ADVANCED_FACE ( 'NONE', ( #133 ), #152, .T. ) ;
#142 = APPROVAL_PERSON_ORGANIZATION ( #201, #289, #294 ) ;
#143 = VERTEX_POINT ( 'NONE', #166 ) ;
#144 = CARTESIAN_POINT ( 'NONE',  ( -8.523968260005974100, 4.287621388053096900, -0.001281613869002861000 ) ) ;
#145 = EDGE_CURVE ( 'NONE', #238, #135, #280, .T. ) ;
#146 = DIRECTION ( 'NONE',  ( 0.0000000000000000000, 0.0000000000000000000, 1.000000000000000000 ) ) ;
#147 = DIRECTION ( 'NONE',  ( 1.000000000000000000, -8.881784197001252300E-016, 0.0000000000000000000 ) ) ;
#148 = CARTESIAN_POINT ( 'NONE',  ( 4.996003610813200500E-016, 2.442490654175340100E-015, 0.3119197795687770300 ) ) ;
#149 = CARTESIAN_POINT ( 'NONE',  ( -12.78140127228138000, -4.287621388053049800, 3.790767481198066100 ) ) ;
#150 = CARTESIAN_POINT ( 'NONE',  ( -2.842170943040400100E-014, 12.85227524023229200, 3.680550779561031500 ) ) ;
#151 = PERSON_AND_ORGANIZATION ( #11, #160 ) ;
#152 = CYLINDRICAL_SURFACE ( 'NONE', #197, 12.69999999999999900 ) ;
#153 = CARTESIAN_POINT ( 'NONE',  ( 4.996003610813200500E-016, 2.442490654175340100E-015, 3.688080220431220600 ) ) ;
#154 = DATE_AND_TIME ( #217, #83 ) ;
#155 = AXIS2_PLACEMENT_3D ( 'NONE', #95, #34, #189 ) ;
#156 =( NAMED_UNIT ( * ) PLANE_ANGLE_UNIT ( ) SI_UNIT ( $, .RADIAN. ) );
#157 = CALENDAR_DATE ( 2019, 10, 1 ) ;
#158 = VERTEX_POINT ( 'NONE', #214 ) ;
#159 = AXIS2_PLACEMENT_3D ( 'NONE', #184, #116, #147 ) ;
#160 = ORGANIZATION ( 'UNSPECIFIED', 'UNSPECIFIED', '' ) ;
#161 = DATE_AND_TIME ( #39, #138 ) ;
#162 = CIRCLE ( 'NONE', #159, 12.69999999999999900 ) ;
#163 = DIRECTION ( 'NONE',  ( -0.0000000000000000000, -0.0000000000000000000, -1.000000000000000000 ) ) ;
#164 = VECTOR ( 'NONE', #146, 1000.000000000000000 ) ;
#165 = CARTESIAN_POINT ( 'NONE',  ( 4.262634403050246800, -4.287621388053049800, 4.106570804340064400 ) ) ;
#166 = CARTESIAN_POINT ( 'NONE',  ( 2.842170943040400100E-014, 12.70000000000018800, 0.3119197795687846400 ) ) ;
#167 = CARTESIAN_POINT ( 'NONE',  ( -12.78140127228138000, 4.287621388053095100, 3.790767481198065200 ) ) ;
#168 = VERTEX_POINT ( 'NONE', #262 ) ;
#169 = CC_DESIGN_APPROVAL ( #289, ( #40 ) ) ;
#170 = CARTESIAN_POINT ( 'NONE',  ( 4.996003610813200500E-016, 2.442490654175340100E-015, 0.3119197795687770300 ) ) ;
#171 = DIRECTION ( 'NONE',  ( 0.0000000000000000000, 0.0000000000000000000, 1.000000000000000000 ) ) ;
#172 = CARTESIAN_POINT ( 'NONE',  ( 12.76036188031461400, -12.85227524023224500, 0.6347327015261941000 ) ) ;
#173 = ORIENTED_EDGE ( 'NONE', *, *, #36, .T. ) ;
#174 = APPLICATION_PROTOCOL_DEFINITION ( 'international standard', 'config_control_design', 1994, #244 ) ;
#175 = APPROVAL_STATUS ( 'not_yet_approved' ) ;
#176 = CC_DESIGN_PERSON_AND_ORGANIZATION_ASSIGNMENT ( #44, #128, ( #263 ) ) ;
#177 = ORIENTED_EDGE ( 'NONE', *, *, #107, .F. ) ;
#178 = CC_DESIGN_SECURITY_CLASSIFICATION ( #225, ( #79 ) ) ;
#179 = EDGE_CURVE ( 'NONE', #143, #247, #37, .T. ) ;
#180 = CIRCLE ( 'NONE', #115, 258.6999999999999900 ) ;
#181 = ORIENTED_EDGE ( 'NONE', *, *, #232, .F. ) ;
#182 = CARTESIAN_POINT ( 'NONE',  ( -12.69999999999999900, 3.997792089092478900E-015, 0.3119197795687770300 ) ) ;
#183 =( BOUNDED_SURFACE ( )  B_SPLINE_SURFACE ( 3, 3, ( 
 ( #31, #32, #282, #255 ),
 ( #206, #256, #233, #112 ),
 ( #284, #144, #62, #90 ),
 ( #281, #286, #110, #283 ) ),
 .UNSPECIFIED., .F., .F., .T. ) 
 B_SPLINE_SURFACE_WITH_KNOTS ( ( 4, 4 ),
 ( 4, 4 ),
 ( 0.0000000000000000000, 1.000000000000000000 ),
 ( 0.0000000000000000000, 1.000000000000000000 ),
 .UNSPECIFIED. ) 
 GEOMETRIC_REPRESENTATION_ITEM ( )  RATIONAL_B_SPLINE_SURFACE ( (
 ( 1.000000000000000000, 0.9997965974447550200, 0.9997965974447550200, 1.000000000000000000),
 ( 0.9991767833515293700, 0.9989735482406542100, 0.9989735482406542100, 0.9991767833515293700),
 ( 0.9991767833515293700, 0.9989735482406542100, 0.9989735482406542100, 0.9991767833515293700),
 ( 1.000000000000000000, 0.9997965974447550200, 0.9997965974447550200, 1.000000000000000000) ) ) 
 REPRESENTATION_ITEM ( '' )  SURFACE ( )  );
#184 = CARTESIAN_POINT ( 'NONE',  ( 4.996003610813200500E-016, 2.442490654175340100E-015, 3.688080220431220600 ) ) ;
#185 = CARTESIAN_POINT ( 'NONE',  ( 4.996003610813200500E-016, 2.442490654175340100E-015, 0.3119197795687770300 ) ) ;
#186 = CARTESIAN_POINT ( 'NONE',  ( 12.78140127228144800, -4.287621388053049800, 3.790767481198063400 ) ) ;
#187 = CIRCLE ( 'NONE', #140, 12.69999999999999900 ) ;
#188 = ORIENTED_EDGE ( 'NONE', *, *, #85, .T. ) ;
#189 = DIRECTION ( 'NONE',  ( 1.000000000000000000, -1.776356839400250500E-015, 0.0000000000000000000 ) ) ;
#190 = CARTESIAN_POINT ( 'NONE',  ( 8.509937004315451900, 12.85227524023229300, 3.575434905027819800 ) ) ;
#191 = CARTESIAN_POINT ( 'NONE',  ( 3.469446951953613600E-014, 4.287621388053095100, 4.106570804340064400 ) ) ;
#192 = CARTESIAN_POINT ( 'NONE',  ( 2.842170943040400100E-014, 4.263256414560599900E-014, 258.6999999999999900 ) ) ;
#193 = SHAPE_DEFINITION_REPRESENTATION ( #109, #136 ) ;
#194 = CARTESIAN_POINT ( 'NONE',  ( 12.78140127228138200, 4.287621388053096900, 0.2092325188019374400 ) ) ;
#195 = CARTESIAN_POINT ( 'NONE',  ( 4.255617704794191900, 12.85227524023229300, 0.3194492204389720000 ) ) ;
#196 = APPROVAL_ROLE ( '' ) ;
#197 = AXIS2_PLACEMENT_3D ( 'NONE', #185, #121, #70 ) ;
#198 = PERSON_AND_ORGANIZATION ( #11, #160 ) ;
#199 = CC_DESIGN_PERSON_AND_ORGANIZATION_ASSIGNMENT ( #198, #268, ( #40 ) ) ;
#200 = ADVANCED_FACE ( 'NONE', ( #275 ), #271, .T. ) ;
#201 = PERSON_AND_ORGANIZATION ( #11, #160 ) ;
#202 = DESIGN_CONTEXT ( 'detailed design', #244, 'design' ) ;
#203 = CIRCLE ( 'NONE', #87, 258.6999999999999900 ) ;
#204 = ADVANCED_FACE ( 'NONE', ( #84 ), #26, .T. ) ;
#205 = EDGE_CURVE ( 'NONE', #238, #143, #203, .T. ) ;
#206 = CARTESIAN_POINT ( 'NONE',  ( -12.78140127228144800, -4.287621388053048000, 0.2092325188019394100 ) ) ;
#207 = APPROVAL_DATE_TIME ( #58, #130 ) ;
#208 = ORIENTED_EDGE ( 'NONE', *, *, #107, .T. ) ;
#209 = DIRECTION ( 'NONE',  ( -0.0000000000000000000, -0.0000000000000000000, -1.000000000000000000 ) ) ;
#210 = CARTESIAN_POINT ( 'NONE',  ( -2.842170943040400100E-014, 4.263256414560599900E-014, -254.6999999999999900 ) ) ;
#211 = PERSON_AND_ORGANIZATION ( #11, #160 ) ;
#212 = DIRECTION ( 'NONE',  ( -1.000000000000000000, 0.0000000000000000000, 0.0000000000000000000 ) ) ;
#213 = CARTESIAN_POINT ( 'NONE',  ( 3.469446951953614200E-014, 12.85227524023229200, 3.680550779561055500 ) ) ;
#214 = CARTESIAN_POINT ( 'NONE',  ( -2.842170943040400100E-014, -12.70000000000014100, 3.688080220431215700 ) ) ;
#215 = CARTESIAN_POINT ( 'NONE',  ( -8.509937004315403900, 12.85227524023229300, 3.575434905027819800 ) ) ;
#216 = CARTESIAN_POINT ( 'NONE',  ( 12.76036188031468100, 12.85227524023229200, 3.365267298473806300 ) ) ;
#217 = CALENDAR_DATE ( 2019, 10, 1 ) ;
#218 = LINE ( 'NONE', #113, #164 ) ;
#219 = CARTESIAN_POINT ( 'NONE',  ( 12.78140127228144800, 4.287621388053095100, 3.790767481198062100 ) ) ;
#220 = DIRECTION ( 'NONE',  ( 1.000000000000000000, 0.0000000000000000000, 0.0000000000000000000 ) ) ;
#221 =( LENGTH_UNIT ( ) NAMED_UNIT ( * ) SI_UNIT ( .MILLI., .METRE. ) );
#222 = EDGE_CURVE ( 'NONE', #229, #63, #187, .T. ) ;
#223 = FACE_OUTER_BOUND ( 'NONE', #106, .T. ) ;
#224 = APPROVAL_ROLE ( '' ) ;
#225 = SECURITY_CLASSIFICATION ( '', '', #22 ) ;
#226 = EDGE_CURVE ( 'NONE', #135, #229, #103, .T. ) ;
#227 = COORDINATED_UNIVERSAL_TIME_OFFSET ( 2, 0, .AHEAD. ) ;
#228 = CC_DESIGN_DATE_AND_TIME_ASSIGNMENT ( #25, #131, ( #225 ) ) ;
#229 = VERTEX_POINT ( 'NONE', #240 ) ;
#230 = CC_DESIGN_APPROVAL ( #130, ( #79 ) ) ;
#231 = DIRECTION ( 'NONE',  ( 1.000000000000000000, 0.0000000000000000000, 0.0000000000000000000 ) ) ;
#232 = EDGE_CURVE ( 'NONE', #247, #238, #250, .T. ) ;
#233 = CARTESIAN_POINT ( 'NONE',  ( -4.262634403050246800, -4.287621388053048000, -0.1065708043400605800 ) ) ;
#234 = CARTESIAN_POINT ( 'NONE',  ( 4.262634403050246800, 4.287621388053095100, 4.106570804340063500 ) ) ;
#235 = DIRECTION ( 'NONE',  ( -0.0000000000000000000, -0.0000000000000000000, -1.000000000000000000 ) ) ;
#236 = CALENDAR_DATE ( 2019, 10, 1 ) ;
#237 = DIRECTION ( 'NONE',  ( 0.0000000000000000000, 0.0000000000000000000, 1.000000000000000000 ) ) ;
#238 = VERTEX_POINT ( 'NONE', #258 ) ;
#239 = CARTESIAN_POINT ( 'NONE',  ( -4.262634403050220100, 4.287621388053095100, 4.106570804340040400 ) ) ;
#240 = CARTESIAN_POINT ( 'NONE',  ( -12.69999999999999900, 3.997792089092478900E-015, 3.688080220431220600 ) ) ;
#241 = APPLICATION_CONTEXT ( 'configuration controlled 3d designs of mechanical parts and assemblies' ) ;
#242 = DIRECTION ( 'NONE',  ( 1.000000000000000000, 8.881784197001252300E-016, 0.0000000000000000000 ) ) ;
#243 =( BOUNDED_SURFACE ( )  B_SPLINE_SURFACE ( 3, 3, ( 
 ( #96, #122, #99, #118 ),
 ( #261, #288, #10, #149 ),
 ( #290, #239, #257, #167 ),
 ( #150, #35, #215, #15 ) ),
 .UNSPECIFIED., .F., .F., .F. ) 
 B_SPLINE_SURFACE_WITH_KNOTS ( ( 4, 4 ),
 ( 4, 4 ),
 ( 0.0000000000000000000, 1.000000000000000000 ),
 ( 0.0000000000000000000, 1.000000000000000000 ),
 .UNSPECIFIED. ) 
 GEOMETRIC_REPRESENTATION_ITEM ( )  RATIONAL_B_SPLINE_SURFACE ( (
 ( 1.000000000000000000, 0.9997965974447550200, 0.9997965974447550200, 1.000000000000000000),
 ( 0.9991767833515293700, 0.9989735482406542100, 0.9989735482406542100, 0.9991767833515293700),
 ( 0.9991767833515293700, 0.9989735482406542100, 0.9989735482406542100, 0.9991767833515293700),
 ( 1.000000000000000000, 0.9997965974447550200, 0.9997965974447550200, 1.000000000000000000) ) ) 
 REPRESENTATION_ITEM ( '' )  SURFACE ( )  );
#244 = APPLICATION_CONTEXT ( 'configuration controlled 3d designs of mechanical parts and assemblies' ) ;
#245 = CARTESIAN_POINT ( 'NONE',  ( 8.523968260005931400, -4.287621388053048000, -0.001281613869004379100 ) ) ;
#246 = COORDINATED_UNIVERSAL_TIME_OFFSET ( 2, 0, .AHEAD. ) ;
#247 = VERTEX_POINT ( 'NONE', #287 ) ;
#248 = ADVANCED_FACE ( 'NONE', ( #223 ), #243, .T. ) ;
#249 = CC_DESIGN_PERSON_AND_ORGANIZATION_ASSIGNMENT ( #277, #272, ( #79 ) ) ;
#250 = CIRCLE ( 'NONE', #123, 12.69999999999999900 ) ;
#251 = ORIENTED_EDGE ( 'NONE', *, *, #278, .T. ) ;
#252 = DIRECTION ( 'NONE',  ( 1.000000000000000000, 8.881784197001252300E-016, 0.0000000000000000000 ) ) ;
#253 = COORDINATED_UNIVERSAL_TIME_OFFSET ( 2, 0, .AHEAD. ) ;
#254 = ORIENTED_EDGE ( 'NONE', *, *, #145, .T. ) ;
#255 = CARTESIAN_POINT ( 'NONE',  ( -3.469446951953614200E-014, -12.85227524023224500, 0.3194492204389480800 ) ) ;
#256 = CARTESIAN_POINT ( 'NONE',  ( -8.523968260005974100, -4.287621388053048000, -0.001281613869004107800 ) ) ;
#257 = CARTESIAN_POINT ( 'NONE',  ( -8.523968260005929700, 4.287621388053095100, 4.001281613869006800 ) ) ;
#258 = CARTESIAN_POINT ( 'NONE',  ( 2.842170943040400100E-014, -12.70000000000014100, 0.3119197795687846400 ) ) ;
#259 = DATE_AND_TIME ( #157, #105 ) ;
#260 = DIRECTION ( 'NONE',  ( -0.0000000000000000000, -0.0000000000000000000, -1.000000000000000000 ) ) ;
#261 = CARTESIAN_POINT ( 'NONE',  ( -2.842170943040399500E-014, -4.287621388053049800, 4.106570804340040400 ) ) ;
#262 = CARTESIAN_POINT ( 'NONE',  ( 12.69999999999999900, 2.442490654175340100E-015, 3.688080220431220600 ) ) ;
#263 = PRODUCT ( '111-0228E BK7 bi-cx 25.4 F250', '111-0228E BK7 bi-cx 25.4 F250', '', ( #270 ) ) ;
#264 = DIRECTION ( 'NONE',  ( 0.0000000000000000000, -1.000000000000000000, -4.291546287689047400E-016 ) ) ;
#265 = CARTESIAN_POINT ( 'NONE',  ( 4.255617704794218500, -12.85227524023224700, 3.680550779561054600 ) ) ;
#266 = APPROVAL ( #104, 'UNSPECIFIED' ) ;
#267 = FACE_OUTER_BOUND ( 'NONE', #125, .T. ) ;
#268 = PERSON_AND_ORGANIZATION_ROLE ( 'creator' ) ;
#269 = CARTESIAN_POINT ( 'NONE',  ( 4.262634403050220100, -4.287621388053048000, -0.1065708043400377800 ) ) ;
#270 = MECHANICAL_CONTEXT ( 'NONE', #241, 'mechanical' ) ;
#271 = CYLINDRICAL_SURFACE ( 'NONE', #101, 12.69999999999999900 ) ;
#272 = PERSON_AND_ORGANIZATION_ROLE ( 'creator' ) ;
#273 = AXIS2_PLACEMENT_3D ( 'NONE', #30, #163, #231 ) ;
#274 = LOCAL_TIME ( 9, 7, 52.00000000000000000, #246 ) ;
#275 = FACE_OUTER_BOUND ( 'NONE', #27, .T. ) ;
#276 = ADVANCED_FACE ( 'NONE', ( #134 ), #66, .T. ) ;
#277 = PERSON_AND_ORGANIZATION ( #11, #160 ) ;
#278 = EDGE_CURVE ( 'NONE', #158, #229, #86, .T. ) ;
#279 = PERSON_AND_ORGANIZATION ( #11, #160 ) ;
#280 = CIRCLE ( 'NONE', #137, 12.69999999999999900 ) ;
#281 = CARTESIAN_POINT ( 'NONE',  ( -12.76036188031468100, 12.85227524023229300, 0.6347327015261972100 ) ) ;
#282 = CARTESIAN_POINT ( 'NONE',  ( -4.255617704794218500, -12.85227524023224500, 0.3194492204389490800 ) ) ;
#283 = CARTESIAN_POINT ( 'NONE',  ( -3.469446951953614200E-014, 12.85227524023229300, 0.3194492204389480800 ) ) ;
#284 = CARTESIAN_POINT ( 'NONE',  ( -12.78140127228144800, 4.287621388053096900, 0.2092325188019406600 ) ) ;
#285 = CARTESIAN_POINT ( 'NONE',  ( 4.255617704794218500, 12.85227524023229300, 3.680550779561054600 ) ) ;
#286 = CARTESIAN_POINT ( 'NONE',  ( -8.509937004315451900, 12.85227524023229300, 0.4245650949721837000 ) ) ;
#287 = CARTESIAN_POINT ( 'NONE',  ( 12.69999999999999900, 2.442490654175340100E-015, 0.3119197795687770300 ) ) ;
#288 = CARTESIAN_POINT ( 'NONE',  ( -4.262634403050220100, -4.287621388053049800, 4.106570804340041300 ) ) ;
#289 = APPROVAL ( #100, 'UNSPECIFIED' ) ;
#290 = CARTESIAN_POINT ( 'NONE',  ( -2.842170943040399500E-014, 4.287621388053095100, 4.106570804340039500 ) ) ;
#291 = CARTESIAN_POINT ( 'NONE',  ( 8.509937004315403900, -12.85227524023224500, 0.4245650949721835300 ) ) ;
#292 = ORIENTED_EDGE ( 'NONE', *, *, #205, .T. ) ;
#293 = CARTESIAN_POINT ( 'NONE',  ( 0.0000000000000000000, 0.0000000000000000000, 0.0000000000000000000 ) ) ;
#294 = APPROVAL_ROLE ( '' ) ;
#295 = AXIS2_PLACEMENT_3D ( 'NONE', #46, #209, #252 ) ;
ENDSEC;
END-ISO-10303-21;
