ISO-10303-21;
HEADER;
FILE_DESCRIPTION (( 'STEP AP203' ),
    '1' );
FILE_NAME ('111-0226E BK7 bi-cx 25.4 F200.STEP',
    '2019-01-09T15:04:41',
    ( '' ),
    ( '' ),
    'SwSTEP 2.0',
    'SolidWorks 2017',
    '' );
FILE_SCHEMA (( 'CONFIG_CONTROL_DESIGN' ));
ENDSEC;

DATA;
#1 = ORIENTED_EDGE ( 'NONE', *, *, #261, .F. ) ;
#2 = DIRECTION ( 'NONE',  ( 0.0000000000000000000, 0.0000000000000000000, 1.000000000000000000 ) ) ;
#3 = CARTESIAN_POINT ( 'NONE',  ( -12.78434612094799900, -4.289596234606929800, 0.2618621130042602100 ) ) ;
#4 = CARTESIAN_POINT ( 'NONE',  ( -9.540979117872439000E-014, 4.289596234606951200, -0.1334238531027456500 ) ) ;
#5 = PERSON_AND_ORGANIZATION ( #237, #195 ) ;
#6 = CARTESIAN_POINT ( 'NONE',  ( -4.253854653314007800, 12.85220465482749000, 3.600244271925319600 ) ) ;
#7 = ORIENTED_EDGE ( 'NONE', *, *, #38, .T. ) ;
#8 = CARTESIAN_POINT ( 'NONE',  ( -8.505677384106681100, -12.85220465482747100, 0.5312200861229478000 ) ) ;
#9 = CARTESIAN_POINT ( 'NONE',  ( 0.0000000000000000000, 0.0000000000000000000, 0.0000000000000000000 ) ) ;
#10 = PERSON_AND_ORGANIZATION ( #237, #195 ) ;
#11 = APPROVAL_STATUS ( 'not_yet_approved' ) ;
#12 = CLOSED_SHELL ( 'NONE', ( #33, #236, #190, #209, #93, #169 ) ) ;
#13 = EDGE_CURVE ( 'NONE', #151, #41, #28, .T. ) ;
#14 = PERSON_AND_ORGANIZATION_ROLE ( 'classification_officer' ) ;
#15 = AXIS2_PLACEMENT_3D ( 'NONE', #9, #192, #281 ) ;
#16 = LOCAL_TIME ( 17, 4, 41.00000000000000000, #77 ) ;
#17 = AXIS2_PLACEMENT_3D ( 'NONE', #222, #180, #272 ) ;
#18 = CARTESIAN_POINT ( 'NONE',  ( 8.505677384106597600, -12.85220465482747100, 0.5312200861229552400 ) ) ;
#19 =( BOUNDED_SURFACE ( )  B_SPLINE_SURFACE ( 3, 3, ( 
 ( #76, #203, #115, #139 ),
 ( #187, #52, #158, #29 ),
 ( #251, #51, #116, #119 ),
 ( #142, #6, #205, #73 ) ),
 .UNSPECIFIED., .F., .F., .T. ) 
 B_SPLINE_SURFACE_WITH_KNOTS ( ( 4, 4 ),
 ( 4, 4 ),
 ( 0.0000000000000000000, 1.000000000000000000 ),
 ( 0.0000000000000000000, 1.000000000000000000 ),
 .UNSPECIFIED. ) 
 GEOMETRIC_REPRESENTATION_ITEM ( )  RATIONAL_B_SPLINE_SURFACE ( (
 ( 1.000000000000000000, 0.9996815558770323400, 0.9996815558770323400, 1.000000000000000000),
 ( 0.9987112968147171500, 0.9983932630717050600, 0.9983932630717050600, 0.9987112968147171500),
 ( 0.9987112968147171500, 0.9983932630717050600, 0.9983932630717050600, 0.9987112968147171500),
 ( 1.000000000000000000, 0.9996815558770323400, 0.9996815558770323400, 1.000000000000000000) ) ) 
 REPRESENTATION_ITEM ( '' )  SURFACE ( )  );
#20 = CARTESIAN_POINT ( 'NONE',  ( 12.75140628849617000, 12.85220465482749400, 0.7940232100628128500 ) ) ;
#21 = FACE_OUTER_BOUND ( 'NONE', #277, .T. ) ;
#22 = CARTESIAN_POINT ( 'NONE',  ( 8.527649516558778200, -4.289596234606930700, 4.001619892203665400 ) ) ;
#23 = DIRECTION ( 'NONE',  ( -0.0000000000000000000, -0.0000000000000000000, -1.000000000000000000 ) ) ;
#24 = EDGE_CURVE ( 'NONE', #102, #202, #260, .T. ) ;
#25 = CARTESIAN_POINT ( 'NONE',  ( 9.540979117872439000E-014, -4.289596234606929800, 4.133423853102722300 ) ) ;
#26 = CARTESIAN_POINT ( 'NONE',  ( -4.253854653314116200, -12.85220465482747100, 0.3997557280747097200 ) ) ;
#27 = CC_DESIGN_APPROVAL ( #274, ( #61 ) ) ;
#28 = CIRCLE ( 'NONE', #155, 206.8000000000000100 ) ;
#29 = CARTESIAN_POINT ( 'NONE',  ( -12.78434612094794800, -4.289596234606929800, 3.738137886995735100 ) ) ;
#30 = CIRCLE ( 'NONE', #148, 206.8000000000000100 ) ;
#31 = APPROVAL ( #59, 'UNSPECIFIED' ) ;
#32 = DIRECTION ( 'NONE',  ( 1.000000000000000000, 7.982089632700459600E-032, -2.840290826249820100E-016 ) ) ;
#33 = ADVANCED_FACE ( 'NONE', ( #21 ), #88, .T. ) ;
#34 = DIRECTION ( 'NONE',  ( 0.0000000000000000000, 0.0000000000000000000, 1.000000000000000000 ) ) ;
#35 = EDGE_LOOP ( 'NONE', ( #183, #264, #7 ) ) ;
#36 = CARTESIAN_POINT ( 'NONE',  ( 1.421085471520200100E-014, 1.421085471520200100E-014, 206.8000000000000100 ) ) ;
#37 = CC_DESIGN_DATE_AND_TIME_ASSIGNMENT ( #171, #60, ( #177 ) ) ;
#38 = EDGE_CURVE ( 'NONE', #282, #67, #193, .T. ) ;
#39 = CARTESIAN_POINT ( 'NONE',  ( -4.456425582624135000E-014, 4.289596234606951200, -0.1334238531027398300 ) ) ;
#40 = PERSON_AND_ORGANIZATION ( #237, #195 ) ;
#41 = VERTEX_POINT ( 'NONE', #265 ) ;
#42 = CARTESIAN_POINT ( 'NONE',  ( 12.78434612094794800, 4.289596234606951200, 0.2618621130042404500 ) ) ;
#43 = CARTESIAN_POINT ( 'NONE',  ( -4.441281731892515000E-014, -12.85220465482747300, 0.3997557280747132700 ) ) ;
#44 = VERTEX_POINT ( 'NONE', #215 ) ;
#45 = CARTESIAN_POINT ( 'NONE',  ( 9.540979117872439000E-014, -12.85220465482747300, 3.600244271925295600 ) ) ;
#46 = CC_DESIGN_PERSON_AND_ORGANIZATION_ASSIGNMENT ( #63, #191, ( #61 ) ) ;
#47 = CARTESIAN_POINT ( 'NONE',  ( 4.253854653314118800, 12.85220465482749000, 3.600244271925321400 ) ) ;
#48 = AXIS2_PLACEMENT_3D ( 'NONE', #200, #227, #154 ) ;
#49 = SHAPE_DEFINITION_REPRESENTATION ( #100, #125 ) ;
#50 = CARTESIAN_POINT ( 'NONE',  ( 12.69999999999999900, 2.442490654175340100E-015, 0.3903345286369600000 ) ) ;
#51 = CARTESIAN_POINT ( 'NONE',  ( -4.264843344003033100, 4.289596234606951200, 4.133423853102744500 ) ) ;
#52 = CARTESIAN_POINT ( 'NONE',  ( -4.264843344003032200, -4.289596234606930700, 4.133423853102717000 ) ) ;
#53 = APPROVAL_PERSON_ORGANIZATION ( #220, #204, #123 ) ;
#54 = CARTESIAN_POINT ( 'NONE',  ( -9.540979117872439000E-014, -4.289596234606929800, -0.1334238531027180900 ) ) ;
#55 = CARTESIAN_POINT ( 'NONE',  ( -9.367506770274758300E-014, 12.85220465482749400, 0.3997557280746797400 ) ) ;
#56 = DIRECTION ( 'NONE',  ( 1.000000000000000000, 0.0000000000000000000, 0.0000000000000000000 ) ) ;
#57 = DATE_TIME_ROLE ( 'creation_date' ) ;
#58 = ORIENTED_EDGE ( 'NONE', *, *, #127, .F. ) ;
#59 = APPROVAL_STATUS ( 'not_yet_approved' ) ;
#60 = DATE_TIME_ROLE ( 'classification_date' ) ;
#61 = PRODUCT_DEFINITION ( 'UNKNOWN', '', #252, #74 ) ;
#62 =( NAMED_UNIT ( * ) PLANE_ANGLE_UNIT ( ) SI_UNIT ( $, .RADIAN. ) );
#63 = PERSON_AND_ORGANIZATION ( #237, #195 ) ;
#64 = ORIENTED_EDGE ( 'NONE', *, *, #287, .F. ) ;
#65 = CC_DESIGN_PERSON_AND_ORGANIZATION_ASSIGNMENT ( #40, #124, ( #252 ) ) ;
#66 = DIRECTION ( 'NONE',  ( 0.0000000000000000000, -1.000000000000000000, 2.684291645612080600E-016 ) ) ;
#67 = VERTEX_POINT ( 'NONE', #243 ) ;
#68 = CARTESIAN_POINT ( 'NONE',  ( 9.540979117872439000E-014, 12.85220465482749400, 3.600244271925323100 ) ) ;
#69 = CALENDAR_DATE ( 2019, 9, 1 ) ;
#70 = DIRECTION ( 'NONE',  ( -0.0000000000000000000, -0.0000000000000000000, -1.000000000000000000 ) ) ;
#71 = CARTESIAN_POINT ( 'NONE',  ( -8.527649516558778200, -4.289596234606930700, -0.001619892203661604000 ) ) ;
#72 = ORIENTED_EDGE ( 'NONE', *, *, #94, .T. ) ;
#73 = CARTESIAN_POINT ( 'NONE',  ( -12.75140628849617000, 12.85220465482749400, 3.205976789937190500 ) ) ;
#74 = DESIGN_CONTEXT ( 'detailed design', #207, 'design' ) ;
#75 = CARTESIAN_POINT ( 'NONE',  ( -12.75140628849622200, 12.85220465482749400, 0.7940232100628053000 ) ) ;
#76 = CARTESIAN_POINT ( 'NONE',  ( 4.441281731892515000E-014, -12.85220465482747300, 3.600244271925290300 ) ) ;
#77 = COORDINATED_UNIVERSAL_TIME_OFFSET ( 2, 0, .AHEAD. ) ;
#78 = APPROVAL_ROLE ( '' ) ;
#79 = CARTESIAN_POINT ( 'NONE',  ( 4.996003610813200500E-016, 2.442490654175340100E-015, 3.609665471363039800 ) ) ;
#80 = EDGE_CURVE ( 'NONE', #248, #41, #230, .T. ) ;
#81 = LINE ( 'NONE', #50, #129 ) ;
#82 = LOCAL_TIME ( 17, 4, 41.00000000000000000, #285 ) ;
#83 = PERSON_AND_ORGANIZATION ( #237, #195 ) ;
#84 = EDGE_CURVE ( 'NONE', #41, #44, #133, .T. ) ;
#85 = CARTESIAN_POINT ( 'NONE',  ( 4.253854653314007800, 12.85220465482749000, 0.3997557280746843500 ) ) ;
#86 = CYLINDRICAL_SURFACE ( 'NONE', #240, 12.69999999999999900 ) ;
#87 = FACE_OUTER_BOUND ( 'NONE', #188, .T. ) ;
#88 =( BOUNDED_SURFACE ( )  B_SPLINE_SURFACE ( 3, 3, ( 
 ( #43, #289, #18, #109 ),
 ( #174, #290, #107, #218 ),
 ( #39, #197, #152, #42 ),
 ( #216, #85, #176, #20 ) ),
 .UNSPECIFIED., .F., .F., .F. ) 
 B_SPLINE_SURFACE_WITH_KNOTS ( ( 4, 4 ),
 ( 4, 4 ),
 ( 0.0000000000000000000, 1.000000000000000000 ),
 ( 0.0000000000000000000, 1.000000000000000000 ),
 .UNSPECIFIED. ) 
 GEOMETRIC_REPRESENTATION_ITEM ( )  RATIONAL_B_SPLINE_SURFACE ( (
 ( 1.000000000000000000, 0.9996815558770323400, 0.9996815558770323400, 1.000000000000000000),
 ( 0.9987112968147171500, 0.9983932630717050600, 0.9983932630717050600, 0.9987112968147171500),
 ( 0.9987112968147171500, 0.9983932630717050600, 0.9983932630717050600, 0.9987112968147171500),
 ( 1.000000000000000000, 0.9996815558770323400, 0.9996815558770323400, 1.000000000000000000) ) ) 
 REPRESENTATION_ITEM ( '' )  SURFACE ( )  );
#89 = DIRECTION ( 'NONE',  ( 1.000000000000000000, 0.0000000000000000000, 0.0000000000000000000 ) ) ;
#90 = DIRECTION ( 'NONE',  ( 1.000000000000000000, 0.0000000000000000000, 0.0000000000000000000 ) ) ;
#91 = CARTESIAN_POINT ( 'NONE',  ( 4.996003610813200500E-016, 2.442490654175340100E-015, 0.3903345286369600000 ) ) ;
#92 = DIRECTION ( 'NONE',  ( -0.0000000000000000000, -0.0000000000000000000, -1.000000000000000000 ) ) ;
#93 = ADVANCED_FACE ( 'NONE', ( #87 ), #86, .T. ) ;
#94 = EDGE_CURVE ( 'NONE', #102, #44, #81, .T. ) ;
#95 = CARTESIAN_POINT ( 'NONE',  ( -4.441549321355866900E-014, -12.70000000000002100, 0.3903345286369598300 ) ) ;
#96 = CARTESIAN_POINT ( 'NONE',  ( -9.367506770274758300E-014, -12.85220465482747300, 0.3997557280747074900 ) ) ;
#97 = AXIS2_PLACEMENT_3D ( 'NONE', #294, #23, #90 ) ;
#98 = APPROVAL_DATE_TIME ( #156, #31 ) ;
#99 = DIRECTION ( 'NONE',  ( -0.0000000000000000000, -0.0000000000000000000, -1.000000000000000000 ) ) ;
#100 = PRODUCT_DEFINITION_SHAPE ( 'NONE', 'NONE',  #61 ) ;
#101 = APPLICATION_PROTOCOL_DEFINITION ( 'international standard', 'config_control_design', 1994, #161 ) ;
#102 = VERTEX_POINT ( 'NONE', #244 ) ;
#103 = CARTESIAN_POINT ( 'NONE',  ( 4.996003610813200500E-016, 2.442490654175340100E-015, 0.3903345286369600000 ) ) ;
#104 = CALENDAR_DATE ( 2019, 9, 1 ) ;
#105 = FACE_OUTER_BOUND ( 'NONE', #35, .T. ) ;
#106 = ORIENTED_EDGE ( 'NONE', *, *, #245, .T. ) ;
#107 = CARTESIAN_POINT ( 'NONE',  ( 8.527649516558698300, -4.289596234606930700, -0.001619892203654123000 ) ) ;
#108 = CARTESIAN_POINT ( 'NONE',  ( 4.996003610813200500E-016, 2.442490654175340100E-015, 0.3903345286369600000 ) ) ;
#109 = CARTESIAN_POINT ( 'NONE',  ( 12.75140628849616700, -12.85220465482747300, 0.7940232100628406000 ) ) ;
#110 = PERSON_AND_ORGANIZATION ( #237, #195 ) ;
#111 = DIRECTION ( 'NONE',  ( 1.000000000000000000, 0.0000000000000000000, 0.0000000000000000000 ) ) ;
#112 = CIRCLE ( 'NONE', #48, 12.69999999999999900 ) ;
#113 = ORIENTED_EDGE ( 'NONE', *, *, #287, .T. ) ;
#114 = CARTESIAN_POINT ( 'NONE',  ( 4.264843344003144100, -4.289596234606930700, 4.133423853102719600 ) ) ;
#115 = CARTESIAN_POINT ( 'NONE',  ( -8.505677384106601100, -12.85220465482747100, 3.468779913877047900 ) ) ;
#116 = CARTESIAN_POINT ( 'NONE',  ( -8.527649516558701800, 4.289596234606951200, 4.001619892203684100 ) ) ;
#117 = LOCAL_TIME ( 17, 4, 41.00000000000000000, #178 ) ;
#118 = ORIENTED_EDGE ( 'NONE', *, *, #162, .F. ) ;
#119 = CARTESIAN_POINT ( 'NONE',  ( -12.78434612094795000, 4.289596234606951200, 3.738137886995763500 ) ) ;
#120 =( BOUNDED_SURFACE ( )  B_SPLINE_SURFACE ( 3, 3, ( 
 ( #201, #8, #26, #96 ),
 ( #3, #71, #121, #54 ),
 ( #250, #231, #253, #4 ),
 ( #75, #278, #229, #55 ) ),
 .UNSPECIFIED., .F., .F., .F. ) 
 B_SPLINE_SURFACE_WITH_KNOTS ( ( 4, 4 ),
 ( 4, 4 ),
 ( 0.0000000000000000000, 1.000000000000000000 ),
 ( 0.0000000000000000000, 1.000000000000000000 ),
 .UNSPECIFIED. ) 
 GEOMETRIC_REPRESENTATION_ITEM ( )  RATIONAL_B_SPLINE_SURFACE ( (
 ( 1.000000000000000000, 0.9996815558770323400, 0.9996815558770323400, 1.000000000000000000),
 ( 0.9987112968147171500, 0.9983932630717050600, 0.9983932630717050600, 0.9987112968147171500),
 ( 0.9987112968147171500, 0.9983932630717050600, 0.9983932630717050600, 0.9987112968147171500),
 ( 1.000000000000000000, 0.9996815558770323400, 0.9996815558770323400, 1.000000000000000000) ) ) 
 REPRESENTATION_ITEM ( '' )  SURFACE ( )  );
#121 = CARTESIAN_POINT ( 'NONE',  ( -4.264843344003144100, -4.289596234606930700, -0.1334238531027158400 ) ) ;
#122 = ORIENTED_EDGE ( 'NONE', *, *, #262, .T. ) ;
#123 = APPROVAL_ROLE ( '' ) ;
#124 = PERSON_AND_ORGANIZATION_ROLE ( 'creator' ) ;
#125 = ADVANCED_BREP_SHAPE_REPRESENTATION ( '111-0226E BK7 bi-cx 25.4 F200', ( #258, #15 ), #136 ) ;
#126 = CARTESIAN_POINT ( 'NONE',  ( -12.69999999999999900, 3.997792089092478900E-015, 0.3903345286369600000 ) ) ;
#127 = EDGE_CURVE ( 'NONE', #67, #102, #130, .T. ) ;
#128 = PERSON_AND_ORGANIZATION ( #237, #195 ) ;
#129 = VECTOR ( 'NONE', #199, 1000.000000000000000 ) ;
#130 = CIRCLE ( 'NONE', #268, 12.69999999999999900 ) ;
#131 = DIRECTION ( 'NONE',  ( 1.000000000000000000, 0.0000000000000000000, 0.0000000000000000000 ) ) ;
#132 = FACE_OUTER_BOUND ( 'NONE', #273, .T. ) ;
#133 = CIRCLE ( 'NONE', #97, 12.69999999999999900 ) ;
#134 = CARTESIAN_POINT ( 'NONE',  ( 4.996003610813200500E-016, 2.442490654175340100E-015, 0.3903345286369600000 ) ) ;
#135 = CARTESIAN_POINT ( 'NONE',  ( 4.441549321355866900E-014, -12.70000000000002100, 3.609665471363042100 ) ) ;
#136 =( GEOMETRIC_REPRESENTATION_CONTEXT ( 3 ) GLOBAL_UNCERTAINTY_ASSIGNED_CONTEXT ( ( #159 ) ) GLOBAL_UNIT_ASSIGNED_CONTEXT ( ( #168, #62, #212 ) ) REPRESENTATION_CONTEXT ( 'NONE', 'WORKASPACE' ) );
#137 = CARTESIAN_POINT ( 'NONE',  ( 8.505677384106682800, 12.85220465482749000, 3.468779913877083400 ) ) ;
#138 = CARTESIAN_POINT ( 'NONE',  ( 12.78434612094800100, 4.289596234606951200, 3.738137886995770700 ) ) ;
#139 = CARTESIAN_POINT ( 'NONE',  ( -12.75140628849616900, -12.85220465482747300, 3.205976789937162500 ) ) ;
#140 = ORIENTED_EDGE ( 'NONE', *, *, #24, .T. ) ;
#141 = AXIS2_PLACEMENT_3D ( 'NONE', #103, #263, #131 ) ;
#142 = CARTESIAN_POINT ( 'NONE',  ( 4.441281731892515000E-014, 12.85220465482749400, 3.600244271925317800 ) ) ;
#143 = AXIS2_PLACEMENT_3D ( 'NONE', #284, #259, #56 ) ;
#144 = PRODUCT ( '111-0226E BK7 bi-cx 25.4 F200', '111-0226E BK7 bi-cx 25.4 F200', '', ( #145 ) ) ;
#145 = MECHANICAL_CONTEXT ( 'NONE', #161, 'mechanical' ) ;
#146 = SECURITY_CLASSIFICATION_LEVEL ( 'unclassified' ) ;
#147 = ORIENTED_EDGE ( 'NONE', *, *, #24, .F. ) ;
#148 = AXIS2_PLACEMENT_3D ( 'NONE', #36, #32, #189 ) ;
#149 = AXIS2_PLACEMENT_3D ( 'NONE', #79, #99, #166 ) ;
#150 = CIRCLE ( 'NONE', #143, 12.69999999999999900 ) ;
#151 = VERTEX_POINT ( 'NONE', #135 ) ;
#152 = CARTESIAN_POINT ( 'NONE',  ( 8.527649516558700100, 4.289596234606951200, -0.001619892203681607600 ) ) ;
#153 = CARTESIAN_POINT ( 'NONE',  ( 12.75140628849622200, 12.85220465482749400, 3.205976789937198000 ) ) ;
#154 = DIRECTION ( 'NONE',  ( 1.000000000000000000, 8.881784197001252300E-016, 0.0000000000000000000 ) ) ;
#155 = AXIS2_PLACEMENT_3D ( 'NONE', #196, #175, #66 ) ;
#156 = DATE_AND_TIME ( #104, #276 ) ;
#157 = ORIENTED_EDGE ( 'NONE', *, *, #13, .F. ) ;
#158 = CARTESIAN_POINT ( 'NONE',  ( -8.527649516558701800, -4.289596234606930700, 4.001619892203658300 ) ) ;
#159 = UNCERTAINTY_MEASURE_WITH_UNIT (LENGTH_MEASURE( 1.000000000000000100E-005 ), #168, 'distance_accuracy_value', 'NONE');
#160 = ORIENTED_EDGE ( 'NONE', *, *, #38, .F. ) ;
#161 = APPLICATION_CONTEXT ( 'configuration controlled 3d designs of mechanical parts and assemblies' ) ;
#162 = EDGE_CURVE ( 'NONE', #202, #282, #112, .T. ) ;
#163 = APPROVAL_ROLE ( '' ) ;
#164 = COORDINATED_UNIVERSAL_TIME_OFFSET ( 2, 0, .AHEAD. ) ;
#165 = CYLINDRICAL_SURFACE ( 'NONE', #286, 12.69999999999999900 ) ;
#166 = DIRECTION ( 'NONE',  ( 1.000000000000000000, 0.0000000000000000000, 0.0000000000000000000 ) ) ;
#167 = ORIENTED_EDGE ( 'NONE', *, *, #80, .F. ) ;
#168 =( LENGTH_UNIT ( ) NAMED_UNIT ( * ) SI_UNIT ( .MILLI., .METRE. ) );
#169 = ADVANCED_FACE ( 'NONE', ( #210 ), #213, .T. ) ;
#170 = APPROVAL_DATE_TIME ( #267, #204 ) ;
#171 = DATE_AND_TIME ( #291, #117 ) ;
#172 = ORIENTED_EDGE ( 'NONE', *, *, #94, .F. ) ;
#173 = CALENDAR_DATE ( 2019, 9, 1 ) ;
#174 = CARTESIAN_POINT ( 'NONE',  ( -4.456425582624135600E-014, -4.289596234606929800, -0.1334238531027122600 ) ) ;
#175 = DIRECTION ( 'NONE',  ( -1.000000000000000000, 7.982089632700459600E-032, 2.840290826249820100E-016 ) ) ;
#176 = CARTESIAN_POINT ( 'NONE',  ( 8.505677384106601100, 12.85220465482749000, 0.5312200861229273700 ) ) ;
#177 = SECURITY_CLASSIFICATION ( '', '', #146 ) ;
#178 = COORDINATED_UNIVERSAL_TIME_OFFSET ( 2, 0, .AHEAD. ) ;
#179 = ORIENTED_EDGE ( 'NONE', *, *, #127, .T. ) ;
#180 = DIRECTION ( 'NONE',  ( -0.0000000000000000000, -0.0000000000000000000, -1.000000000000000000 ) ) ;
#181 = CARTESIAN_POINT ( 'NONE',  ( 12.75140628849622000, -12.85220465482747300, 3.205976789937170500 ) ) ;
#182 = CARTESIAN_POINT ( 'NONE',  ( 8.527649516558778200, 4.289596234606951200, 4.001619892203691200 ) ) ;
#183 = ORIENTED_EDGE ( 'NONE', *, *, #262, .F. ) ;
#184 = CARTESIAN_POINT ( 'NONE',  ( 8.505677384106681100, -12.85220465482747100, 3.468779913877055000 ) ) ;
#185 = AXIS2_PLACEMENT_3D ( 'NONE', #134, #70, #293 ) ;
#186 = DATE_AND_TIME ( #228, #295 ) ;
#187 = CARTESIAN_POINT ( 'NONE',  ( 4.456425582624135600E-014, -4.289596234606929800, 4.133423853102716100 ) ) ;
#188 = EDGE_LOOP ( 'NONE', ( #64, #118, #147, #72, #106, #221 ) ) ;
#189 = DIRECTION ( 'NONE',  ( 0.0000000000000000000, -1.000000000000000000, -2.684291645612080600E-016 ) ) ;
#190 = ADVANCED_FACE ( 'NONE', ( #132 ), #165, .T. ) ;
#191 = PERSON_AND_ORGANIZATION_ROLE ( 'creator' ) ;
#192 = DIRECTION ( 'NONE',  ( 0.0000000000000000000, 0.0000000000000000000, 1.000000000000000000 ) ) ;
#193 = CIRCLE ( 'NONE', #185, 12.69999999999999900 ) ;
#194 = CC_DESIGN_PERSON_AND_ORGANIZATION_ASSIGNMENT ( #5, #14, ( #177 ) ) ;
#195 = ORGANIZATION ( 'UNSPECIFIED', 'UNSPECIFIED', '' ) ;
#196 = CARTESIAN_POINT ( 'NONE',  ( -1.421085471520200100E-014, 1.421085471520200100E-014, -202.8000000000000100 ) ) ;
#197 = CARTESIAN_POINT ( 'NONE',  ( 4.264843344003033100, 4.289596234606951200, -0.1334238531027410700 ) ) ;
#198 = EDGE_LOOP ( 'NONE', ( #1, #226, #167 ) ) ;
#199 = DIRECTION ( 'NONE',  ( 0.0000000000000000000, 0.0000000000000000000, 1.000000000000000000 ) ) ;
#200 = CARTESIAN_POINT ( 'NONE',  ( 4.996003610813200500E-016, 2.442490654175340100E-015, 0.3903345286369600000 ) ) ;
#201 = CARTESIAN_POINT ( 'NONE',  ( -12.75140628849622000, -12.85220465482747300, 0.7940232100628330500 ) ) ;
#202 = VERTEX_POINT ( 'NONE', #95 ) ;
#203 = CARTESIAN_POINT ( 'NONE',  ( -4.253854653314006900, -12.85220465482747100, 3.600244271925291600 ) ) ;
#204 = APPROVAL ( #255, 'UNSPECIFIED' ) ;
#205 = CARTESIAN_POINT ( 'NONE',  ( -8.505677384106601100, 12.85220465482749000, 3.468779913877075400 ) ) ;
#206 = VECTOR ( 'NONE', #34, 1000.000000000000000 ) ;
#207 = APPLICATION_CONTEXT ( 'configuration controlled 3d designs of mechanical parts and assemblies' ) ;
#208 = COORDINATED_UNIVERSAL_TIME_OFFSET ( 2, 0, .AHEAD. ) ;
#209 = ADVANCED_FACE ( 'NONE', ( #105 ), #120, .T. ) ;
#210 = FACE_OUTER_BOUND ( 'NONE', #239, .T. ) ;
#211 = ORIENTED_EDGE ( 'NONE', *, *, #84, .F. ) ;
#212 =( NAMED_UNIT ( * ) SI_UNIT ( $, .STERADIAN. ) SOLID_ANGLE_UNIT ( ) );
#213 =( BOUNDED_SURFACE ( )  B_SPLINE_SURFACE ( 3, 3, ( 
 ( #181, #184, #249, #45 ),
 ( #270, #22, #114, #25 ),
 ( #138, #182, #223, #247 ),
 ( #153, #137, #47, #68 ) ),
 .UNSPECIFIED., .F., .F., .T. ) 
 B_SPLINE_SURFACE_WITH_KNOTS ( ( 4, 4 ),
 ( 4, 4 ),
 ( 0.0000000000000000000, 1.000000000000000000 ),
 ( 0.0000000000000000000, 1.000000000000000000 ),
 .UNSPECIFIED. ) 
 GEOMETRIC_REPRESENTATION_ITEM ( )  RATIONAL_B_SPLINE_SURFACE ( (
 ( 1.000000000000000000, 0.9996815558770323400, 0.9996815558770323400, 1.000000000000000000),
 ( 0.9987112968147171500, 0.9983932630717050600, 0.9983932630717050600, 0.9987112968147171500),
 ( 0.9987112968147171500, 0.9983932630717050600, 0.9983932630717050600, 0.9987112968147171500),
 ( 1.000000000000000000, 0.9996815558770323400, 0.9996815558770323400, 1.000000000000000000) ) ) 
 REPRESENTATION_ITEM ( '' )  SURFACE ( )  );
#214 = FACE_OUTER_BOUND ( 'NONE', #198, .T. ) ;
#215 = CARTESIAN_POINT ( 'NONE',  ( 12.69999999999999900, 2.442490654175340100E-015, 3.609665471363039800 ) ) ;
#216 = CARTESIAN_POINT ( 'NONE',  ( -4.441281731892515000E-014, 12.85220465482749400, 0.3997557280746855100 ) ) ;
#217 = ORIENTED_EDGE ( 'NONE', *, *, #84, .T. ) ;
#218 = CARTESIAN_POINT ( 'NONE',  ( 12.78434612094794600, -4.289596234606929800, 0.2618621130042678700 ) ) ;
#219 = CC_DESIGN_APPROVAL ( #204, ( #177 ) ) ;
#220 = PERSON_AND_ORGANIZATION ( #237, #195 ) ;
#221 = ORIENTED_EDGE ( 'NONE', *, *, #261, .T. ) ;
#222 = CARTESIAN_POINT ( 'NONE',  ( 4.996003610813200500E-016, 2.442490654175340100E-015, 3.609665471363039800 ) ) ;
#223 = CARTESIAN_POINT ( 'NONE',  ( 4.264843344003145000, 4.289596234606951200, 4.133423853102746300 ) ) ;
#224 = APPROVAL_PERSON_ORGANIZATION ( #110, #31, #78 ) ;
#225 = CIRCLE ( 'NONE', #149, 12.69999999999999900 ) ;
#226 = ORIENTED_EDGE ( 'NONE', *, *, #13, .T. ) ;
#227 = DIRECTION ( 'NONE',  ( -0.0000000000000000000, -0.0000000000000000000, -1.000000000000000000 ) ) ;
#228 = CALENDAR_DATE ( 2019, 9, 1 ) ;
#229 = CARTESIAN_POINT ( 'NONE',  ( -4.253854653314117100, 12.85220465482749000, 0.3997557280746819600 ) ) ;
#230 = CIRCLE ( 'NONE', #17, 12.69999999999999900 ) ;
#231 = CARTESIAN_POINT ( 'NONE',  ( -8.527649516558778200, 4.289596234606951200, -0.001619892203689088100 ) ) ;
#232 = CC_DESIGN_PERSON_AND_ORGANIZATION_ASSIGNMENT ( #10, #283, ( #144 ) ) ;
#233 = APPROVAL_DATE_TIME ( #186, #274 ) ;
#234 = PERSON_AND_ORGANIZATION_ROLE ( 'design_supplier' ) ;
#235 = ORIENTED_EDGE ( 'NONE', *, *, #80, .T. ) ;
#236 = ADVANCED_FACE ( 'NONE', ( #214 ), #19, .T. ) ;
#237 = PERSON ( 'UNSPECIFIED', 'UNSPECIFIED', 'UNSPECIFIED', ('UNSPECIFIED'), ('UNSPECIFIED'), ('UNSPECIFIED') ) ;
#238 = PRODUCT_RELATED_PRODUCT_CATEGORY ( 'detail', '', ( #144 ) ) ;
#239 = EDGE_LOOP ( 'NONE', ( #157, #242, #211 ) ) ;
#240 = AXIS2_PLACEMENT_3D ( 'NONE', #108, #292, #89 ) ;
#241 = LINE ( 'NONE', #256, #206 ) ;
#242 = ORIENTED_EDGE ( 'NONE', *, *, #245, .F. ) ;
#243 = CARTESIAN_POINT ( 'NONE',  ( -4.441549321355866900E-014, 12.70000000000003800, 0.3903345286369598300 ) ) ;
#244 = CARTESIAN_POINT ( 'NONE',  ( 12.69999999999999900, 2.442490654175340100E-015, 0.3903345286369600000 ) ) ;
#245 = EDGE_CURVE ( 'NONE', #44, #151, #225, .T. ) ;
#246 = CC_DESIGN_DATE_AND_TIME_ASSIGNMENT ( #288, #57, ( #61 ) ) ;
#247 = CARTESIAN_POINT ( 'NONE',  ( 9.540979117872439000E-014, 4.289596234606951200, 4.133423853102747200 ) ) ;
#248 = VERTEX_POINT ( 'NONE', #275 ) ;
#249 = CARTESIAN_POINT ( 'NONE',  ( 4.253854653314117900, -12.85220465482747100, 3.600244271925293400 ) ) ;
#250 = CARTESIAN_POINT ( 'NONE',  ( -12.78434612094800100, 4.289596234606951200, 0.2618621130042329000 ) ) ;
#251 = CARTESIAN_POINT ( 'NONE',  ( 4.456425582624135000E-014, 4.289596234606951200, 4.133423853102741900 ) ) ;
#252 = PRODUCT_DEFINITION_FORMATION_WITH_SPECIFIED_SOURCE ( 'ANY', '', #144, .NOT_KNOWN. ) ;
#253 = CARTESIAN_POINT ( 'NONE',  ( -4.264843344003145000, 4.289596234606951200, -0.1334238531027434100 ) ) ;
#254 = APPROVAL_PERSON_ORGANIZATION ( #83, #274, #163 ) ;
#255 = APPROVAL_STATUS ( 'not_yet_approved' ) ;
#256 = CARTESIAN_POINT ( 'NONE',  ( -12.69999999999999900, 3.997792089092478900E-015, 0.3903345286369600000 ) ) ;
#257 = CC_DESIGN_SECURITY_CLASSIFICATION ( #177, ( #252 ) ) ;
#258 = MANIFOLD_SOLID_BREP ( 'Imported1', #12 ) ;
#259 = DIRECTION ( 'NONE',  ( -0.0000000000000000000, -0.0000000000000000000, -1.000000000000000000 ) ) ;
#260 = CIRCLE ( 'NONE', #141, 12.69999999999999900 ) ;
#261 = EDGE_CURVE ( 'NONE', #151, #248, #150, .T. ) ;
#262 = EDGE_CURVE ( 'NONE', #202, #67, #30, .T. ) ;
#263 = DIRECTION ( 'NONE',  ( -0.0000000000000000000, -0.0000000000000000000, -1.000000000000000000 ) ) ;
#264 = ORIENTED_EDGE ( 'NONE', *, *, #162, .T. ) ;
#265 = CARTESIAN_POINT ( 'NONE',  ( 4.441549321355866900E-014, 12.70000000000003800, 3.609665471363042100 ) ) ;
#266 = CC_DESIGN_APPROVAL ( #31, ( #252 ) ) ;
#267 = DATE_AND_TIME ( #69, #82 ) ;
#268 = AXIS2_PLACEMENT_3D ( 'NONE', #271, #92, #269 ) ;
#269 = DIRECTION ( 'NONE',  ( 1.000000000000000000, 0.0000000000000000000, 0.0000000000000000000 ) ) ;
#270 = CARTESIAN_POINT ( 'NONE',  ( 12.78434612094799900, -4.289596234606929800, 3.738137886995743100 ) ) ;
#271 = CARTESIAN_POINT ( 'NONE',  ( 4.996003610813200500E-016, 2.442490654175340100E-015, 0.3903345286369600000 ) ) ;
#272 = DIRECTION ( 'NONE',  ( 1.000000000000000000, 0.0000000000000000000, 0.0000000000000000000 ) ) ;
#273 = EDGE_LOOP ( 'NONE', ( #160, #113, #235, #217, #172, #58 ) ) ;
#274 = APPROVAL ( #11, 'UNSPECIFIED' ) ;
#275 = CARTESIAN_POINT ( 'NONE',  ( -12.69999999999999900, 3.997792089092478900E-015, 3.609665471363039800 ) ) ;
#276 = LOCAL_TIME ( 17, 4, 41.00000000000000000, #164 ) ;
#277 = EDGE_LOOP ( 'NONE', ( #140, #122, #179 ) ) ;
#278 = CARTESIAN_POINT ( 'NONE',  ( -8.505677384106682800, 12.85220465482749000, 0.5312200861229200400 ) ) ;
#279 = CC_DESIGN_PERSON_AND_ORGANIZATION_ASSIGNMENT ( #128, #234, ( #252 ) ) ;
#280 = APPLICATION_PROTOCOL_DEFINITION ( 'international standard', 'config_control_design', 1994, #207 ) ;
#281 = DIRECTION ( 'NONE',  ( 1.000000000000000000, 0.0000000000000000000, 0.0000000000000000000 ) ) ;
#282 = VERTEX_POINT ( 'NONE', #126 ) ;
#283 = PERSON_AND_ORGANIZATION_ROLE ( 'design_owner' ) ;
#284 = CARTESIAN_POINT ( 'NONE',  ( 4.996003610813200500E-016, 2.442490654175340100E-015, 3.609665471363039800 ) ) ;
#285 = COORDINATED_UNIVERSAL_TIME_OFFSET ( 2, 0, .AHEAD. ) ;
#286 = AXIS2_PLACEMENT_3D ( 'NONE', #91, #2, #111 ) ;
#287 = EDGE_CURVE ( 'NONE', #282, #248, #241, .T. ) ;
#288 = DATE_AND_TIME ( #173, #16 ) ;
#289 = CARTESIAN_POINT ( 'NONE',  ( 4.253854653314006900, -12.85220465482747100, 0.3997557280747121000 ) ) ;
#290 = CARTESIAN_POINT ( 'NONE',  ( 4.264843344003032200, -4.289596234606930700, -0.1334238531027134900 ) ) ;
#291 = CALENDAR_DATE ( 2019, 9, 1 ) ;
#292 = DIRECTION ( 'NONE',  ( 0.0000000000000000000, 0.0000000000000000000, 1.000000000000000000 ) ) ;
#293 = DIRECTION ( 'NONE',  ( 1.000000000000000000, 0.0000000000000000000, 0.0000000000000000000 ) ) ;
#294 = CARTESIAN_POINT ( 'NONE',  ( 4.996003610813200500E-016, 2.442490654175340100E-015, 3.609665471363039800 ) ) ;
#295 = LOCAL_TIME ( 17, 4, 41.00000000000000000, #208 ) ;
ENDSEC;
END-ISO-10303-21;
