ISO-10303-21;
HEADER;
FILE_DESCRIPTION (( 'STEP AP203' ),
    '1' );
FILE_NAME ('111-0222E BK7 bi-cx 25.4 F150.STEP',
    '2019-01-09T14:48:56',
    ( '' ),
    ( '' ),
    'SwSTEP 2.0',
    'SolidWorks 2017',
    '' );
FILE_SCHEMA (( 'CONFIG_CONTROL_DESIGN' ));
ENDSEC;

DATA;
#1 = CYLINDRICAL_SURFACE ( 'NONE', #18, 12.69999999999999900 ) ;
#2 = CARTESIAN_POINT ( 'NONE',  ( 8.695640051655188300E-014, 12.85205141077969200, 3.465911957707401600 ) ) ;
#3 = DIRECTION ( 'NONE',  ( 1.000000000000000000, 0.0000000000000000000, -3.791944111481360200E-016 ) ) ;
#4 = CC_DESIGN_SECURITY_CLASSIFICATION ( #260, ( #177 ) ) ;
#5 = CIRCLE ( 'NONE', #112, 12.69999999999999900 ) ;
#6 = CARTESIAN_POINT ( 'NONE',  ( 1.249000902703301100E-013, -4.293887220073543200, 4.178439514898822300 ) ) ;
#7 = EDGE_LOOP ( 'NONE', ( #110, #16, #57 ) ) ;
#8 = EDGE_CURVE ( 'NONE', #80, #193, #51, .T. ) ;
#9 = CALENDAR_DATE ( 2019, 9, 1 ) ;
#10 = DIRECTION ( 'NONE',  ( -0.0000000000000000000, -0.0000000000000000000, -1.000000000000000000 ) ) ;
#11 = CARTESIAN_POINT ( 'NONE',  ( -8.695640051655190900E-014, 12.85205141077969200, 0.5340880422926019800 ) ) ;
#12 = CIRCLE ( 'NONE', #41, 12.69999999999999900 ) ;
#13 = DIRECTION ( 'NONE',  ( 1.000000000000000000, 0.0000000000000000000, 0.0000000000000000000 ) ) ;
#14 = ORIENTED_EDGE ( 'NONE', *, *, #99, .F. ) ;
#15 = CARTESIAN_POINT ( 'NONE',  ( -4.269643611926897900, 4.293887220073502300, -0.1784395148988173800 ) ) ;
#16 = ORIENTED_EDGE ( 'NONE', *, *, #294, .F. ) ;
#17 = APPROVAL_DATE_TIME ( #89, #69 ) ;
#18 = AXIS2_PLACEMENT_3D ( 'NONE', #256, #62, #64 ) ;
#19 = UNCERTAINTY_MEASURE_WITH_UNIT (LENGTH_MEASURE( 1.000000000000000100E-005 ), #236, 'distance_accuracy_value', 'NONE');
#20 = CARTESIAN_POINT ( 'NONE',  ( -4.269643611926740700, -4.293887220073542300, 4.178439514898816900 ) ) ;
#21 = CC_DESIGN_DATE_AND_TIME_ASSIGNMENT ( #192, #191, ( #260 ) ) ;
#22 = CARTESIAN_POINT ( 'NONE',  ( 8.722658698402790200E-014, -4.293887220073543200, 4.178439514898813400 ) ) ;
#23 = CC_DESIGN_PERSON_AND_ORGANIZATION_ASSIGNMENT ( #74, #165, ( #176 ) ) ;
#24 = PERSON_AND_ORGANIZATION ( #198, #230 ) ;
#25 =( BOUNDED_SURFACE ( )  B_SPLINE_SURFACE ( 3, 3, ( 
 ( #52, #205, #249, #143 ),
 ( #142, #76, #159, #32 ),
 ( #207, #186, #35, #83 ),
 ( #11, #251, #100, #279 ) ),
 .UNSPECIFIED., .F., .F., .F. ) 
 B_SPLINE_SURFACE_WITH_KNOTS ( ( 4, 4 ),
 ( 4, 4 ),
 ( 0.0000000000000000000, 1.000000000000000000 ),
 ( 0.0000000000000000000, 1.000000000000000000 ),
 .UNSPECIFIED. ) 
 GEOMETRIC_REPRESENTATION_ITEM ( )  RATIONAL_B_SPLINE_SURFACE ( (
 ( 1.000000000000000000, 0.9994318890494232600, 0.9994318890494232600, 1.000000000000000000),
 ( 0.9977013641390462000, 0.9971345590686734300, 0.9971345590686734300, 0.9977013641390462000),
 ( 0.9977013641390462000, 0.9971345590686734300, 0.9971345590686734300, 0.9977013641390462000),
 ( 1.000000000000000000, 0.9994318890494232600, 0.9994318890494232600, 1.000000000000000000) ) ) 
 REPRESENTATION_ITEM ( '' )  SURFACE ( )  );
#26 = FACE_OUTER_BOUND ( 'NONE', #292, .T. ) ;
#27 = SHAPE_DEFINITION_REPRESENTATION ( #144, #108 ) ;
#28 = VERTEX_POINT ( 'NONE', #282 ) ;
#29 = APPROVAL_ROLE ( '' ) ;
#30 = CARTESIAN_POINT ( 'NONE',  ( -12.69999999999999900, 3.997792089092478900E-015, 0.5215040881664749800 ) ) ;
#31 = EDGE_CURVE ( 'NONE', #38, #193, #164, .T. ) ;
#32 = CARTESIAN_POINT ( 'NONE',  ( 12.79074480222257500, -4.293887220073543200, 0.3499458111368241000 ) ) ;
#33 = APPLICATION_CONTEXT ( 'configuration controlled 3d designs of mechanical parts and assemblies' ) ;
#34 = CARTESIAN_POINT ( 'NONE',  ( -1.231653667943533000E-013, 12.85205141077969200, 0.5340880422925929900 ) ) ;
#35 = CARTESIAN_POINT ( 'NONE',  ( 8.535648776917078400, 4.293887220073502300, -0.002210955512542563600 ) ) ;
#36 = AXIS2_PLACEMENT_3D ( 'NONE', #97, #10, #179 ) ;
#37 = CALENDAR_DATE ( 2019, 9, 1 ) ;
#38 = VERTEX_POINT ( 'NONE', #208 ) ;
#39 =( GEOMETRIC_REPRESENTATION_CONTEXT ( 3 ) GLOBAL_UNCERTAINTY_ASSIGNED_CONTEXT ( ( #19 ) ) GLOBAL_UNIT_ASSIGNED_CONTEXT ( ( #236, #101, #252 ) ) REPRESENTATION_CONTEXT ( 'NONE', 'WORKASPACE' ) );
#40 = LINE ( 'NONE', #148, #120 ) ;
#41 = AXIS2_PLACEMENT_3D ( 'NONE', #131, #295, #43 ) ;
#42 = EDGE_LOOP ( 'NONE', ( #147, #94, #152 ) ) ;
#43 = DIRECTION ( 'NONE',  ( 1.000000000000000000, 0.0000000000000000000, 0.0000000000000000000 ) ) ;
#44 = CARTESIAN_POINT ( 'NONE',  ( -8.496430656131977300, 12.85205141077969200, 3.290493102786304500 ) ) ;
#45 = CIRCLE ( 'NONE', #139, 154.9000000000000100 ) ;
#46 = CARTESIAN_POINT ( 'NONE',  ( -4.250026192881254200, 12.85205141077969200, 3.465911957707402900 ) ) ;
#47 = CARTESIAN_POINT ( 'NONE',  ( -12.73197610312361900, -12.85205141077973300, 2.939954365061358700 ) ) ;
#48 = AXIS2_PLACEMENT_3D ( 'NONE', #114, #153, #263 ) ;
#49 = CC_DESIGN_PERSON_AND_ORGANIZATION_ASSIGNMENT ( #238, #237, ( #177 ) ) ;
#50 = COORDINATED_UNIVERSAL_TIME_OFFSET ( 2, 0, .AHEAD. ) ;
#51 = LINE ( 'NONE', #30, #218 ) ;
#52 = CARTESIAN_POINT ( 'NONE',  ( -8.695640051655190900E-014, -12.85205141077973300, 0.5340880422926019800 ) ) ;
#53 = PRODUCT_DEFINITION ( 'UNKNOWN', '', #177, #86 ) ;
#54 = ADVANCED_FACE ( 'NONE', ( #26 ), #96, .T. ) ;
#55 = SECURITY_CLASSIFICATION_LEVEL ( 'unclassified' ) ;
#56 = CARTESIAN_POINT ( 'NONE',  ( -8.535648776917179600, -4.293887220073542300, -0.002210955512543648300 ) ) ;
#57 = ORIENTED_EDGE ( 'NONE', *, *, #72, .F. ) ;
#58 = APPLICATION_CONTEXT ( 'configuration controlled 3d designs of mechanical parts and assemblies' ) ;
#59 = CARTESIAN_POINT ( 'NONE',  ( -1.231653667943533300E-013, -4.293887220073543200, -0.1784395148988190400 ) ) ;
#60 = ADVANCED_FACE ( 'NONE', ( #87 ), #1, .T. ) ;
#61 = APPROVAL_STATUS ( 'not_yet_approved' ) ;
#62 = DIRECTION ( 'NONE',  ( 0.0000000000000000000, 0.0000000000000000000, 1.000000000000000000 ) ) ;
#63 = CALENDAR_DATE ( 2019, 9, 1 ) ;
#64 = DIRECTION ( 'NONE',  ( 1.000000000000000000, 0.0000000000000000000, 0.0000000000000000000 ) ) ;
#65 = AXIS2_PLACEMENT_3D ( 'NONE', #229, #178, #248 ) ;
#66 =( BOUNDED_SURFACE ( )  B_SPLINE_SURFACE ( 3, 3, ( 
 ( #170, #92, #95, #47 ),
 ( #22, #20, #173, #174 ),
 ( #239, #265, #135, #225 ),
 ( #2, #46, #44, #224 ) ),
 .UNSPECIFIED., .F., .F., .F. ) 
 B_SPLINE_SURFACE_WITH_KNOTS ( ( 4, 4 ),
 ( 4, 4 ),
 ( 0.0000000000000000000, 1.000000000000000000 ),
 ( 0.0000000000000000000, 1.000000000000000000 ),
 .UNSPECIFIED. ) 
 GEOMETRIC_REPRESENTATION_ITEM ( )  RATIONAL_B_SPLINE_SURFACE ( (
 ( 1.000000000000000000, 0.9994318890494232600, 0.9994318890494232600, 1.000000000000000000),
 ( 0.9977013641390462000, 0.9971345590686734300, 0.9971345590686734300, 0.9977013641390462000),
 ( 0.9977013641390462000, 0.9971345590686734300, 0.9971345590686734300, 0.9977013641390462000),
 ( 1.000000000000000000, 0.9994318890494232600, 0.9994318890494232600, 1.000000000000000000) ) ) 
 REPRESENTATION_ITEM ( '' )  SURFACE ( )  );
#67 = AXIS2_PLACEMENT_3D ( 'NONE', #246, #247, #181 ) ;
#68 = EDGE_LOOP ( 'NONE', ( #284, #122, #133 ) ) ;
#69 = APPROVAL ( #61, 'UNSPECIFIED' ) ;
#70 = PERSON_AND_ORGANIZATION ( #198, #230 ) ;
#71 = CC_DESIGN_DATE_AND_TIME_ASSIGNMENT ( #126, #166, ( #53 ) ) ;
#72 = EDGE_CURVE ( 'NONE', #266, #91, #5, .T. ) ;
#73 = CARTESIAN_POINT ( 'NONE',  ( 4.996003610813200500E-016, 2.442490654175340100E-015, 0.5215040881664749800 ) ) ;
#74 = PERSON_AND_ORGANIZATION ( #198, #230 ) ;
#75 = CARTESIAN_POINT ( 'NONE',  ( 4.269643611926899700, 4.293887220073502300, 4.178439514898822300 ) ) ;
#76 = CARTESIAN_POINT ( 'NONE',  ( 4.269643611926740700, -4.293887220073542300, -0.1784395148988117100 ) ) ;
#77 = CARTESIAN_POINT ( 'NONE',  ( -8.496430656132078600, -12.85205141077973300, 0.7095068972136982000 ) ) ;
#78 = DIRECTION ( 'NONE',  ( 0.0000000000000000000, 0.0000000000000000000, 1.000000000000000000 ) ) ;
#79 = DIRECTION ( 'NONE',  ( -0.0000000000000000000, -0.0000000000000000000, -1.000000000000000000 ) ) ;
#80 = VERTEX_POINT ( 'NONE', #219 ) ;
#81 = EDGE_CURVE ( 'NONE', #80, #228, #12, .T. ) ;
#82 = CARTESIAN_POINT ( 'NONE',  ( -12.73197610312366900, -12.85205141077973300, 1.060045634938638900 ) ) ;
#83 = CARTESIAN_POINT ( 'NONE',  ( 12.79074480222257500, 4.293887220073502300, 0.3499458111368232100 ) ) ;
#84 = CARTESIAN_POINT ( 'NONE',  ( -1.231653667943533000E-013, -12.85205141077973300, 0.5340880422925929900 ) ) ;
#85 = MECHANICAL_CONTEXT ( 'NONE', #58, 'mechanical' ) ;
#86 = DESIGN_CONTEXT ( 'detailed design', #33, 'design' ) ;
#87 = FACE_OUTER_BOUND ( 'NONE', #105, .T. ) ;
#88 = EDGE_CURVE ( 'NONE', #38, #266, #45, .T. ) ;
#89 = DATE_AND_TIME ( #63, #158 ) ;
#90 = CARTESIAN_POINT ( 'NONE',  ( 12.69999999999999900, 2.442490654175340100E-015, 3.478495911833519900 ) ) ;
#91 = VERTEX_POINT ( 'NONE', #90 ) ;
#92 = CARTESIAN_POINT ( 'NONE',  ( -4.250026192881254200, -12.85205141077973300, 3.465911957707402900 ) ) ;
#93 = CARTESIAN_POINT ( 'NONE',  ( -12.69999999999999900, 3.997792089092478900E-015, 3.478495911833519900 ) ) ;
#94 = ORIENTED_EDGE ( 'NONE', *, *, #88, .T. ) ;
#95 = CARTESIAN_POINT ( 'NONE',  ( -8.496430656131977300, -12.85205141077973300, 3.290493102786304500 ) ) ;
#96 =( BOUNDED_SURFACE ( )  B_SPLINE_SURFACE ( 3, 3, ( 
 ( #82, #77, #149, #84 ),
 ( #286, #56, #146, #59 ),
 ( #235, #232, #15, #254 ),
 ( #287, #257, #290, #34 ) ),
 .UNSPECIFIED., .F., .F., .F. ) 
 B_SPLINE_SURFACE_WITH_KNOTS ( ( 4, 4 ),
 ( 4, 4 ),
 ( 0.0000000000000000000, 1.000000000000000000 ),
 ( 0.0000000000000000000, 1.000000000000000000 ),
 .UNSPECIFIED. ) 
 GEOMETRIC_REPRESENTATION_ITEM ( )  RATIONAL_B_SPLINE_SURFACE ( (
 ( 1.000000000000000000, 0.9994318890494232600, 0.9994318890494232600, 1.000000000000000000),
 ( 0.9977013641390462000, 0.9971345590686734300, 0.9971345590686734300, 0.9977013641390462000),
 ( 0.9977013641390462000, 0.9971345590686734300, 0.9971345590686734300, 0.9977013641390462000),
 ( 1.000000000000000000, 0.9994318890494232600, 0.9994318890494232600, 1.000000000000000000) ) ) 
 REPRESENTATION_ITEM ( '' )  SURFACE ( )  );
#97 = CARTESIAN_POINT ( 'NONE',  ( 4.996003610813200500E-016, 2.442490654175340100E-015, 0.5215040881664749800 ) ) ;
#98 = LOCAL_TIME ( 16, 48, 56.00000000000000000, #50 ) ;
#99 = EDGE_CURVE ( 'NONE', #228, #195, #168, .T. ) ;
#100 = CARTESIAN_POINT ( 'NONE',  ( 8.496430656131977300, 12.85205141077969200, 0.7095068972137000800 ) ) ;
#101 =( NAMED_UNIT ( * ) PLANE_ANGLE_UNIT ( ) SI_UNIT ( $, .RADIAN. ) );
#102 = ADVANCED_FACE ( 'NONE', ( #104 ), #66, .T. ) ;
#103 = CARTESIAN_POINT ( 'NONE',  ( 0.0000000000000000000, 0.0000000000000000000, 0.0000000000000000000 ) ) ;
#104 = FACE_OUTER_BOUND ( 'NONE', #42, .T. ) ;
#105 = EDGE_LOOP ( 'NONE', ( #155, #138, #243, #185, #233, #259 ) ) ;
#106 = CC_DESIGN_PERSON_AND_ORGANIZATION_ASSIGNMENT ( #24, #213, ( #53 ) ) ;
#107 = PERSON_AND_ORGANIZATION_ROLE ( 'classification_officer' ) ;
#108 = ADVANCED_BREP_SHAPE_REPRESENTATION ( '111-0222E BK7 bi-cx 25.4 F150', ( #121, #222 ), #39 ) ;
#109 = LOCAL_TIME ( 16, 48, 56.00000000000000000, #250 ) ;
#110 = ORIENTED_EDGE ( 'NONE', *, *, #88, .F. ) ;
#111 = DIRECTION ( 'NONE',  ( 0.0000000000000000000, -1.000000000000000000, 0.0000000000000000000 ) ) ;
#112 = AXIS2_PLACEMENT_3D ( 'NONE', #130, #293, #134 ) ;
#113 = CARTESIAN_POINT ( 'NONE',  ( 8.496430656132078600, -12.85205141077973300, 3.290493102786305800 ) ) ;
#114 = CARTESIAN_POINT ( 'NONE',  ( 4.996003610813200500E-016, 2.442490654175340100E-015, 0.5215040881664749800 ) ) ;
#115 = CARTESIAN_POINT ( 'NONE',  ( 12.79074480222262400, -4.293887220073543200, 3.650054188863185400 ) ) ;
#116 = CARTESIAN_POINT ( 'NONE',  ( 8.496430656132078600, 12.85205141077969200, 3.290493102786305800 ) ) ;
#117 = AXIS2_PLACEMENT_3D ( 'NONE', #73, #223, #241 ) ;
#118 = APPROVAL_DATE_TIME ( #220, #240 ) ;
#119 = CIRCLE ( 'NONE', #65, 12.69999999999999900 ) ;
#120 = VECTOR ( 'NONE', #125, 1000.000000000000000 ) ;
#121 = MANIFOLD_SOLID_BREP ( 'Imported1', #150 ) ;
#122 = ORIENTED_EDGE ( 'NONE', *, *, #183, .T. ) ;
#123 = APPLICATION_PROTOCOL_DEFINITION ( 'international standard', 'config_control_design', 1994, #58 ) ;
#124 = PERSON_AND_ORGANIZATION_ROLE ( 'creator' ) ;
#125 = DIRECTION ( 'NONE',  ( 0.0000000000000000000, 0.0000000000000000000, 1.000000000000000000 ) ) ;
#126 = DATE_AND_TIME ( #127, #109 ) ;
#127 = CALENDAR_DATE ( 2019, 9, 1 ) ;
#128 = EDGE_LOOP ( 'NONE', ( #262, #276, #216, #203, #169, #14 ) ) ;
#129 = CC_DESIGN_APPROVAL ( #69, ( #53 ) ) ;
#130 = CARTESIAN_POINT ( 'NONE',  ( 4.996003610813200500E-016, 2.442490654175340100E-015, 3.478495911833519900 ) ) ;
#131 = CARTESIAN_POINT ( 'NONE',  ( 4.996003610813200500E-016, 2.442490654175340100E-015, 0.5215040881664749800 ) ) ;
#132 = AXIS2_PLACEMENT_3D ( 'NONE', #136, #3, #156 ) ;
#133 = ORIENTED_EDGE ( 'NONE', *, *, #99, .T. ) ;
#134 = DIRECTION ( 'NONE',  ( 1.000000000000000000, 1.776356839400250500E-015, 0.0000000000000000000 ) ) ;
#135 = CARTESIAN_POINT ( 'NONE',  ( -8.535648776917078400, 4.293887220073502300, 4.002210955512546200 ) ) ;
#136 = CARTESIAN_POINT ( 'NONE',  ( -2.842170943040400100E-014, -2.842170943040400100E-014, 154.9000000000000100 ) ) ;
#137 = PERSON_AND_ORGANIZATION ( #198, #230 ) ;
#138 = ORIENTED_EDGE ( 'NONE', *, *, #210, .F. ) ;
#139 = AXIS2_PLACEMENT_3D ( 'NONE', #196, #171, #111 ) ;
#140 = CARTESIAN_POINT ( 'NONE',  ( 4.269643611926899700, -4.293887220073542300, 4.178439514898821400 ) ) ;
#141 = CARTESIAN_POINT ( 'NONE',  ( 1.231653667943533000E-013, 12.85205141077969200, 3.465911957707410500 ) ) ;
#142 = CARTESIAN_POINT ( 'NONE',  ( -8.722658698402792700E-014, -4.293887220073543200, -0.1784395148988100800 ) ) ;
#143 = CARTESIAN_POINT ( 'NONE',  ( 12.73197610312361900, -12.85205141077973300, 1.060045634938645300 ) ) ;
#144 = PRODUCT_DEFINITION_SHAPE ( 'NONE', 'NONE',  #53 ) ;
#145 = ADVANCED_FACE ( 'NONE', ( #163 ), #175, .T. ) ;
#146 = CARTESIAN_POINT ( 'NONE',  ( -4.269643611926897900, -4.293887220073542300, -0.1784395148988165100 ) ) ;
#147 = ORIENTED_EDGE ( 'NONE', *, *, #31, .F. ) ;
#148 = CARTESIAN_POINT ( 'NONE',  ( 12.69999999999999900, 2.442490654175340100E-015, 0.5215040881664749800 ) ) ;
#149 = CARTESIAN_POINT ( 'NONE',  ( -4.250026192881411400, -12.85205141077973300, 0.5340880422925955400 ) ) ;
#150 = CLOSED_SHELL ( 'NONE', ( #231, #102, #145, #54, #60, #189 ) ) ;
#151 = CIRCLE ( 'NONE', #67, 12.69999999999999900 ) ;
#152 = ORIENTED_EDGE ( 'NONE', *, *, #226, .F. ) ;
#153 = DIRECTION ( 'NONE',  ( -0.0000000000000000000, -0.0000000000000000000, -1.000000000000000000 ) ) ;
#154 = LOCAL_TIME ( 16, 48, 56.00000000000000000, #167 ) ;
#155 = ORIENTED_EDGE ( 'NONE', *, *, #8, .F. ) ;
#156 = DIRECTION ( 'NONE',  ( 0.0000000000000000000, -1.000000000000000000, 0.0000000000000000000 ) ) ;
#157 = CARTESIAN_POINT ( 'NONE',  ( 12.79074480222262400, 4.293887220073502300, 3.650054188863186300 ) ) ;
#158 = LOCAL_TIME ( 16, 48, 56.00000000000000000, #291 ) ;
#159 = CARTESIAN_POINT ( 'NONE',  ( 8.535648776917078400, -4.293887220073542300, -0.002210955512541696300 ) ) ;
#160 = APPROVAL_DATE_TIME ( #221, #211 ) ;
#161 = APPROVAL_ROLE ( '' ) ;
#162 = APPROVAL_STATUS ( 'not_yet_approved' ) ;
#163 = FACE_OUTER_BOUND ( 'NONE', #128, .T. ) ;
#164 = CIRCLE ( 'NONE', #288, 12.69999999999999900 ) ;
#165 = PERSON_AND_ORGANIZATION_ROLE ( 'design_owner' ) ;
#166 = DATE_TIME_ROLE ( 'creation_date' ) ;
#167 = COORDINATED_UNIVERSAL_TIME_OFFSET ( 2, 0, .AHEAD. ) ;
#168 = CIRCLE ( 'NONE', #48, 12.69999999999999900 ) ;
#169 = ORIENTED_EDGE ( 'NONE', *, *, #269, .F. ) ;
#170 = CARTESIAN_POINT ( 'NONE',  ( 8.695640051655188300E-014, -12.85205141077973300, 3.465911957707401600 ) ) ;
#171 = DIRECTION ( 'NONE',  ( -1.000000000000000000, 0.0000000000000000000, 3.791944111481360200E-016 ) ) ;
#172 = PERSON_AND_ORGANIZATION ( #198, #230 ) ;
#173 = CARTESIAN_POINT ( 'NONE',  ( -8.535648776917078400, -4.293887220073542300, 4.002210955512545400 ) ) ;
#174 = CARTESIAN_POINT ( 'NONE',  ( -12.79074480222257500, -4.293887220073543200, 3.650054188863178800 ) ) ;
#175 = CYLINDRICAL_SURFACE ( 'NONE', #117, 12.69999999999999900 ) ;
#176 = PRODUCT ( '111-0222E BK7 bi-cx 25.4 F150', '111-0222E BK7 bi-cx 25.4 F150', '', ( #85 ) ) ;
#177 = PRODUCT_DEFINITION_FORMATION_WITH_SPECIFIED_SOURCE ( 'ANY', '', #176, .NOT_KNOWN. ) ;
#178 = DIRECTION ( 'NONE',  ( -0.0000000000000000000, -0.0000000000000000000, -1.000000000000000000 ) ) ;
#179 = DIRECTION ( 'NONE',  ( 1.000000000000000000, 0.0000000000000000000, 0.0000000000000000000 ) ) ;
#180 = APPROVAL_PERSON_ORGANIZATION ( #275, #69, #161 ) ;
#181 = DIRECTION ( 'NONE',  ( 1.000000000000000000, 0.0000000000000000000, 0.0000000000000000000 ) ) ;
#182 = CARTESIAN_POINT ( 'NONE',  ( -8.696117228162664400E-014, 12.70000000000001500, 0.5215040881664775300 ) ) ;
#183 = EDGE_CURVE ( 'NONE', #28, #228, #214, .T. ) ;
#184 = APPROVAL_PERSON_ORGANIZATION ( #70, #211, #255 ) ;
#185 = ORIENTED_EDGE ( 'NONE', *, *, #269, .T. ) ;
#186 = CARTESIAN_POINT ( 'NONE',  ( 4.269643611926740700, 4.293887220073502300, -0.1784395148988125700 ) ) ;
#187 = CARTESIAN_POINT ( 'NONE',  ( 4.996003610813200500E-016, 2.442490654175340100E-015, 3.478495911833519900 ) ) ;
#188 = DIRECTION ( 'NONE',  ( -0.0000000000000000000, -0.0000000000000000000, -1.000000000000000000 ) ) ;
#189 = ADVANCED_FACE ( 'NONE', ( #271 ), #209, .T. ) ;
#190 = APPLICATION_PROTOCOL_DEFINITION ( 'international standard', 'config_control_design', 1994, #33 ) ;
#191 = DATE_TIME_ROLE ( 'classification_date' ) ;
#192 = DATE_AND_TIME ( #37, #154 ) ;
#193 = VERTEX_POINT ( 'NONE', #93 ) ;
#194 = LOCAL_TIME ( 16, 48, 56.00000000000000000, #258 ) ;
#195 = VERTEX_POINT ( 'NONE', #274 ) ;
#196 = CARTESIAN_POINT ( 'NONE',  ( 2.842170943040400100E-014, -2.842170943040400100E-014, -150.9000000000000100 ) ) ;
#197 = CARTESIAN_POINT ( 'NONE',  ( 1.231653667943533000E-013, -12.85205141077973300, 3.465911957707410500 ) ) ;
#198 = PERSON ( 'UNSPECIFIED', 'UNSPECIFIED', 'UNSPECIFIED', ('UNSPECIFIED'), ('UNSPECIFIED'), ('UNSPECIFIED') ) ;
#199 = FACE_OUTER_BOUND ( 'NONE', #68, .T. ) ;
#200 = EDGE_CURVE ( 'NONE', #195, #28, #151, .T. ) ;
#201 = ORIENTED_EDGE ( 'NONE', *, *, #210, .T. ) ;
#202 = CARTESIAN_POINT ( 'NONE',  ( 8.535648776917179600, 4.293887220073502300, 4.002210955512548900 ) ) ;
#203 = ORIENTED_EDGE ( 'NONE', *, *, #72, .T. ) ;
#204 = CC_DESIGN_PERSON_AND_ORGANIZATION_ASSIGNMENT ( #137, #124, ( #177 ) ) ;
#205 = CARTESIAN_POINT ( 'NONE',  ( 4.250026192881254200, -12.85205141077973300, 0.5340880422926003200 ) ) ;
#206 = ORIENTED_EDGE ( 'NONE', *, *, #183, .F. ) ;
#207 = CARTESIAN_POINT ( 'NONE',  ( -8.722658698402792700E-014, 4.293887220073502300, -0.1784395148988109400 ) ) ;
#208 = CARTESIAN_POINT ( 'NONE',  ( 8.696117228162663100E-014, -12.70000000000004200, 3.478495911833521700 ) ) ;
#209 =( BOUNDED_SURFACE ( )  B_SPLINE_SURFACE ( 3, 3, ( 
 ( #244, #113, #267, #197 ),
 ( #115, #268, #140, #6 ),
 ( #157, #202, #75, #227 ),
 ( #245, #116, #270, #141 ) ),
 .UNSPECIFIED., .F., .F., .F. ) 
 B_SPLINE_SURFACE_WITH_KNOTS ( ( 4, 4 ),
 ( 4, 4 ),
 ( 0.0000000000000000000, 1.000000000000000000 ),
 ( 0.0000000000000000000, 1.000000000000000000 ),
 .UNSPECIFIED. ) 
 GEOMETRIC_REPRESENTATION_ITEM ( )  RATIONAL_B_SPLINE_SURFACE ( (
 ( 1.000000000000000000, 0.9994318890494232600, 0.9994318890494232600, 1.000000000000000000),
 ( 0.9977013641390462000, 0.9971345590686734300, 0.9971345590686734300, 0.9977013641390462000),
 ( 0.9977013641390462000, 0.9971345590686734300, 0.9971345590686734300, 0.9977013641390462000),
 ( 1.000000000000000000, 0.9994318890494232600, 0.9994318890494232600, 1.000000000000000000) ) ) 
 REPRESENTATION_ITEM ( '' )  SURFACE ( )  );
#210 = EDGE_CURVE ( 'NONE', #28, #80, #217, .T. ) ;
#211 = APPROVAL ( #212, 'UNSPECIFIED' ) ;
#212 = APPROVAL_STATUS ( 'not_yet_approved' ) ;
#213 = PERSON_AND_ORGANIZATION_ROLE ( 'creator' ) ;
#214 = CIRCLE ( 'NONE', #132, 154.9000000000000100 ) ;
#215 = PRODUCT_RELATED_PRODUCT_CATEGORY ( 'detail', '', ( #176 ) ) ;
#216 = ORIENTED_EDGE ( 'NONE', *, *, #226, .T. ) ;
#217 = CIRCLE ( 'NONE', #36, 12.69999999999999900 ) ;
#218 = VECTOR ( 'NONE', #278, 1000.000000000000000 ) ;
#219 = CARTESIAN_POINT ( 'NONE',  ( -12.69999999999999900, 3.997792089092478900E-015, 0.5215040881664749800 ) ) ;
#220 = DATE_AND_TIME ( #261, #194 ) ;
#221 = DATE_AND_TIME ( #9, #98 ) ;
#222 = AXIS2_PLACEMENT_3D ( 'NONE', #103, #78, #281 ) ;
#223 = DIRECTION ( 'NONE',  ( 0.0000000000000000000, 0.0000000000000000000, 1.000000000000000000 ) ) ;
#224 = CARTESIAN_POINT ( 'NONE',  ( -12.73197610312361900, 12.85205141077969200, 2.939954365061358700 ) ) ;
#225 = CARTESIAN_POINT ( 'NONE',  ( -12.79074480222257500, 4.293887220073502300, 3.650054188863179700 ) ) ;
#226 = EDGE_CURVE ( 'NONE', #193, #266, #119, .T. ) ;
#227 = CARTESIAN_POINT ( 'NONE',  ( 1.249000902703301100E-013, 4.293887220073502300, 4.178439514898823100 ) ) ;
#228 = VERTEX_POINT ( 'NONE', #182 ) ;
#229 = CARTESIAN_POINT ( 'NONE',  ( 4.996003610813200500E-016, 2.442490654175340100E-015, 3.478495911833519900 ) ) ;
#230 = ORGANIZATION ( 'UNSPECIFIED', 'UNSPECIFIED', '' ) ;
#231 = ADVANCED_FACE ( 'NONE', ( #199 ), #25, .T. ) ;
#232 = CARTESIAN_POINT ( 'NONE',  ( -8.535648776917179600, 4.293887220073502300, -0.002210955512544515200 ) ) ;
#233 = ORIENTED_EDGE ( 'NONE', *, *, #294, .T. ) ;
#234 = CARTESIAN_POINT ( 'NONE',  ( 4.996003610813200500E-016, 2.442490654175340100E-015, 3.478495911833519900 ) ) ;
#235 = CARTESIAN_POINT ( 'NONE',  ( -12.79074480222262400, 4.293887220073502300, 0.3499458111368167200 ) ) ;
#236 =( LENGTH_UNIT ( ) NAMED_UNIT ( * ) SI_UNIT ( .MILLI., .METRE. ) );
#237 = PERSON_AND_ORGANIZATION_ROLE ( 'design_supplier' ) ;
#238 = PERSON_AND_ORGANIZATION ( #198, #230 ) ;
#239 = CARTESIAN_POINT ( 'NONE',  ( 8.722658698402790200E-014, 4.293887220073502300, 4.178439514898814300 ) ) ;
#240 = APPROVAL ( #162, 'UNSPECIFIED' ) ;
#241 = DIRECTION ( 'NONE',  ( 1.000000000000000000, 0.0000000000000000000, 0.0000000000000000000 ) ) ;
#242 = PERSON_AND_ORGANIZATION ( #198, #230 ) ;
#243 = ORIENTED_EDGE ( 'NONE', *, *, #200, .F. ) ;
#244 = CARTESIAN_POINT ( 'NONE',  ( 12.73197610312366900, -12.85205141077973300, 2.939954365061364400 ) ) ;
#245 = CARTESIAN_POINT ( 'NONE',  ( 12.73197610312366900, 12.85205141077969200, 2.939954365061364400 ) ) ;
#246 = CARTESIAN_POINT ( 'NONE',  ( 4.996003610813200500E-016, 2.442490654175340100E-015, 0.5215040881664749800 ) ) ;
#247 = DIRECTION ( 'NONE',  ( -0.0000000000000000000, -0.0000000000000000000, -1.000000000000000000 ) ) ;
#248 = DIRECTION ( 'NONE',  ( 1.000000000000000000, -8.881784197001252300E-016, 0.0000000000000000000 ) ) ;
#249 = CARTESIAN_POINT ( 'NONE',  ( 8.496430656131977300, -12.85205141077973300, 0.7095068972137000800 ) ) ;
#250 = COORDINATED_UNIVERSAL_TIME_OFFSET ( 2, 0, .AHEAD. ) ;
#251 = CARTESIAN_POINT ( 'NONE',  ( 4.250026192881254200, 12.85205141077969200, 0.5340880422926003200 ) ) ;
#252 =( NAMED_UNIT ( * ) SI_UNIT ( $, .STERADIAN. ) SOLID_ANGLE_UNIT ( ) );
#253 = CARTESIAN_POINT ( 'NONE',  ( 8.696117228162663100E-014, 12.70000000000001500, 3.478495911833521700 ) ) ;
#254 = CARTESIAN_POINT ( 'NONE',  ( -1.231653667943533300E-013, 4.293887220073502300, -0.1784395148988199300 ) ) ;
#255 = APPROVAL_ROLE ( '' ) ;
#256 = CARTESIAN_POINT ( 'NONE',  ( 4.996003610813200500E-016, 2.442490654175340100E-015, 0.5215040881664749800 ) ) ;
#257 = CARTESIAN_POINT ( 'NONE',  ( -8.496430656132078600, 12.85205141077969200, 0.7095068972136982000 ) ) ;
#258 = COORDINATED_UNIVERSAL_TIME_OFFSET ( 2, 0, .AHEAD. ) ;
#259 = ORIENTED_EDGE ( 'NONE', *, *, #31, .T. ) ;
#260 = SECURITY_CLASSIFICATION ( '', '', #55 ) ;
#261 = CALENDAR_DATE ( 2019, 9, 1 ) ;
#262 = ORIENTED_EDGE ( 'NONE', *, *, #81, .F. ) ;
#263 = DIRECTION ( 'NONE',  ( 1.000000000000000000, -8.881784197001252300E-016, 0.0000000000000000000 ) ) ;
#264 = APPROVAL_PERSON_ORGANIZATION ( #242, #240, #29 ) ;
#265 = CARTESIAN_POINT ( 'NONE',  ( -4.269643611926740700, 4.293887220073502300, 4.178439514898817800 ) ) ;
#266 = VERTEX_POINT ( 'NONE', #253 ) ;
#267 = CARTESIAN_POINT ( 'NONE',  ( 4.250026192881411400, -12.85205141077973300, 3.465911957707407300 ) ) ;
#268 = CARTESIAN_POINT ( 'NONE',  ( 8.535648776917179600, -4.293887220073542300, 4.002210955512548000 ) ) ;
#269 = EDGE_CURVE ( 'NONE', #195, #91, #40, .T. ) ;
#270 = CARTESIAN_POINT ( 'NONE',  ( 4.250026192881411400, 12.85205141077969200, 3.465911957707407300 ) ) ;
#271 = FACE_OUTER_BOUND ( 'NONE', #7, .T. ) ;
#272 = ORIENTED_EDGE ( 'NONE', *, *, #81, .T. ) ;
#273 = CC_DESIGN_APPROVAL ( #211, ( #177 ) ) ;
#274 = CARTESIAN_POINT ( 'NONE',  ( 12.69999999999999900, 2.442490654175340100E-015, 0.5215040881664749800 ) ) ;
#275 = PERSON_AND_ORGANIZATION ( #198, #230 ) ;
#276 = ORIENTED_EDGE ( 'NONE', *, *, #8, .T. ) ;
#277 = CC_DESIGN_PERSON_AND_ORGANIZATION_ASSIGNMENT ( #172, #107, ( #260 ) ) ;
#278 = DIRECTION ( 'NONE',  ( 0.0000000000000000000, 0.0000000000000000000, 1.000000000000000000 ) ) ;
#279 = CARTESIAN_POINT ( 'NONE',  ( 12.73197610312361900, 12.85205141077969200, 1.060045634938645300 ) ) ;
#280 = CC_DESIGN_APPROVAL ( #240, ( #260 ) ) ;
#281 = DIRECTION ( 'NONE',  ( 1.000000000000000000, 0.0000000000000000000, 0.0000000000000000000 ) ) ;
#282 = CARTESIAN_POINT ( 'NONE',  ( -8.696117228162664400E-014, -12.70000000000004200, 0.5215040881664775300 ) ) ;
#283 = CIRCLE ( 'NONE', #289, 12.69999999999999900 ) ;
#284 = ORIENTED_EDGE ( 'NONE', *, *, #200, .T. ) ;
#285 = DIRECTION ( 'NONE',  ( 1.000000000000000000, 0.0000000000000000000, 0.0000000000000000000 ) ) ;
#286 = CARTESIAN_POINT ( 'NONE',  ( -12.79074480222262400, -4.293887220073543200, 0.3499458111368176100 ) ) ;
#287 = CARTESIAN_POINT ( 'NONE',  ( -12.73197610312366900, 12.85205141077969200, 1.060045634938638900 ) ) ;
#288 = AXIS2_PLACEMENT_3D ( 'NONE', #187, #79, #13 ) ;
#289 = AXIS2_PLACEMENT_3D ( 'NONE', #234, #188, #285 ) ;
#290 = CARTESIAN_POINT ( 'NONE',  ( -4.250026192881411400, 12.85205141077969200, 0.5340880422925955400 ) ) ;
#291 = COORDINATED_UNIVERSAL_TIME_OFFSET ( 2, 0, .AHEAD. ) ;
#292 = EDGE_LOOP ( 'NONE', ( #206, #201, #272 ) ) ;
#293 = DIRECTION ( 'NONE',  ( -0.0000000000000000000, -0.0000000000000000000, -1.000000000000000000 ) ) ;
#294 = EDGE_CURVE ( 'NONE', #91, #38, #283, .T. ) ;
#295 = DIRECTION ( 'NONE',  ( -0.0000000000000000000, -0.0000000000000000000, -1.000000000000000000 ) ) ;
ENDSEC;
END-ISO-10303-21;
