ISO-10303-21;
HEADER;
FILE_DESCRIPTION (( 'STEP AP203' ),
    '1' );
FILE_NAME ('111-0218E BK7 bi-cx 25.4 F100.STEP',
    '2019-01-09T14:07:28',
    ( '' ),
    ( '' ),
    'SwSTEP 2.0',
    'SolidWorks 2017',
    '' );
FILE_SCHEMA (( 'CONFIG_CONTROL_DESIGN' ));
ENDSEC;

DATA;
#1 = SECURITY_CLASSIFICATION_LEVEL ( 'unclassified' ) ;
#2 = ORIENTED_EDGE ( 'NONE', *, *, #103, .T. ) ;
#3 = ADVANCED_BREP_SHAPE_REPRESENTATION ( '111-0218E BK7 bi-cx 25.4 F100', ( #93, #280 ), #118 ) ;
#4 = CARTESIAN_POINT ( 'NONE',  ( -1.523450463755430900E-014, 4.306261170201063100, -0.2694425630608908200 ) ) ;
#5 = ORIENTED_EDGE ( 'NONE', *, *, #20, .F. ) ;
#6 = EDGE_CURVE ( 'NONE', #87, #289, #295, .T. ) ;
#7 = SECURITY_CLASSIFICATION ( '', '', #1 ) ;
#8 = ORIENTED_EDGE ( 'NONE', *, *, #52, .T. ) ;
#9 = CARTESIAN_POINT ( 'NONE',  ( -4.239003881715475200, -12.85161045800833100, 0.8041246743759776800 ) ) ;
#10 = AXIS2_PLACEMENT_3D ( 'NONE', #184, #89, #245 ) ;
#11 = DIRECTION ( 'NONE',  ( 1.000000000000000000, 0.0000000000000000000, 0.0000000000000000000 ) ) ;
#12 = CIRCLE ( 'NONE', #57, 103.0999999999999900 ) ;
#13 = ORIENTED_EDGE ( 'NONE', *, *, #68, .T. ) ;
#14 = CARTESIAN_POINT ( 'NONE',  ( -12.67616428382406800, 12.85161045800832200, 2.407442917675333600 ) ) ;
#15 =( NAMED_UNIT ( * ) SI_UNIT ( $, .STERADIAN. ) SOLID_ANGLE_UNIT ( ) );
#16 = EDGE_LOOP ( 'NONE', ( #66, #5, #122, #91, #233, #2 ) ) ;
#17 = APPLICATION_CONTEXT ( 'configuration controlled 3d designs of mechanical parts and assemblies' ) ;
#18 = PERSON_AND_ORGANIZATION ( #224, #117 ) ;
#19 = DIRECTION ( 'NONE',  ( -0.0000000000000000000, -0.0000000000000000000, -1.000000000000000000 ) ) ;
#20 = EDGE_CURVE ( 'NONE', #127, #177, #246, .T. ) ;
#21 = DATE_TIME_ROLE ( 'classification_date' ) ;
#22 = DIRECTION ( 'NONE',  ( 1.000000000000000000, 0.0000000000000000000, 0.0000000000000000000 ) ) ;
#23 = DIRECTION ( 'NONE',  ( 0.0000000000000000000, 0.0000000000000000000, 1.000000000000000000 ) ) ;
#24 = AXIS2_PLACEMENT_3D ( 'NONE', #281, #32, #134 ) ;
#25 = DIRECTION ( 'NONE',  ( 1.000000000000000000, 8.881784197001252300E-016, 0.0000000000000000000 ) ) ;
#26 = CARTESIAN_POINT ( 'NONE',  ( 4.239003881715426300, -12.85161045800833100, 0.8041246743759876700 ) ) ;
#27 = APPROVAL_DATE_TIME ( #290, #141 ) ;
#28 = CARTESIAN_POINT ( 'NONE',  ( 4.996003610813200500E-016, 2.442490654175340100E-015, 0.7851916876154260100 ) ) ;
#29 = ORIENTED_EDGE ( 'NONE', *, *, #173, .T. ) ;
#30 = CARTESIAN_POINT ( 'NONE',  ( -8.558720554191864900, -4.306261170201074700, -0.003531724208808134000 ) ) ;
#31 = PRODUCT_DEFINITION_FORMATION_WITH_SPECIFIED_SOURCE ( 'ANY', '', #139, .NOT_KNOWN. ) ;
#32 = DIRECTION ( 'NONE',  ( -0.0000000000000000000, -0.0000000000000000000, -1.000000000000000000 ) ) ;
#33 = CARTESIAN_POINT ( 'NONE',  ( -12.80919716152477900, -4.306261170201070200, 3.472735772597642400 ) ) ;
#34 = AXIS2_PLACEMENT_3D ( 'NONE', #85, #107, #108 ) ;
#35 = DATE_AND_TIME ( #100, #169 ) ;
#36 = DIRECTION ( 'NONE',  ( -0.0000000000000000000, -0.0000000000000000000, -1.000000000000000000 ) ) ;
#37 = APPLICATION_CONTEXT ( 'configuration controlled 3d designs of mechanical parts and assemblies' ) ;
#38 = FACE_OUTER_BOUND ( 'NONE', #16, .T. ) ;
#39 = APPROVAL_ROLE ( '' ) ;
#40 = APPLICATION_PROTOCOL_DEFINITION ( 'international standard', 'config_control_design', 1994, #37 ) ;
#41 = VERTEX_POINT ( 'NONE', #238 ) ;
#42 = CARTESIAN_POINT ( 'NONE',  ( 4.283491068244610600, -4.306261170201074700, -0.2694425630608932000 ) ) ;
#43 = CARTESIAN_POINT ( 'NONE',  ( 8.558720554191824100, -4.306261170201074700, -0.003531724208805857100 ) ) ;
#44 = CARTESIAN_POINT ( 'NONE',  ( 12.80919716152478000, -4.306261170201075600, 0.5272642274023610100 ) ) ;
#45 = LINE ( 'NONE', #167, #207 ) ;
#46 =( BOUNDED_SURFACE ( )  B_SPLINE_SURFACE ( 3, 3, ( 
 ( #98, #172, #9, #252 ),
 ( #259, #30, #104, #56 ),
 ( #152, #80, #53, #258 ),
 ( #102, #154, #178, #175 ) ),
 .UNSPECIFIED., .F., .F., .T. ) 
 B_SPLINE_SURFACE_WITH_KNOTS ( ( 4, 4 ),
 ( 4, 4 ),
 ( 0.0000000000000000000, 1.000000000000000000 ),
 ( 0.0000000000000000000, 1.000000000000000000 ),
 .UNSPECIFIED. ) 
 GEOMETRIC_REPRESENTATION_ITEM ( )  RATIONAL_B_SPLINE_SURFACE ( (
 ( 1.000000000000000000, 0.9987141979651971100, 0.9987141979651971100, 1.000000000000000000),
 ( 0.9948003577473262200, 0.9935212414231120400, 0.9935212414231120400, 0.9948003577473262200),
 ( 0.9948003577473262200, 0.9935212414231120400, 0.9935212414231120400, 0.9948003577473262200),
 ( 1.000000000000000000, 0.9987141979651971100, 0.9987141979651971100, 1.000000000000000000) ) ) 
 REPRESENTATION_ITEM ( '' )  SURFACE ( )  );
#47 = CARTESIAN_POINT ( 'NONE',  ( 4.283491068244610600, 4.306261170201062200, -0.2694425630608920400 ) ) ;
#48 = ADVANCED_FACE ( 'NONE', ( #38 ), #126, .T. ) ;
#49 = APPROVAL_PERSON_ORGANIZATION ( #244, #285, #249 ) ;
#50 = CARTESIAN_POINT ( 'NONE',  ( 8.469831983705933700, -12.85161045800832500, 2.932726165248593200 ) ) ;
#51 = CARTESIAN_POINT ( 'NONE',  ( 1.493408621865894500E-014, -12.70000000000002800, 3.214808312384577900 ) ) ;
#52 = EDGE_CURVE ( 'NONE', #177, #41, #219, .T. ) ;
#53 = CARTESIAN_POINT ( 'NONE',  ( -4.283491068244662100, 4.306261170201062200, -0.2694425630609019700 ) ) ;
#54 =( BOUNDED_SURFACE ( )  B_SPLINE_SURFACE ( 3, 3, ( 
 ( #133, #50, #101, #218 ),
 ( #260, #213, #254, #130 ),
 ( #77, #138, #221, #234 ),
 ( #181, #223, #201, #58 ) ),
 .UNSPECIFIED., .F., .F., .F. ) 
 B_SPLINE_SURFACE_WITH_KNOTS ( ( 4, 4 ),
 ( 4, 4 ),
 ( 0.0000000000000000000, 1.000000000000000000 ),
 ( 0.0000000000000000000, 1.000000000000000000 ),
 .UNSPECIFIED. ) 
 GEOMETRIC_REPRESENTATION_ITEM ( )  RATIONAL_B_SPLINE_SURFACE ( (
 ( 1.000000000000000000, 0.9987141979651971100, 0.9987141979651971100, 1.000000000000000000),
 ( 0.9948003577473262200, 0.9935212414231120400, 0.9935212414231120400, 0.9948003577473262200),
 ( 0.9948003577473262200, 0.9935212414231120400, 0.9935212414231120400, 0.9948003577473262200),
 ( 1.000000000000000000, 0.9987141979651971100, 0.9987141979651971100, 1.000000000000000000) ) ) 
 REPRESENTATION_ITEM ( '' )  SURFACE ( )  );
#55 = EDGE_LOOP ( 'NONE', ( #94, #251, #229 ) ) ;
#56 = CARTESIAN_POINT ( 'NONE',  ( -3.989863994746656300E-014, -4.306261170201075600, -0.2694425630609051400 ) ) ;
#57 = AXIS2_PLACEMENT_3D ( 'NONE', #284, #232, #155 ) ;
#58 = CARTESIAN_POINT ( 'NONE',  ( 3.989863994746656300E-014, 12.85161045800832200, 3.195875325624028700 ) ) ;
#59 = CIRCLE ( 'NONE', #194, 12.69999999999999900 ) ;
#60 = ORIENTED_EDGE ( 'NONE', *, *, #173, .F. ) ;
#61 = COORDINATED_UNIVERSAL_TIME_OFFSET ( 2, 0, .AHEAD. ) ;
#62 = CARTESIAN_POINT ( 'NONE',  ( 1.523450463755430900E-014, 4.306261170201068500, 4.269442563060894500 ) ) ;
#63 = CC_DESIGN_PERSON_AND_ORGANIZATION_ASSIGNMENT ( #67, #293, ( #31 ) ) ;
#64 = CARTESIAN_POINT ( 'NONE',  ( 4.996003610813200500E-016, 2.442490654175340100E-015, 0.7851916876154260100 ) ) ;
#65 = LOCAL_TIME ( 16, 7, 28.00000000000000000, #61 ) ;
#66 = ORIENTED_EDGE ( 'NONE', *, *, #68, .F. ) ;
#67 = PERSON_AND_ORGANIZATION ( #224, #117 ) ;
#68 = EDGE_CURVE ( 'NONE', #177, #87, #45, .T. ) ;
#69 = APPROVAL_STATUS ( 'not_yet_approved' ) ;
#70 = CARTESIAN_POINT ( 'NONE',  ( 12.69999999999999900, 2.442490654175340100E-015, 0.7851916876154260100 ) ) ;
#71 = CARTESIAN_POINT ( 'NONE',  ( 12.80919716152478000, 4.306261170201063100, 0.5272642274023620100 ) ) ;
#72 = ADVANCED_FACE ( 'NONE', ( #150 ), #216, .T. ) ;
#73 = CARTESIAN_POINT ( 'NONE',  ( 12.67616428382406800, 12.85161045800831700, 1.592557082324669700 ) ) ;
#74 = CARTESIAN_POINT ( 'NONE',  ( -1.493408621865895100E-014, -12.70000000000002800, 0.7851916876154267900 ) ) ;
#75 = CC_DESIGN_APPROVAL ( #240, ( #31 ) ) ;
#76 = DIRECTION ( 'NONE',  ( 1.000000000000000000, 0.0000000000000000000, 0.0000000000000000000 ) ) ;
#77 = CARTESIAN_POINT ( 'NONE',  ( 12.80919716152481600, 4.306261170201068500, 3.472735772597642400 ) ) ;
#78 = ORIENTED_EDGE ( 'NONE', *, *, #215, .T. ) ;
#79 = CARTESIAN_POINT ( 'NONE',  ( 4.996003610813200500E-016, 2.442490654175340100E-015, 3.214808312384580100 ) ) ;
#80 = CARTESIAN_POINT ( 'NONE',  ( -8.558720554191864900, 4.306261170201062200, -0.003531724208807050200 ) ) ;
#81 = CARTESIAN_POINT ( 'NONE',  ( 1.493408621865894800E-014, 12.70000000000002900, 3.214808312384577900 ) ) ;
#82 = CIRCLE ( 'NONE', #24, 12.69999999999999900 ) ;
#83 = CARTESIAN_POINT ( 'NONE',  ( -12.69999999999999900, 3.997792089092478900E-015, 0.7851916876154260100 ) ) ;
#84 = DIRECTION ( 'NONE',  ( -0.0000000000000000000, -0.0000000000000000000, -1.000000000000000000 ) ) ;
#85 = CARTESIAN_POINT ( 'NONE',  ( 4.996003610813200500E-016, 2.442490654175340100E-015, 0.7851916876154260100 ) ) ;
#86 = DIRECTION ( 'NONE',  ( -0.0000000000000000000, -0.0000000000000000000, -1.000000000000000000 ) ) ;
#87 = VERTEX_POINT ( 'NONE', #124 ) ;
#88 = DIRECTION ( 'NONE',  ( 1.000000000000000000, 0.0000000000000000000, 0.0000000000000000000 ) ) ;
#89 = DIRECTION ( 'NONE',  ( 0.0000000000000000000, 0.0000000000000000000, 1.000000000000000000 ) ) ;
#90 = AXIS2_PLACEMENT_3D ( 'NONE', #267, #110, #158 ) ;
#91 = ORIENTED_EDGE ( 'NONE', *, *, #164, .T. ) ;
#92 = COORDINATED_UNIVERSAL_TIME_OFFSET ( 2, 0, .AHEAD. ) ;
#93 = MANIFOLD_SOLID_BREP ( 'Imported1', #241 ) ;
#94 = ORIENTED_EDGE ( 'NONE', *, *, #103, .F. ) ;
#95 = PERSON_AND_ORGANIZATION ( #224, #117 ) ;
#96 = CARTESIAN_POINT ( 'NONE',  ( 4.239003881715426300, 12.85161045800831800, 0.8041246743759876700 ) ) ;
#97 = ADVANCED_FACE ( 'NONE', ( #269 ), #46, .T. ) ;
#98 = CARTESIAN_POINT ( 'NONE',  ( -12.67616428382410400, -12.85161045800832900, 1.592557082324669300 ) ) ;
#99 = AXIS2_PLACEMENT_3D ( 'NONE', #286, #179, #236 ) ;
#100 = CALENDAR_DATE ( 2019, 9, 1 ) ;
#101 = CARTESIAN_POINT ( 'NONE',  ( 4.239003881715475200, -12.85161045800832500, 3.195875325624026000 ) ) ;
#102 = CARTESIAN_POINT ( 'NONE',  ( -12.67616428382410400, 12.85161045800831700, 1.592557082324669300 ) ) ;
#103 = EDGE_CURVE ( 'NONE', #187, #87, #59, .T. ) ;
#104 = CARTESIAN_POINT ( 'NONE',  ( -4.283491068244660300, -4.306261170201074700, -0.2694425630609030300 ) ) ;
#105 = DATE_AND_TIME ( #116, #65 ) ;
#106 = PERSON_AND_ORGANIZATION ( #224, #117 ) ;
#107 = DIRECTION ( 'NONE',  ( 0.0000000000000000000, 0.0000000000000000000, 1.000000000000000000 ) ) ;
#108 = DIRECTION ( 'NONE',  ( 1.000000000000000000, 0.0000000000000000000, 0.0000000000000000000 ) ) ;
#109 = CARTESIAN_POINT ( 'NONE',  ( 1.523450463755430900E-014, -4.306261170201070200, 4.269442563060894500 ) ) ;
#110 = DIRECTION ( 'NONE',  ( -0.0000000000000000000, -0.0000000000000000000, -1.000000000000000000 ) ) ;
#111 = CC_DESIGN_PERSON_AND_ORGANIZATION_ASSIGNMENT ( #272, #119, ( #139 ) ) ;
#112 = CARTESIAN_POINT ( 'NONE',  ( -4.239003881715426300, -12.85161045800832500, 3.195875325624016700 ) ) ;
#113 = DIRECTION ( 'NONE',  ( 1.000000000000000000, 0.0000000000000000000, 0.0000000000000000000 ) ) ;
#114 = APPROVAL_STATUS ( 'not_yet_approved' ) ;
#115 = FACE_OUTER_BOUND ( 'NONE', #132, .T. ) ;
#116 = CALENDAR_DATE ( 2019, 9, 1 ) ;
#117 = ORGANIZATION ( 'UNSPECIFIED', 'UNSPECIFIED', '' ) ;
#118 =( GEOMETRIC_REPRESENTATION_CONTEXT ( 3 ) GLOBAL_UNCERTAINTY_ASSIGNED_CONTEXT ( ( #253 ) ) GLOBAL_UNIT_ASSIGNED_CONTEXT ( ( #136, #199, #15 ) ) REPRESENTATION_CONTEXT ( 'NONE', 'WORKASPACE' ) );
#119 = PERSON_AND_ORGANIZATION_ROLE ( 'design_owner' ) ;
#120 = APPROVAL_ROLE ( '' ) ;
#121 = PRODUCT_DEFINITION ( 'UNKNOWN', '', #31, #231 ) ;
#122 = ORIENTED_EDGE ( 'NONE', *, *, #200, .F. ) ;
#123 = CARTESIAN_POINT ( 'NONE',  ( 12.67616428382406800, -12.85161045800832900, 1.592557082324669700 ) ) ;
#124 = CARTESIAN_POINT ( 'NONE',  ( -12.69999999999999900, 3.997792089092478900E-015, 3.214808312384580100 ) ) ;
#125 = DIRECTION ( 'NONE',  ( -0.0000000000000000000, -0.0000000000000000000, -1.000000000000000000 ) ) ;
#126 = CYLINDRICAL_SURFACE ( 'NONE', #10, 12.69999999999999900 ) ;
#127 = VERTEX_POINT ( 'NONE', #74 ) ;
#128 = COORDINATED_UNIVERSAL_TIME_OFFSET ( 2, 0, .AHEAD. ) ;
#129 = PRODUCT_RELATED_PRODUCT_CATEGORY ( 'detail', '', ( #139 ) ) ;
#130 = CARTESIAN_POINT ( 'NONE',  ( 3.989863994746656300E-014, -4.306261170201069400, 4.269442563060908700 ) ) ;
#131 = ORIENTED_EDGE ( 'NONE', *, *, #164, .F. ) ;
#132 = EDGE_LOOP ( 'NONE', ( #183, #185, #247 ) ) ;
#133 = CARTESIAN_POINT ( 'NONE',  ( 12.67616428382410400, -12.85161045800832400, 2.407442917675334500 ) ) ;
#134 = DIRECTION ( 'NONE',  ( 1.000000000000000000, -8.881784197001252300E-016, 0.0000000000000000000 ) ) ;
#135 = CARTESIAN_POINT ( 'NONE',  ( -8.558720554191822300, -4.306261170201069400, 4.003531724208809100 ) ) ;
#136 =( LENGTH_UNIT ( ) NAMED_UNIT ( * ) SI_UNIT ( .MILLI., .METRE. ) );
#137 = CARTESIAN_POINT ( 'NONE',  ( -8.558720554191824100, 4.306261170201067600, 4.003531724208809100 ) ) ;
#138 = CARTESIAN_POINT ( 'NONE',  ( 8.558720554191864900, 4.306261170201067600, 4.003531724208810900 ) ) ;
#139 = PRODUCT ( '111-0218E BK7 bi-cx 25.4 F100', '111-0218E BK7 bi-cx 25.4 F100', '', ( #206 ) ) ;
#140 = CARTESIAN_POINT ( 'NONE',  ( -4.283491068244610600, 4.306261170201067600, 4.269442563060897200 ) ) ;
#141 = APPROVAL ( #69, 'UNSPECIFIED' ) ;
#142 = CIRCLE ( 'NONE', #90, 12.69999999999999900 ) ;
#143 = VERTEX_POINT ( 'NONE', #70 ) ;
#144 = APPROVAL_DATE_TIME ( #226, #240 ) ;
#145 = SHAPE_DEFINITION_REPRESENTATION ( #270, #3 ) ;
#146 = EDGE_CURVE ( 'NONE', #289, #147, #82, .T. ) ;
#147 = VERTEX_POINT ( 'NONE', #217 ) ;
#148 = LOCAL_TIME ( 16, 7, 28.00000000000000000, #204 ) ;
#149 = EDGE_CURVE ( 'NONE', #187, #289, #12, .T. ) ;
#150 = FACE_OUTER_BOUND ( 'NONE', #222, .T. ) ;
#151 = CC_DESIGN_DATE_AND_TIME_ASSIGNMENT ( #195, #186, ( #121 ) ) ;
#152 = CARTESIAN_POINT ( 'NONE',  ( -12.80919716152481600, 4.306261170201063100, 0.5272642274023615600 ) ) ;
#153 = EDGE_LOOP ( 'NONE', ( #282, #198, #8 ) ) ;
#154 = CARTESIAN_POINT ( 'NONE',  ( -8.469831983705933700, 12.85161045800831800, 1.067273834751410600 ) ) ;
#155 = DIRECTION ( 'NONE',  ( 0.0000000000000000000, -1.000000000000000000, 2.692102387548876300E-016 ) ) ;
#156 = LINE ( 'NONE', #197, #190 ) ;
#157 = APPROVAL_PERSON_ORGANIZATION ( #18, #141, #39 ) ;
#158 = DIRECTION ( 'NONE',  ( 1.000000000000000000, 0.0000000000000000000, 0.0000000000000000000 ) ) ;
#159 = CARTESIAN_POINT ( 'NONE',  ( 1.492869305231343800E-014, 12.85161045800832200, 3.195875325624014900 ) ) ;
#160 = CARTESIAN_POINT ( 'NONE',  ( -8.469831983705892900, 12.85161045800832400, 2.932726165248590500 ) ) ;
#161 = ORIENTED_EDGE ( 'NONE', *, *, #200, .T. ) ;
#162 = COORDINATED_UNIVERSAL_TIME_OFFSET ( 2, 0, .AHEAD. ) ;
#163 = CARTESIAN_POINT ( 'NONE',  ( -4.239003881715426300, 12.85161045800832400, 3.195875325624016700 ) ) ;
#164 = EDGE_CURVE ( 'NONE', #143, #147, #156, .T. ) ;
#165 = DIRECTION ( 'NONE',  ( 0.0000000000000000000, 0.0000000000000000000, 1.000000000000000000 ) ) ;
#166 = APPROVAL_PERSON_ORGANIZATION ( #106, #240, #120 ) ;
#167 = CARTESIAN_POINT ( 'NONE',  ( -12.69999999999999900, 3.997792089092478900E-015, 0.7851916876154260100 ) ) ;
#168 = PERSON_AND_ORGANIZATION ( #224, #117 ) ;
#169 = LOCAL_TIME ( 16, 7, 28.00000000000000000, #162 ) ;
#170 = CC_DESIGN_APPROVAL ( #141, ( #7 ) ) ;
#171 = ADVANCED_FACE ( 'NONE', ( #115 ), #54, .T. ) ;
#172 = CARTESIAN_POINT ( 'NONE',  ( -8.469831983705933700, -12.85161045800833100, 1.067273834751410600 ) ) ;
#173 = EDGE_CURVE ( 'NONE', #41, #143, #261, .T. ) ;
#174 = DIRECTION ( 'NONE',  ( -0.0000000000000000000, -0.0000000000000000000, -1.000000000000000000 ) ) ;
#175 = CARTESIAN_POINT ( 'NONE',  ( -3.989863994746656300E-014, 12.85161045800831700, 0.8041246743759754600 ) ) ;
#176 = AXIS2_PLACEMENT_3D ( 'NONE', #228, #19, #22 ) ;
#177 = VERTEX_POINT ( 'NONE', #83 ) ;
#178 = CARTESIAN_POINT ( 'NONE',  ( -4.239003881715475200, 12.85161045800831800, 0.8041246743759776800 ) ) ;
#179 = DIRECTION ( 'NONE',  ( 1.000000000000000000, 0.0000000000000000000, -2.848555494027459800E-016 ) ) ;
#180 = CARTESIAN_POINT ( 'NONE',  ( -12.67616428382406600, -12.85161045800832400, 2.407442917675333600 ) ) ;
#181 = CARTESIAN_POINT ( 'NONE',  ( 12.67616428382410400, 12.85161045800832200, 2.407442917675334500 ) ) ;
#182 = CARTESIAN_POINT ( 'NONE',  ( 0.0000000000000000000, 0.0000000000000000000, 0.0000000000000000000 ) ) ;
#183 = ORIENTED_EDGE ( 'NONE', *, *, #149, .F. ) ;
#184 = CARTESIAN_POINT ( 'NONE',  ( 4.996003610813200500E-016, 2.442490654175340100E-015, 0.7851916876154260100 ) ) ;
#185 = ORIENTED_EDGE ( 'NONE', *, *, #255, .F. ) ;
#186 = DATE_TIME_ROLE ( 'creation_date' ) ;
#187 = VERTEX_POINT ( 'NONE', #51 ) ;
#188 = AXIS2_PLACEMENT_3D ( 'NONE', #28, #125, #25 ) ;
#189 = CARTESIAN_POINT ( 'NONE',  ( -1.523450463755430900E-014, -4.306261170201075600, -0.2694425630608918700 ) ) ;
#190 = VECTOR ( 'NONE', #196, 1000.000000000000000 ) ;
#191 = ADVANCED_FACE ( 'NONE', ( #227 ), #294, .T. ) ;
#192 = CARTESIAN_POINT ( 'NONE',  ( -1.492869305231343800E-014, -12.85161045800832900, 0.8041246743759888900 ) ) ;
#193 =( BOUNDED_SURFACE ( )  B_SPLINE_SURFACE ( 3, 3, ( 
 ( #265, #112, #239, #180 ),
 ( #109, #263, #135, #33 ),
 ( #62, #140, #137, #291 ),
 ( #159, #163, #160, #14 ) ),
 .UNSPECIFIED., .F., .F., .F. ) 
 B_SPLINE_SURFACE_WITH_KNOTS ( ( 4, 4 ),
 ( 4, 4 ),
 ( 0.0000000000000000000, 1.000000000000000000 ),
 ( 0.0000000000000000000, 1.000000000000000000 ),
 .UNSPECIFIED. ) 
 GEOMETRIC_REPRESENTATION_ITEM ( )  RATIONAL_B_SPLINE_SURFACE ( (
 ( 1.000000000000000000, 0.9987141979651971100, 0.9987141979651971100, 1.000000000000000000),
 ( 0.9948003577473262200, 0.9935212414231120400, 0.9935212414231120400, 0.9948003577473262200),
 ( 0.9948003577473262200, 0.9935212414231120400, 0.9935212414231120400, 0.9948003577473262200),
 ( 1.000000000000000000, 0.9987141979651971100, 0.9987141979651971100, 1.000000000000000000) ) ) 
 REPRESENTATION_ITEM ( '' )  SURFACE ( )  );
#194 = AXIS2_PLACEMENT_3D ( 'NONE', #79, #174, #76 ) ;
#195 = DATE_AND_TIME ( #248, #148 ) ;
#196 = DIRECTION ( 'NONE',  ( 0.0000000000000000000, 0.0000000000000000000, 1.000000000000000000 ) ) ;
#197 = CARTESIAN_POINT ( 'NONE',  ( 12.69999999999999900, 2.442490654175340100E-015, 0.7851916876154260100 ) ) ;
#198 = ORIENTED_EDGE ( 'NONE', *, *, #20, .T. ) ;
#199 =( NAMED_UNIT ( * ) PLANE_ANGLE_UNIT ( ) SI_UNIT ( $, .RADIAN. ) );
#200 = EDGE_CURVE ( 'NONE', #143, #127, #142, .T. ) ;
#201 = CARTESIAN_POINT ( 'NONE',  ( 4.239003881715475200, 12.85161045800832400, 3.195875325624026000 ) ) ;
#202 = CC_DESIGN_SECURITY_CLASSIFICATION ( #7, ( #31 ) ) ;
#203 = ORIENTED_EDGE ( 'NONE', *, *, #146, .T. ) ;
#204 = COORDINATED_UNIVERSAL_TIME_OFFSET ( 2, 0, .AHEAD. ) ;
#205 = CARTESIAN_POINT ( 'NONE',  ( 4.996003610813200500E-016, 2.442490654175340100E-015, 3.214808312384580100 ) ) ;
#206 = MECHANICAL_CONTEXT ( 'NONE', #37, 'mechanical' ) ;
#207 = VECTOR ( 'NONE', #23, 1000.000000000000000 ) ;
#208 = CC_DESIGN_PERSON_AND_ORGANIZATION_ASSIGNMENT ( #168, #209, ( #31 ) ) ;
#209 = PERSON_AND_ORGANIZATION_ROLE ( 'design_supplier' ) ;
#210 = CARTESIAN_POINT ( 'NONE',  ( 8.469831983705892900, -12.85161045800833100, 1.067273834751412800 ) ) ;
#211 = CIRCLE ( 'NONE', #99, 103.0999999999999900 ) ;
#212 = CARTESIAN_POINT ( 'NONE',  ( 8.558720554191824100, 4.306261170201062200, -0.003531724208804773400 ) ) ;
#213 = CARTESIAN_POINT ( 'NONE',  ( 8.558720554191864900, -4.306261170201069400, 4.003531724208810900 ) ) ;
#214 = ORIENTED_EDGE ( 'NONE', *, *, #52, .F. ) ;
#215 = EDGE_CURVE ( 'NONE', #127, #41, #211, .T. ) ;
#216 =( BOUNDED_SURFACE ( )  B_SPLINE_SURFACE ( 3, 3, ( 
 ( #192, #26, #210, #123 ),
 ( #189, #42, #43, #44 ),
 ( #4, #47, #212, #71 ),
 ( #277, #96, #250, #73 ) ),
 .UNSPECIFIED., .F., .F., .T. ) 
 B_SPLINE_SURFACE_WITH_KNOTS ( ( 4, 4 ),
 ( 4, 4 ),
 ( 0.0000000000000000000, 1.000000000000000000 ),
 ( 0.0000000000000000000, 1.000000000000000000 ),
 .UNSPECIFIED. ) 
 GEOMETRIC_REPRESENTATION_ITEM ( )  RATIONAL_B_SPLINE_SURFACE ( (
 ( 1.000000000000000000, 0.9987141979651971100, 0.9987141979651971100, 1.000000000000000000),
 ( 0.9948003577473262200, 0.9935212414231120400, 0.9935212414231120400, 0.9948003577473262200),
 ( 0.9948003577473262200, 0.9935212414231120400, 0.9935212414231120400, 0.9948003577473262200),
 ( 1.000000000000000000, 0.9987141979651971100, 0.9987141979651971100, 1.000000000000000000) ) ) 
 REPRESENTATION_ITEM ( '' )  SURFACE ( )  );
#217 = CARTESIAN_POINT ( 'NONE',  ( 12.69999999999999900, 2.442490654175340100E-015, 3.214808312384580100 ) ) ;
#218 = CARTESIAN_POINT ( 'NONE',  ( 3.989863994746656300E-014, -12.85161045800832400, 3.195875325624028700 ) ) ;
#219 = CIRCLE ( 'NONE', #188, 12.69999999999999900 ) ;
#220 = CARTESIAN_POINT ( 'NONE',  ( 4.996003610813200500E-016, 2.442490654175340100E-015, 3.214808312384580100 ) ) ;
#221 = CARTESIAN_POINT ( 'NONE',  ( 4.283491068244660300, 4.306261170201068500, 4.269442563060907000 ) ) ;
#222 = EDGE_LOOP ( 'NONE', ( #161, #78, #29 ) ) ;
#223 = CARTESIAN_POINT ( 'NONE',  ( 8.469831983705933700, 12.85161045800832400, 2.932726165248593200 ) ) ;
#224 = PERSON ( 'UNSPECIFIED', 'UNSPECIFIED', 'UNSPECIFIED', ('UNSPECIFIED'), ('UNSPECIFIED'), ('UNSPECIFIED') ) ;
#225 = PERSON_AND_ORGANIZATION_ROLE ( 'creator' ) ;
#226 = DATE_AND_TIME ( #271, #278 ) ;
#227 = FACE_OUTER_BOUND ( 'NONE', #256, .T. ) ;
#228 = CARTESIAN_POINT ( 'NONE',  ( 4.996003610813200500E-016, 2.442490654175340100E-015, 0.7851916876154260100 ) ) ;
#229 = ORIENTED_EDGE ( 'NONE', *, *, #6, .F. ) ;
#230 = ADVANCED_FACE ( 'NONE', ( #243 ), #193, .T. ) ;
#231 = DESIGN_CONTEXT ( 'detailed design', #17, 'design' ) ;
#232 = DIRECTION ( 'NONE',  ( -1.000000000000000000, 8.028609726358260100E-032, 2.848555494027459800E-016 ) ) ;
#233 = ORIENTED_EDGE ( 'NONE', *, *, #255, .T. ) ;
#234 = CARTESIAN_POINT ( 'NONE',  ( 3.989863994746656300E-014, 4.306261170201069400, 4.269442563060908700 ) ) ;
#235 = LOCAL_TIME ( 16, 7, 28.00000000000000000, #92 ) ;
#236 = DIRECTION ( 'NONE',  ( 0.0000000000000000000, -1.000000000000000000, 0.0000000000000000000 ) ) ;
#237 = AXIS2_PLACEMENT_3D ( 'NONE', #64, #84, #288 ) ;
#238 = CARTESIAN_POINT ( 'NONE',  ( -1.493408621865895100E-014, 12.70000000000003100, 0.7851916876154267900 ) ) ;
#239 = CARTESIAN_POINT ( 'NONE',  ( -8.469831983705891100, -12.85161045800832500, 2.932726165248590100 ) ) ;
#240 = APPROVAL ( #268, 'UNSPECIFIED' ) ;
#241 = CLOSED_SHELL ( 'NONE', ( #72, #230, #191, #97, #48, #171 ) ) ;
#242 = PERSON_AND_ORGANIZATION ( #224, #117 ) ;
#243 = FACE_OUTER_BOUND ( 'NONE', #55, .T. ) ;
#244 = PERSON_AND_ORGANIZATION ( #224, #117 ) ;
#245 = DIRECTION ( 'NONE',  ( 1.000000000000000000, 0.0000000000000000000, 0.0000000000000000000 ) ) ;
#246 = CIRCLE ( 'NONE', #176, 12.69999999999999900 ) ;
#247 = ORIENTED_EDGE ( 'NONE', *, *, #146, .F. ) ;
#248 = CALENDAR_DATE ( 2019, 9, 1 ) ;
#249 = APPROVAL_ROLE ( '' ) ;
#250 = CARTESIAN_POINT ( 'NONE',  ( 8.469831983705892900, 12.85161045800831800, 1.067273834751412800 ) ) ;
#251 = ORIENTED_EDGE ( 'NONE', *, *, #149, .T. ) ;
#252 = CARTESIAN_POINT ( 'NONE',  ( -3.989863994746656300E-014, -12.85161045800832900, 0.8041246743759754600 ) ) ;
#253 = UNCERTAINTY_MEASURE_WITH_UNIT (LENGTH_MEASURE( 1.000000000000000100E-005 ), #136, 'distance_accuracy_value', 'NONE');
#254 = CARTESIAN_POINT ( 'NONE',  ( 4.283491068244660300, -4.306261170201068500, 4.269442563060907000 ) ) ;
#255 = EDGE_CURVE ( 'NONE', #147, #187, #287, .T. ) ;
#256 = EDGE_LOOP ( 'NONE', ( #214, #13, #266, #203, #131, #60 ) ) ;
#257 = CC_DESIGN_APPROVAL ( #285, ( #121 ) ) ;
#258 = CARTESIAN_POINT ( 'NONE',  ( -4.163336342344337700E-014, 4.306261170201063100, -0.2694425630609042500 ) ) ;
#259 = CARTESIAN_POINT ( 'NONE',  ( -12.80919716152481600, -4.306261170201075600, 0.5272642274023605600 ) ) ;
#260 = CARTESIAN_POINT ( 'NONE',  ( 12.80919716152481600, -4.306261170201070200, 3.472735772597642400 ) ) ;
#261 = CIRCLE ( 'NONE', #237, 12.69999999999999900 ) ;
#262 = CALENDAR_DATE ( 2019, 9, 1 ) ;
#263 = CARTESIAN_POINT ( 'NONE',  ( -4.283491068244610600, -4.306261170201069400, 4.269442563060897200 ) ) ;
#264 = CC_DESIGN_PERSON_AND_ORGANIZATION_ASSIGNMENT ( #95, #225, ( #121 ) ) ;
#265 = CARTESIAN_POINT ( 'NONE',  ( 1.492869305231343800E-014, -12.85161045800832400, 3.195875325624014900 ) ) ;
#266 = ORIENTED_EDGE ( 'NONE', *, *, #6, .T. ) ;
#267 = CARTESIAN_POINT ( 'NONE',  ( 4.996003610813200500E-016, 2.442490654175340100E-015, 0.7851916876154260100 ) ) ;
#268 = APPROVAL_STATUS ( 'not_yet_approved' ) ;
#269 = FACE_OUTER_BOUND ( 'NONE', #153, .T. ) ;
#270 = PRODUCT_DEFINITION_SHAPE ( 'NONE', 'NONE',  #121 ) ;
#271 = CALENDAR_DATE ( 2019, 9, 1 ) ;
#272 = PERSON_AND_ORGANIZATION ( #224, #117 ) ;
#273 = AXIS2_PLACEMENT_3D ( 'NONE', #220, #86, #11 ) ;
#274 = CC_DESIGN_DATE_AND_TIME_ASSIGNMENT ( #105, #21, ( #7 ) ) ;
#275 = PERSON_AND_ORGANIZATION_ROLE ( 'classification_officer' ) ;
#276 = AXIS2_PLACEMENT_3D ( 'NONE', #205, #36, #88 ) ;
#277 = CARTESIAN_POINT ( 'NONE',  ( -1.492869305231343800E-014, 12.85161045800831700, 0.8041246743759888900 ) ) ;
#278 = LOCAL_TIME ( 16, 7, 28.00000000000000000, #128 ) ;
#279 = APPROVAL_DATE_TIME ( #35, #285 ) ;
#280 = AXIS2_PLACEMENT_3D ( 'NONE', #182, #165, #113 ) ;
#281 = CARTESIAN_POINT ( 'NONE',  ( 4.996003610813200500E-016, 2.442490654175340100E-015, 3.214808312384580100 ) ) ;
#282 = ORIENTED_EDGE ( 'NONE', *, *, #215, .F. ) ;
#283 = CC_DESIGN_PERSON_AND_ORGANIZATION_ASSIGNMENT ( #242, #275, ( #7 ) ) ;
#284 = CARTESIAN_POINT ( 'NONE',  ( -1.421085471520200100E-014, 0.0000000000000000000, -99.09999999999999400 ) ) ;
#285 = APPROVAL ( #114, 'UNSPECIFIED' ) ;
#286 = CARTESIAN_POINT ( 'NONE',  ( 1.421085471520200100E-014, 0.0000000000000000000, 103.0999999999999900 ) ) ;
#287 = CIRCLE ( 'NONE', #273, 12.69999999999999900 ) ;
#288 = DIRECTION ( 'NONE',  ( 1.000000000000000000, -1.776356839400250500E-015, 0.0000000000000000000 ) ) ;
#289 = VERTEX_POINT ( 'NONE', #81 ) ;
#290 = DATE_AND_TIME ( #262, #235 ) ;
#291 = CARTESIAN_POINT ( 'NONE',  ( -12.80919716152478000, 4.306261170201068500, 3.472735772597642400 ) ) ;
#292 = APPLICATION_PROTOCOL_DEFINITION ( 'international standard', 'config_control_design', 1994, #17 ) ;
#293 = PERSON_AND_ORGANIZATION_ROLE ( 'creator' ) ;
#294 = CYLINDRICAL_SURFACE ( 'NONE', #34, 12.69999999999999900 ) ;
#295 = CIRCLE ( 'NONE', #276, 12.69999999999999900 ) ;
ENDSEC;
END-ISO-10303-21;
