ISO-10303-21;
HEADER;
FILE_DESCRIPTION (( 'STEP AP203' ),
    '1' );
FILE_NAME ('111-0216E BK7 bi-cx 25.4 F75.STEP',
    '2019-01-09T13:48:06',
    ( '' ),
    ( '' ),
    'SwSTEP 2.0',
    'SolidWorks 2017',
    '' );
FILE_SCHEMA (( 'CONFIG_CONTROL_DESIGN' ));
ENDSEC;

DATA;
#1 = CARTESIAN_POINT ( 'NONE',  ( -4.303315119606949700, 4.323964500436120200, -0.3628007173404499400 ) ) ;
#2 = CARTESIAN_POINT ( 'NONE',  ( -4.223280248386173800, 12.85098205144338800, 1.078257119438153200 ) ) ;
#3 = CC_DESIGN_PERSON_AND_ORGANIZATION_ASSIGNMENT ( #209, #33, ( #262 ) ) ;
#4 = APPROVAL_DATE_TIME ( #13, #75 ) ;
#5 = CARTESIAN_POINT ( 'NONE',  ( 8.431947335755287700, 12.85098205144342700, 2.570719513669156500 ) ) ;
#6 = DIRECTION ( 'NONE',  ( 1.000000000000000000, 8.881784197001252300E-016, 0.0000000000000000000 ) ) ;
#7 = EDGE_CURVE ( 'NONE', #268, #35, #234, .T. ) ;
#8 = CARTESIAN_POINT ( 'NONE',  ( -4.303315119606936400, 4.323964500436130000, 4.362800717340460800 ) ) ;
#9 = ORIENTED_EDGE ( 'NONE', *, *, #264, .T. ) ;
#10 =( NAMED_UNIT ( * ) PLANE_ANGLE_UNIT ( ) SI_UNIT ( $, .RADIAN. ) );
#11 = PRODUCT_DEFINITION ( 'UNKNOWN', '', #262, #168 ) ;
#12 = PERSON_AND_ORGANIZATION_ROLE ( 'classification_officer' ) ;
#13 = DATE_AND_TIME ( #77, #269 ) ;
#14 = CARTESIAN_POINT ( 'NONE',  ( -12.69999999999999900, 3.997792089092478900E-015, 1.052895414640630200 ) ) ;
#15 = APPLICATION_CONTEXT ( 'configuration controlled 3d designs of mechanical parts and assemblies' ) ;
#16 = CIRCLE ( 'NONE', #85, 12.69999999999999900 ) ;
#17 = ORIENTED_EDGE ( 'NONE', *, *, #185, .T. ) ;
#18 = FACE_OUTER_BOUND ( 'NONE', #131, .T. ) ;
#19 = PRODUCT_RELATED_PRODUCT_CATEGORY ( 'detail', '', ( #293 ) ) ;
#20 = CARTESIAN_POINT ( 'NONE',  ( 12.69999999999999900, 2.442490654175340100E-015, 2.947104585359369800 ) ) ;
#21 = CARTESIAN_POINT ( 'NONE',  ( -8.591740145956649100, -4.323964500436117600, -0.005125149241023866500 ) ) ;
#22 = LINE ( 'NONE', #90, #295 ) ;
#23 = CARTESIAN_POINT ( 'NONE',  ( 7.105427357600998700E-015, 4.323964500436120200, -0.3628007173404497700 ) ) ;
#24 = ORIENTED_EDGE ( 'NONE', *, *, #292, .T. ) ;
#25 = CARTESIAN_POINT ( 'NONE',  ( 4.303315119606928400, -4.323964500436117600, -0.3628007173404636000 ) ) ;
#26 = MANIFOLD_SOLID_BREP ( 'Imported1', #205 ) ;
#27 = VERTEX_POINT ( 'NONE', #44 ) ;
#28 = DIRECTION ( 'NONE',  ( 1.000000000000000000, 8.881784197001252300E-016, 0.0000000000000000000 ) ) ;
#29 = CARTESIAN_POINT ( 'NONE',  ( 4.996003610813200500E-016, 2.442490654175340100E-015, 1.052895414640630200 ) ) ;
#30 = CC_DESIGN_SECURITY_CLASSIFICATION ( #64, ( #262 ) ) ;
#31 = PERSON_AND_ORGANIZATION ( #137, #149 ) ;
#32 = CARTESIAN_POINT ( 'NONE',  ( -12.83559793629088800, 4.323964500436131800, 3.292249231526879900 ) ) ;
#33 = PERSON_AND_ORGANIZATION_ROLE ( 'creator' ) ;
#34 = PERSON_AND_ORGANIZATION_ROLE ( 'design_owner' ) ;
#35 = VERTEX_POINT ( 'NONE', #20 ) ;
#36 = VECTOR ( 'NONE', #65, 1000.000000000000000 ) ;
#37 = APPROVAL_ROLE ( '' ) ;
#38 = CARTESIAN_POINT ( 'NONE',  ( 0.0000000000000000000, 0.0000000000000000000, 0.0000000000000000000 ) ) ;
#39 = LOCAL_TIME ( 15, 48, 6.000000000000000000, #108 ) ;
#40 = ORIENTED_EDGE ( 'NONE', *, *, #197, .T. ) ;
#41 = ADVANCED_BREP_SHAPE_REPRESENTATION ( '111-0216E BK7 bi-cx 25.4 F75', ( #26, #215 ), #130 ) ;
#42 = CC_DESIGN_PERSON_AND_ORGANIZATION_ASSIGNMENT ( #97, #151, ( #262 ) ) ;
#43 = VERTEX_POINT ( 'NONE', #45 ) ;
#44 = CARTESIAN_POINT ( 'NONE',  ( 12.69999999999999900, 2.442490654175340100E-015, 1.052895414640630200 ) ) ;
#45 = CARTESIAN_POINT ( 'NONE',  ( -12.69999999999999900, 3.997792089092478900E-015, 1.052895414640630200 ) ) ;
#46 = EDGE_LOOP ( 'NONE', ( #103, #120, #55, #112, #195, #9 ) ) ;
#47 = CC_DESIGN_PERSON_AND_ORGANIZATION_ASSIGNMENT ( #183, #34, ( #293 ) ) ;
#48 = CARTESIAN_POINT ( 'NONE',  ( 4.996003610813200500E-016, 2.442490654175340100E-015, 1.052895414640630200 ) ) ;
#49 = CARTESIAN_POINT ( 'NONE',  ( -1.214306433183765000E-014, -12.85098205144338800, 1.078257119438138100 ) ) ;
#50 = CYLINDRICAL_SURFACE ( 'NONE', #217, 12.69999999999999900 ) ;
#51 = CARTESIAN_POINT ( 'NONE',  ( 12.83559793629086700, -4.323964500436116700, 0.7077507684731103600 ) ) ;
#52 = CARTESIAN_POINT ( 'NONE',  ( 1.214306433183765000E-014, 12.85098205144342700, 2.921742880561851900 ) ) ;
#53 = CARTESIAN_POINT ( 'NONE',  ( 4.223280248386173800, -12.85098205144343300, 2.921742880561851100 ) ) ;
#54 = APPROVAL_DATE_TIME ( #279, #194 ) ;
#55 = ORIENTED_EDGE ( 'NONE', *, *, #165, .F. ) ;
#56 = CARTESIAN_POINT ( 'NONE',  ( 8.431947335755287700, -12.85098205144343300, 2.570719513669156500 ) ) ;
#57 = EDGE_CURVE ( 'NONE', #27, #35, #22, .T. ) ;
#58 = CARTESIAN_POINT ( 'NONE',  ( 12.83559793629092600, -4.323964500436137100, 3.292249231526877200 ) ) ;
#59 = APPROVAL_STATUS ( 'not_yet_approved' ) ;
#60 = ADVANCED_FACE ( 'NONE', ( #99 ), #221, .T. ) ;
#61 = COORDINATED_UNIVERSAL_TIME_OFFSET ( 2, 0, .AHEAD. ) ;
#62 = CYLINDRICAL_SURFACE ( 'NONE', #158, 12.69999999999999900 ) ;
#63 = APPROVAL_STATUS ( 'not_yet_approved' ) ;
#64 = SECURITY_CLASSIFICATION ( '', '', #281 ) ;
#65 = DIRECTION ( 'NONE',  ( 0.0000000000000000000, 0.0000000000000000000, 1.000000000000000000 ) ) ;
#66 =( BOUNDED_SURFACE ( )  B_SPLINE_SURFACE ( 3, 3, ( 
 ( #140, #56, #53, #79 ),
 ( #58, #144, #206, #225 ),
 ( #271, #226, #146, #105 ),
 ( #127, #5, #250, #52 ) ),
 .UNSPECIFIED., .F., .F., .F. ) 
 B_SPLINE_SURFACE_WITH_KNOTS ( ( 4, 4 ),
 ( 4, 4 ),
 ( 0.0000000000000000000, 1.000000000000000000 ),
 ( 0.0000000000000000000, 1.000000000000000000 ),
 .UNSPECIFIED. ) 
 GEOMETRIC_REPRESENTATION_ITEM ( )  RATIONAL_B_SPLINE_SURFACE ( (
 ( 1.000000000000000000, 0.9976932368273635500, 0.9976932368273635500, 1.000000000000000000),
 ( 0.9906789668098362500, 0.9883937050532938300, 0.9883937050532938300, 0.9906789668098362500),
 ( 0.9906789668098362500, 0.9883937050532938300, 0.9883937050532938300, 0.9906789668098362500),
 ( 1.000000000000000000, 0.9976932368273635500, 0.9976932368273635500, 1.000000000000000000) ) ) 
 REPRESENTATION_ITEM ( '' )  SURFACE ( )  );
#67 = DIRECTION ( 'NONE',  ( 1.000000000000000000, 0.0000000000000000000, 0.0000000000000000000 ) ) ;
#68 = APPROVAL_PERSON_ORGANIZATION ( #128, #194, #253 ) ;
#69 = PRODUCT_DEFINITION_SHAPE ( 'NONE', 'NONE',  #11 ) ;
#70 = CARTESIAN_POINT ( 'NONE',  ( 4.223280248386150700, 12.85098205144338800, 1.078257119438153200 ) ) ;
#71 = CARTESIAN_POINT ( 'NONE',  ( -4.303315119606948800, -4.323964500436118500, -0.3628007173404639300 ) ) ;
#72 = ORIENTED_EDGE ( 'NONE', *, *, #275, .F. ) ;
#73 = CARTESIAN_POINT ( 'NONE',  ( -8.591740145956652700, 4.323964500436121100, -0.005125149241009987900 ) ) ;
#74 = CARTESIAN_POINT ( 'NONE',  ( 12.59687606737819700, 12.85098205144339000, 2.128898036789771600 ) ) ;
#75 = APPROVAL ( #59, 'UNSPECIFIED' ) ;
#76 = ADVANCED_FACE ( 'NONE', ( #129 ), #62, .T. ) ;
#77 = CALENDAR_DATE ( 2019, 9, 1 ) ;
#78 = CARTESIAN_POINT ( 'NONE',  ( -4.223280248386159600, -12.85098205144343300, 2.921742880561850600 ) ) ;
#79 = CARTESIAN_POINT ( 'NONE',  ( 1.214306433183765000E-014, -12.85098205144343300, 2.921742880561851900 ) ) ;
#80 = AXIS2_PLACEMENT_3D ( 'NONE', #132, #192, #236 ) ;
#81 = CARTESIAN_POINT ( 'NONE',  ( -8.591740145956626100, -4.323964500436135300, 4.005125149241021800 ) ) ;
#82 = ADVANCED_FACE ( 'NONE', ( #241 ), #177, .T. ) ;
#83 = CARTESIAN_POINT ( 'NONE',  ( 4.996003610813200500E-016, 2.442490654175340100E-015, 1.052895414640630200 ) ) ;
#84 = CARTESIAN_POINT ( 'NONE',  ( -4.223280248386159600, 12.85098205144342700, 2.921742880561850600 ) ) ;
#85 = AXIS2_PLACEMENT_3D ( 'NONE', #29, #274, #28 ) ;
#86 = DIRECTION ( 'NONE',  ( -0.0000000000000000000, -0.0000000000000000000, -1.000000000000000000 ) ) ;
#87 = VERTEX_POINT ( 'NONE', #246 ) ;
#88 = AXIS2_PLACEMENT_3D ( 'NONE', #252, #272, #6 ) ;
#89 = ORIENTED_EDGE ( 'NONE', *, *, #264, .F. ) ;
#90 = CARTESIAN_POINT ( 'NONE',  ( 12.69999999999999900, 2.442490654175340100E-015, 1.052895414640630200 ) ) ;
#91 = ORIENTED_EDGE ( 'NONE', *, *, #110, .T. ) ;
#92 = CC_DESIGN_APPROVAL ( #75, ( #64 ) ) ;
#93 = EDGE_LOOP ( 'NONE', ( #122, #24, #91 ) ) ;
#94 = EDGE_CURVE ( 'NONE', #35, #87, #273, .T. ) ;
#95 = UNCERTAINTY_MEASURE_WITH_UNIT (LENGTH_MEASURE( 1.000000000000000100E-005 ), #157, 'distance_accuracy_value', 'NONE');
#96 = CARTESIAN_POINT ( 'NONE',  ( -8.431947335755287700, -12.85098205144338700, 1.429280486330833000 ) ) ;
#97 = PERSON_AND_ORGANIZATION ( #137, #149 ) ;
#98 = CC_DESIGN_PERSON_AND_ORGANIZATION_ASSIGNMENT ( #251, #159, ( #11 ) ) ;
#99 = FACE_OUTER_BOUND ( 'NONE', #93, .T. ) ;
#100 = DIRECTION ( 'NONE',  ( 0.0000000000000000000, 0.0000000000000000000, 1.000000000000000000 ) ) ;
#101 = CARTESIAN_POINT ( 'NONE',  ( -12.59687606737825600, 12.85098205144339000, 2.128898036789783600 ) ) ;
#102 = CARTESIAN_POINT ( 'NONE',  ( -12.83559793629092400, 4.323964500436120200, 0.7077507684731361200 ) ) ;
#103 = ORIENTED_EDGE ( 'NONE', *, *, #208, .F. ) ;
#104 = ORIENTED_EDGE ( 'NONE', *, *, #275, .T. ) ;
#105 = CARTESIAN_POINT ( 'NONE',  ( 1.040834085586084300E-014, 4.323964500436132700, 4.362800717340462600 ) ) ;
#106 = AXIS2_PLACEMENT_3D ( 'NONE', #83, #134, #214 ) ;
#107 = CARTESIAN_POINT ( 'NONE',  ( -8.431947335755262800, -12.85098205144343300, 2.570719513669155600 ) ) ;
#108 = COORDINATED_UNIVERSAL_TIME_OFFSET ( 2, 0, .AHEAD. ) ;
#109 = FACE_OUTER_BOUND ( 'NONE', #46, .T. ) ;
#110 = EDGE_CURVE ( 'NONE', #43, #152, #16, .T. ) ;
#111 = MECHANICAL_CONTEXT ( 'NONE', #15, 'mechanical' ) ;
#112 = ORIENTED_EDGE ( 'NONE', *, *, #57, .T. ) ;
#113 = SHAPE_DEFINITION_REPRESENTATION ( #69, #41 ) ;
#114 = DIRECTION ( 'NONE',  ( 0.0000000000000000000, 0.0000000000000000000, 1.000000000000000000 ) ) ;
#115 = CARTESIAN_POINT ( 'NONE',  ( -7.105427357601000300E-015, 12.70000000000001000, 2.947104585359366700 ) ) ;
#116 = DIRECTION ( 'NONE',  ( 0.0000000000000000000, 0.0000000000000000000, 1.000000000000000000 ) ) ;
#117 = CC_DESIGN_DATE_AND_TIME_ASSIGNMENT ( #191, #176, ( #64 ) ) ;
#118 = CARTESIAN_POINT ( 'NONE',  ( -1.214306433183765000E-014, 12.85098205144339000, 1.078257119438151800 ) ) ;
#119 = CARTESIAN_POINT ( 'NONE',  ( 4.303315119606927500, 4.323964500436121100, -0.3628007173404497200 ) ) ;
#120 = ORIENTED_EDGE ( 'NONE', *, *, #292, .F. ) ;
#121 = LOCAL_TIME ( 15, 48, 6.000000000000000000, #125 ) ;
#122 = ORIENTED_EDGE ( 'NONE', *, *, #185, .F. ) ;
#123 = CARTESIAN_POINT ( 'NONE',  ( 8.431947335755248600, -12.85098205144338700, 1.429280486330828400 ) ) ;
#124 = CARTESIAN_POINT ( 'NONE',  ( -7.105427357601000300E-015, 12.85098205144342700, 2.921742880561850600 ) ) ;
#125 = COORDINATED_UNIVERSAL_TIME_OFFSET ( 2, 0, .AHEAD. ) ;
#126 = CARTESIAN_POINT ( 'NONE',  ( -4.303315119606936400, -4.323964500436135300, 4.362800717340462600 ) ) ;
#127 = CARTESIAN_POINT ( 'NONE',  ( 12.59687606737825600, 12.85098205144342700, 1.871101963210219900 ) ) ;
#128 = PERSON_AND_ORGANIZATION ( #137, #149 ) ;
#129 = FACE_OUTER_BOUND ( 'NONE', #203, .T. ) ;
#130 =( GEOMETRIC_REPRESENTATION_CONTEXT ( 3 ) GLOBAL_UNCERTAINTY_ASSIGNED_CONTEXT ( ( #95 ) ) GLOBAL_UNIT_ASSIGNED_CONTEXT ( ( #157, #10, #135 ) ) REPRESENTATION_CONTEXT ( 'NONE', 'WORKASPACE' ) );
#131 = EDGE_LOOP ( 'NONE', ( #232, #156, #167 ) ) ;
#132 = CARTESIAN_POINT ( 'NONE',  ( 4.996003610813200500E-016, 2.442490654175340100E-015, 1.052895414640630200 ) ) ;
#133 = APPLICATION_PROTOCOL_DEFINITION ( 'international standard', 'config_control_design', 1994, #15 ) ;
#134 = DIRECTION ( 'NONE',  ( -0.0000000000000000000, -0.0000000000000000000, -1.000000000000000000 ) ) ;
#135 =( NAMED_UNIT ( * ) SI_UNIT ( $, .STERADIAN. ) SOLID_ANGLE_UNIT ( ) );
#136 = CC_DESIGN_DATE_AND_TIME_ASSIGNMENT ( #266, #188, ( #11 ) ) ;
#137 = PERSON ( 'UNSPECIFIED', 'UNSPECIFIED', 'UNSPECIFIED', ('UNSPECIFIED'), ('UNSPECIFIED'), ('UNSPECIFIED') ) ;
#138 = EDGE_CURVE ( 'NONE', #161, #268, #212, .T. ) ;
#139 = CARTESIAN_POINT ( 'NONE',  ( 8.431947335755245000, 12.85098205144338800, 1.429280486330841900 ) ) ;
#140 = CARTESIAN_POINT ( 'NONE',  ( 12.59687606737825600, -12.85098205144343300, 1.871101963210219900 ) ) ;
#141 = PERSON_AND_ORGANIZATION ( #137, #149 ) ;
#142 = FACE_OUTER_BOUND ( 'NONE', #162, .T. ) ;
#143 = CARTESIAN_POINT ( 'NONE',  ( 8.591740145956610100, 4.323964500436121100, -0.005125149241015083600 ) ) ;
#144 = CARTESIAN_POINT ( 'NONE',  ( 8.591740145956654500, -4.323964500436135300, 4.005125149241021800 ) ) ;
#145 = ADVANCED_FACE ( 'NONE', ( #18 ), #66, .T. ) ;
#146 = CARTESIAN_POINT ( 'NONE',  ( 4.303315119606948800, 4.323964500436130900, 4.362800717340461700 ) ) ;
#147 = CARTESIAN_POINT ( 'NONE',  ( -12.69999999999999900, 3.997792089092478900E-015, 2.947104585359369800 ) ) ;
#148 = AXIS2_PLACEMENT_3D ( 'NONE', #172, #204, #270 ) ;
#149 = ORGANIZATION ( 'UNSPECIFIED', 'UNSPECIFIED', '' ) ;
#150 = CARTESIAN_POINT ( 'NONE',  ( -7.105427357601000300E-015, 4.323964500436131800, 4.362800717340461700 ) ) ;
#151 = PERSON_AND_ORGANIZATION_ROLE ( 'design_supplier' ) ;
#152 = VERTEX_POINT ( 'NONE', #229 ) ;
#153 = CARTESIAN_POINT ( 'NONE',  ( -7.105427357601000300E-015, 0.0000000000000000000, -73.12000000000000500 ) ) ;
#154 = LINE ( 'NONE', #14, #36 ) ;
#155 = AXIS2_PLACEMENT_3D ( 'NONE', #153, #256, #237 ) ;
#156 = ORIENTED_EDGE ( 'NONE', *, *, #94, .F. ) ;
#157 =( LENGTH_UNIT ( ) NAMED_UNIT ( * ) SI_UNIT ( .MILLI., .METRE. ) );
#158 = AXIS2_PLACEMENT_3D ( 'NONE', #48, #100, #220 ) ;
#159 = PERSON_AND_ORGANIZATION_ROLE ( 'creator' ) ;
#160 = DATE_AND_TIME ( #193, #121 ) ;
#161 = VERTEX_POINT ( 'NONE', #147 ) ;
#162 = EDGE_LOOP ( 'NONE', ( #89, #40, #261 ) ) ;
#163 = CIRCLE ( 'NONE', #255, 12.69999999999999900 ) ;
#164 = DIRECTION ( 'NONE',  ( 1.000000000000000000, 0.0000000000000000000, 0.0000000000000000000 ) ) ;
#165 = EDGE_CURVE ( 'NONE', #27, #198, #224, .T. ) ;
#166 = CARTESIAN_POINT ( 'NONE',  ( 7.105427357600998700E-015, -4.323964500436116700, -0.3628007173404637600 ) ) ;
#167 = ORIENTED_EDGE ( 'NONE', *, *, #7, .F. ) ;
#168 = DESIGN_CONTEXT ( 'detailed design', #277, 'design' ) ;
#169 = ORIENTED_EDGE ( 'NONE', *, *, #208, .T. ) ;
#170 = CARTESIAN_POINT ( 'NONE',  ( 12.59687606737820300, -12.85098205144338800, 2.128898036789757900 ) ) ;
#171 = CC_DESIGN_PERSON_AND_ORGANIZATION_ASSIGNMENT ( #31, #12, ( #64 ) ) ;
#172 = CARTESIAN_POINT ( 'NONE',  ( 4.996003610813200500E-016, 2.442490654175340100E-015, 1.052895414640630200 ) ) ;
#173 = CARTESIAN_POINT ( 'NONE',  ( -12.59687606737822000, -12.85098205144343300, 1.871101963210223500 ) ) ;
#174 = CARTESIAN_POINT ( 'NONE',  ( -8.591740145956626100, 4.323964500436130000, 4.005125149241020000 ) ) ;
#175 = APPROVAL_STATUS ( 'not_yet_approved' ) ;
#176 = DATE_TIME_ROLE ( 'classification_date' ) ;
#177 =( BOUNDED_SURFACE ( )  B_SPLINE_SURFACE ( 3, 3, ( 
 ( #267, #222, #123, #170 ),
 ( #166, #25, #184, #51 ),
 ( #23, #119, #143, #202 ),
 ( #182, #70, #139, #74 ) ),
 .UNSPECIFIED., .F., .F., .F. ) 
 B_SPLINE_SURFACE_WITH_KNOTS ( ( 4, 4 ),
 ( 4, 4 ),
 ( 0.0000000000000000000, 1.000000000000000000 ),
 ( 0.0000000000000000000, 1.000000000000000000 ),
 .UNSPECIFIED. ) 
 GEOMETRIC_REPRESENTATION_ITEM ( )  RATIONAL_B_SPLINE_SURFACE ( (
 ( 1.000000000000000000, 0.9976932368273635500, 0.9976932368273635500, 1.000000000000000000),
 ( 0.9906789668098362500, 0.9883937050532938300, 0.9883937050532938300, 0.9906789668098362500),
 ( 0.9906789668098362500, 0.9883937050532938300, 0.9883937050532938300, 0.9906789668098362500),
 ( 1.000000000000000000, 0.9976932368273635500, 0.9976932368273635500, 1.000000000000000000) ) ) 
 REPRESENTATION_ITEM ( '' )  SURFACE ( )  );
#178 = CALENDAR_DATE ( 2019, 9, 1 ) ;
#179 = APPROVAL_PERSON_ORGANIZATION ( #238, #228, #37 ) ;
#180 = DIRECTION ( 'NONE',  ( 1.000000000000000000, -8.881784197001252300E-016, 0.0000000000000000000 ) ) ;
#181 = CARTESIAN_POINT ( 'NONE',  ( -8.431947335755287700, 12.85098205144338800, 1.429280486330847000 ) ) ;
#182 = CARTESIAN_POINT ( 'NONE',  ( 7.105427357600998700E-015, 12.85098205144339000, 1.078257119438152900 ) ) ;
#183 = PERSON_AND_ORGANIZATION ( #137, #149 ) ;
#184 = CARTESIAN_POINT ( 'NONE',  ( 8.591740145956611800, -4.323964500436117600, -0.005125149241028851200 ) ) ;
#185 = EDGE_CURVE ( 'NONE', #198, #152, #284, .T. ) ;
#186 = CARTESIAN_POINT ( 'NONE',  ( 7.105427357601000300E-015, 0.0000000000000000000, 77.12000000000000500 ) ) ;
#187 = ADVANCED_FACE ( 'NONE', ( #142 ), #289, .T. ) ;
#188 = DATE_TIME_ROLE ( 'creation_date' ) ;
#189 = CARTESIAN_POINT ( 'NONE',  ( -8.431947335755262800, 12.85098205144342700, 2.570719513669155600 ) ) ;
#190 = COORDINATED_UNIVERSAL_TIME_OFFSET ( 2, 0, .AHEAD. ) ;
#191 = DATE_AND_TIME ( #199, #223 ) ;
#192 = DIRECTION ( 'NONE',  ( -0.0000000000000000000, -0.0000000000000000000, -1.000000000000000000 ) ) ;
#193 = CALENDAR_DATE ( 2019, 9, 1 ) ;
#194 = APPROVAL ( #175, 'UNSPECIFIED' ) ;
#195 = ORIENTED_EDGE ( 'NONE', *, *, #94, .T. ) ;
#196 = APPROVAL_PERSON_ORGANIZATION ( #141, #75, #211 ) ;
#197 = EDGE_CURVE ( 'NONE', #87, #268, #218, .T. ) ;
#198 = VERTEX_POINT ( 'NONE', #207 ) ;
#199 = CALENDAR_DATE ( 2019, 9, 1 ) ;
#200 = ORIENTED_EDGE ( 'NONE', *, *, #138, .T. ) ;
#201 = CARTESIAN_POINT ( 'NONE',  ( -12.83559793629092400, -4.323964500436116700, 0.7077507684731222400 ) ) ;
#202 = CARTESIAN_POINT ( 'NONE',  ( 12.83559793629086500, 4.323964500436120200, 0.7077507684731240100 ) ) ;
#203 = EDGE_LOOP ( 'NONE', ( #259, #169, #200, #285, #278, #72 ) ) ;
#204 = DIRECTION ( 'NONE',  ( -0.0000000000000000000, -0.0000000000000000000, -1.000000000000000000 ) ) ;
#205 = CLOSED_SHELL ( 'NONE', ( #82, #187, #76, #60, #276, #145 ) ) ;
#206 = CARTESIAN_POINT ( 'NONE',  ( 4.303315119606950600, -4.323964500436134500, 4.362800717340462600 ) ) ;
#207 = CARTESIAN_POINT ( 'NONE',  ( 7.105427357600998700E-015, -12.69999999999997400, 1.052895414640627700 ) ) ;
#208 = EDGE_CURVE ( 'NONE', #43, #161, #154, .T. ) ;
#209 = PERSON_AND_ORGANIZATION ( #137, #149 ) ;
#210 = CARTESIAN_POINT ( 'NONE',  ( -7.105427357601000300E-015, -12.85098205144343300, 2.921742880561850600 ) ) ;
#211 = APPROVAL_ROLE ( '' ) ;
#212 = CIRCLE ( 'NONE', #88, 12.69999999999999900 ) ;
#213 = AXIS2_PLACEMENT_3D ( 'NONE', #263, #242, #180 ) ;
#214 = DIRECTION ( 'NONE',  ( 1.000000000000000000, 0.0000000000000000000, 0.0000000000000000000 ) ) ;
#215 = AXIS2_PLACEMENT_3D ( 'NONE', #38, #116, #282 ) ;
#216 = AXIS2_PLACEMENT_3D ( 'NONE', #186, #227, #247 ) ;
#217 = AXIS2_PLACEMENT_3D ( 'NONE', #231, #114, #258 ) ;
#218 = CIRCLE ( 'NONE', #155, 77.12000000000000500 ) ;
#219 = CARTESIAN_POINT ( 'NONE',  ( -1.214306433183764800E-014, 4.323964500436119400, -0.3628007173404510500 ) ) ;
#220 = DIRECTION ( 'NONE',  ( 1.000000000000000000, 0.0000000000000000000, 0.0000000000000000000 ) ) ;
#221 =( BOUNDED_SURFACE ( )  B_SPLINE_SURFACE ( 3, 3, ( 
 ( #244, #96, #245, #49 ),
 ( #201, #21, #71, #291 ),
 ( #102, #73, #1, #219 ),
 ( #101, #181, #2, #118 ) ),
 .UNSPECIFIED., .F., .F., .F. ) 
 B_SPLINE_SURFACE_WITH_KNOTS ( ( 4, 4 ),
 ( 4, 4 ),
 ( 0.0000000000000000000, 1.000000000000000000 ),
 ( 0.0000000000000000000, 1.000000000000000000 ),
 .UNSPECIFIED. ) 
 GEOMETRIC_REPRESENTATION_ITEM ( )  RATIONAL_B_SPLINE_SURFACE ( (
 ( 1.000000000000000000, 0.9976932368273635500, 0.9976932368273635500, 1.000000000000000000),
 ( 0.9906789668098362500, 0.9883937050532938300, 0.9883937050532938300, 0.9906789668098362500),
 ( 0.9906789668098362500, 0.9883937050532938300, 0.9883937050532938300, 0.9906789668098362500),
 ( 1.000000000000000000, 0.9976932368273635500, 0.9976932368273635500, 1.000000000000000000) ) ) 
 REPRESENTATION_ITEM ( '' )  SURFACE ( )  );
#222 = CARTESIAN_POINT ( 'NONE',  ( 4.223280248386151600, -12.85098205144338700, 1.078257119438139200 ) ) ;
#223 = LOCAL_TIME ( 15, 48, 6.000000000000000000, #61 ) ;
#224 = CIRCLE ( 'NONE', #148, 12.69999999999999900 ) ;
#225 = CARTESIAN_POINT ( 'NONE',  ( 1.214306433183764800E-014, -4.323964500436136200, 4.362800717340464400 ) ) ;
#226 = CARTESIAN_POINT ( 'NONE',  ( 8.591740145956649100, 4.323964500436130000, 4.005125149241020900 ) ) ;
#227 = DIRECTION ( 'NONE',  ( 1.000000000000000000, 0.0000000000000000000, 0.0000000000000000000 ) ) ;
#228 = APPROVAL ( #63, 'UNSPECIFIED' ) ;
#229 = CARTESIAN_POINT ( 'NONE',  ( 7.105427357600998700E-015, 12.69999999999997800, 1.052895414640627700 ) ) ;
#230 = CARTESIAN_POINT ( 'NONE',  ( -12.83559793629088800, -4.323964500436137100, 3.292249231526881600 ) ) ;
#231 = CARTESIAN_POINT ( 'NONE',  ( 4.996003610813200500E-016, 2.442490654175340100E-015, 1.052895414640630200 ) ) ;
#232 = ORIENTED_EDGE ( 'NONE', *, *, #197, .F. ) ;
#233 = CALENDAR_DATE ( 2019, 9, 1 ) ;
#234 = CIRCLE ( 'NONE', #213, 12.69999999999999900 ) ;
#235 = CARTESIAN_POINT ( 'NONE',  ( -12.59687606737822200, 12.85098205144342700, 1.871101963210223500 ) ) ;
#236 = DIRECTION ( 'NONE',  ( 1.000000000000000000, -1.776356839400250500E-015, 0.0000000000000000000 ) ) ;
#237 = DIRECTION ( 'NONE',  ( 0.0000000000000000000, -1.000000000000000000, 3.599011360947732600E-016 ) ) ;
#238 = PERSON_AND_ORGANIZATION ( #137, #149 ) ;
#239 = EDGE_LOOP ( 'NONE', ( #257, #17, #104 ) ) ;
#240 = AXIS2_PLACEMENT_3D ( 'NONE', #265, #290, #164 ) ;
#241 = FACE_OUTER_BOUND ( 'NONE', #239, .T. ) ;
#242 = DIRECTION ( 'NONE',  ( -0.0000000000000000000, -0.0000000000000000000, -1.000000000000000000 ) ) ;
#243 = CC_DESIGN_APPROVAL ( #228, ( #262 ) ) ;
#244 = CARTESIAN_POINT ( 'NONE',  ( -12.59687606737825800, -12.85098205144338800, 2.128898036789769900 ) ) ;
#245 = CARTESIAN_POINT ( 'NONE',  ( -4.223280248386174700, -12.85098205144338700, 1.078257119438139200 ) ) ;
#246 = CARTESIAN_POINT ( 'NONE',  ( -7.105427357601000300E-015, -12.70000000000001000, 2.947104585359366700 ) ) ;
#247 = DIRECTION ( 'NONE',  ( 0.0000000000000000000, -1.000000000000000000, 3.599011360947732600E-016 ) ) ;
#248 = APPROVAL_DATE_TIME ( #160, #228 ) ;
#249 = CARTESIAN_POINT ( 'NONE',  ( -7.105427357601000300E-015, -4.323964500436137100, 4.362800717340462600 ) ) ;
#250 = CARTESIAN_POINT ( 'NONE',  ( 4.223280248386173800, 12.85098205144342700, 2.921742880561851100 ) ) ;
#251 = PERSON_AND_ORGANIZATION ( #137, #149 ) ;
#252 = CARTESIAN_POINT ( 'NONE',  ( 4.996003610813200500E-016, 2.442490654175340100E-015, 2.947104585359369800 ) ) ;
#253 = APPROVAL_ROLE ( '' ) ;
#254 = CARTESIAN_POINT ( 'NONE',  ( 4.996003610813200500E-016, 2.442490654175340100E-015, 2.947104585359369800 ) ) ;
#255 = AXIS2_PLACEMENT_3D ( 'NONE', #254, #86, #67 ) ;
#256 = DIRECTION ( 'NONE',  ( -1.000000000000000000, 0.0000000000000000000, 0.0000000000000000000 ) ) ;
#257 = ORIENTED_EDGE ( 'NONE', *, *, #165, .T. ) ;
#258 = DIRECTION ( 'NONE',  ( 1.000000000000000000, 0.0000000000000000000, 0.0000000000000000000 ) ) ;
#259 = ORIENTED_EDGE ( 'NONE', *, *, #110, .F. ) ;
#260 = CIRCLE ( 'NONE', #106, 12.69999999999999900 ) ;
#261 = ORIENTED_EDGE ( 'NONE', *, *, #138, .F. ) ;
#262 = PRODUCT_DEFINITION_FORMATION_WITH_SPECIFIED_SOURCE ( 'ANY', '', #293, .NOT_KNOWN. ) ;
#263 = CARTESIAN_POINT ( 'NONE',  ( 4.996003610813200500E-016, 2.442490654175340100E-015, 2.947104585359369800 ) ) ;
#264 = EDGE_CURVE ( 'NONE', #87, #161, #163, .T. ) ;
#265 = CARTESIAN_POINT ( 'NONE',  ( 4.996003610813200500E-016, 2.442490654175340100E-015, 2.947104585359369800 ) ) ;
#266 = DATE_AND_TIME ( #178, #39 ) ;
#267 = CARTESIAN_POINT ( 'NONE',  ( 7.105427357600998700E-015, -12.85098205144338800, 1.078257119438139200 ) ) ;
#268 = VERTEX_POINT ( 'NONE', #115 ) ;
#269 = LOCAL_TIME ( 15, 48, 6.000000000000000000, #190 ) ;
#270 = DIRECTION ( 'NONE',  ( 1.000000000000000000, 0.0000000000000000000, 0.0000000000000000000 ) ) ;
#271 = CARTESIAN_POINT ( 'NONE',  ( 12.83559793629092400, 4.323964500436131800, 3.292249231526876800 ) ) ;
#272 = DIRECTION ( 'NONE',  ( -0.0000000000000000000, -0.0000000000000000000, -1.000000000000000000 ) ) ;
#273 = CIRCLE ( 'NONE', #240, 12.69999999999999900 ) ;
#274 = DIRECTION ( 'NONE',  ( -0.0000000000000000000, -0.0000000000000000000, -1.000000000000000000 ) ) ;
#275 = EDGE_CURVE ( 'NONE', #152, #27, #288, .T. ) ;
#276 = ADVANCED_FACE ( 'NONE', ( #109 ), #50, .T. ) ;
#277 = APPLICATION_CONTEXT ( 'configuration controlled 3d designs of mechanical parts and assemblies' ) ;
#278 = ORIENTED_EDGE ( 'NONE', *, *, #57, .F. ) ;
#279 = DATE_AND_TIME ( #233, #294 ) ;
#280 = APPLICATION_PROTOCOL_DEFINITION ( 'international standard', 'config_control_design', 1994, #277 ) ;
#281 = SECURITY_CLASSIFICATION_LEVEL ( 'unclassified' ) ;
#282 = DIRECTION ( 'NONE',  ( 1.000000000000000000, 0.0000000000000000000, 0.0000000000000000000 ) ) ;
#283 = CC_DESIGN_APPROVAL ( #194, ( #11 ) ) ;
#284 = CIRCLE ( 'NONE', #216, 77.12000000000000500 ) ;
#285 = ORIENTED_EDGE ( 'NONE', *, *, #7, .T. ) ;
#286 = COORDINATED_UNIVERSAL_TIME_OFFSET ( 2, 0, .AHEAD. ) ;
#287 = DIRECTION ( 'NONE',  ( 0.0000000000000000000, 0.0000000000000000000, 1.000000000000000000 ) ) ;
#288 = CIRCLE ( 'NONE', #80, 12.69999999999999900 ) ;
#289 =( BOUNDED_SURFACE ( )  B_SPLINE_SURFACE ( 3, 3, ( 
 ( #210, #78, #107, #173 ),
 ( #249, #126, #81, #230 ),
 ( #150, #8, #174, #32 ),
 ( #124, #84, #189, #235 ) ),
 .UNSPECIFIED., .F., .F., .F. ) 
 B_SPLINE_SURFACE_WITH_KNOTS ( ( 4, 4 ),
 ( 4, 4 ),
 ( 0.0000000000000000000, 1.000000000000000000 ),
 ( 0.0000000000000000000, 1.000000000000000000 ),
 .UNSPECIFIED. ) 
 GEOMETRIC_REPRESENTATION_ITEM ( )  RATIONAL_B_SPLINE_SURFACE ( (
 ( 1.000000000000000000, 0.9976932368273635500, 0.9976932368273635500, 1.000000000000000000),
 ( 0.9906789668098362500, 0.9883937050532938300, 0.9883937050532938300, 0.9906789668098362500),
 ( 0.9906789668098362500, 0.9883937050532938300, 0.9883937050532938300, 0.9906789668098362500),
 ( 1.000000000000000000, 0.9976932368273635500, 0.9976932368273635500, 1.000000000000000000) ) ) 
 REPRESENTATION_ITEM ( '' )  SURFACE ( )  );
#290 = DIRECTION ( 'NONE',  ( -0.0000000000000000000, -0.0000000000000000000, -1.000000000000000000 ) ) ;
#291 = CARTESIAN_POINT ( 'NONE',  ( -1.040834085586084300E-014, -4.323964500436117600, -0.3628007173404649300 ) ) ;
#292 = EDGE_CURVE ( 'NONE', #198, #43, #260, .T. ) ;
#293 = PRODUCT ( '111-0216E BK7 bi-cx 25.4 F75', '111-0216E BK7 bi-cx 25.4 F75', '', ( #111 ) ) ;
#294 = LOCAL_TIME ( 15, 48, 6.000000000000000000, #286 ) ;
#295 = VECTOR ( 'NONE', #287, 1000.000000000000000 ) ;
ENDSEC;
END-ISO-10303-21;
