ISO-10303-21;
HEADER;
FILE_DESCRIPTION (( 'STEP AP203' ),
    '1' );
FILE_NAME ('111-0214E BK7 bi-cx 25.4 F60.STEP',
    '2019-01-09T13:18:03',
    ( '' ),
    ( '' ),
    'SwSTEP 2.0',
    'SolidWorks 2017',
    '' );
FILE_SCHEMA (( 'CONFIG_CONTROL_DESIGN' ));
ENDSEC;

DATA;
#1 = EDGE_LOOP ( 'NONE', ( #187, #69, #48, #49, #185, #141 ) ) ;
#2 = CARTESIAN_POINT ( 'NONE',  ( -3.352297789155170000E-014, 4.347231052691790300, 4.458778232697097700 ) ) ;
#3 = EDGE_LOOP ( 'NONE', ( #169, #118, #79 ) ) ;
#4 = EDGE_LOOP ( 'NONE', ( #115, #246, #253, #276, #270, #122 ) ) ;
#5 = CARTESIAN_POINT ( 'NONE',  ( -4.202697209715933200, 12.85016054134268000, 1.356121602825946400 ) ) ;
#6 = CC_DESIGN_PERSON_AND_ORGANIZATION_ASSIGNMENT ( #28, #265, ( #191 ) ) ;
#7 = CARTESIAN_POINT ( 'NONE',  ( -12.49366434202744700, 12.85016054134267800, 2.666746350957379000 ) ) ;
#8 = AXIS2_PLACEMENT_3D ( 'NONE', #189, #190, #221 ) ;
#9 = DIRECTION ( 'NONE',  ( 1.000000000000000000, 8.881784197001252300E-016, 0.0000000000000000000 ) ) ;
#10 = PERSON_AND_ORGANIZATION_ROLE ( 'design_supplier' ) ;
#11 = ORIENTED_EDGE ( 'NONE', *, *, #60, .F. ) ;
#12 = CARTESIAN_POINT ( 'NONE',  ( 4.329391281223252900, 4.347231052691785900, -0.4587782326970953300 ) ) ;
#13 = CARTESIAN_POINT ( 'NONE',  ( 5.202931180080931200E-014, 12.85016054134268200, 1.356121602825950600 ) ) ;
#14 = FACE_OUTER_BOUND ( 'NONE', #3, .T. ) ;
#15 = CARTESIAN_POINT ( 'NONE',  ( 4.202697209715934100, 12.85016054134269200, 2.643878397174049200 ) ) ;
#16 = APPROVAL_STATUS ( 'not_yet_approved' ) ;
#17 = CALENDAR_DATE ( 2019, 9, 1 ) ;
#18 = CARTESIAN_POINT ( 'NONE',  ( 4.329391281223204000, -4.347231052691776100, 4.458778232697095900 ) ) ;
#19 = FACE_OUTER_BOUND ( 'NONE', #1, .T. ) ;
#20 = CARTESIAN_POINT ( 'NONE',  ( -8.635155626374457300, -4.347231052691774300, 4.007089988488881500 ) ) ;
#21 = CARTESIAN_POINT ( 'NONE',  ( -12.87029704349285600, 4.347231052691793000, 3.108643527680118500 ) ) ;
#22 = PRODUCT_DEFINITION_FORMATION_WITH_SPECIFIED_SOURCE ( 'ANY', '', #62, .NOT_KNOWN. ) ;
#23 = COORDINATED_UNIVERSAL_TIME_OFFSET ( 2, 0, .AHEAD. ) ;
#24 = CARTESIAN_POINT ( 'NONE',  ( -8.382458895277606500, 12.85016054134270100, 2.205408228901569100 ) ) ;
#25 = AXIS2_PLACEMENT_3D ( 'NONE', #57, #150, #282 ) ;
#26 = CIRCLE ( 'NONE', #121, 12.69999999999999900 ) ;
#27 = ORIENTED_EDGE ( 'NONE', *, *, #135, .T. ) ;
#28 = PERSON_AND_ORGANIZATION ( #284, #228 ) ;
#29 = EDGE_CURVE ( 'NONE', #216, #75, #139, .T. ) ;
#30 = CARTESIAN_POINT ( 'NONE',  ( 5.207884849604415300E-014, 12.69999999999999900, 1.324266419342079700 ) ) ;
#31 = VECTOR ( 'NONE', #97, 1000.000000000000000 ) ;
#32 = CARTESIAN_POINT ( 'NONE',  ( 4.163336342344337000E-014, -4.347231052691772600, -0.4587782326970952800 ) ) ;
#33 = CLOSED_SHELL ( 'NONE', ( #294, #95, #92, #232, #235, #90 ) ) ;
#34 = DIRECTION ( 'NONE',  ( 0.0000000000000000000, 0.0000000000000000000, 1.000000000000000000 ) ) ;
#35 =( BOUNDED_SURFACE ( )  B_SPLINE_SURFACE ( 3, 3, ( 
 ( #65, #134, #109, #45 ),
 ( #88, #252, #20, #67 ),
 ( #2, #183, #167, #21 ),
 ( #251, #234, #24, #117 ) ),
 .UNSPECIFIED., .F., .F., .F. ) 
 B_SPLINE_SURFACE_WITH_KNOTS ( ( 4, 4 ),
 ( 4, 4 ),
 ( 0.0000000000000000000, 1.000000000000000000 ),
 ( 0.0000000000000000000, 1.000000000000000000 ),
 .UNSPECIFIED. ) 
 GEOMETRIC_REPRESENTATION_ITEM ( )  RATIONAL_B_SPLINE_SURFACE ( (
 ( 1.000000000000000000, 0.9963617770509763900, 0.9963617770509763900, 1.000000000000000000),
 ( 0.9853138227980728900, 0.9817290314359787800, 0.9817290314359787800, 0.9853138227980728900),
 ( 0.9853138227980728900, 0.9817290314359787800, 0.9817290314359787800, 0.9853138227980728900),
 ( 1.000000000000000000, 0.9963617770509763900, 0.9963617770509763900, 1.000000000000000000) ) ) 
 REPRESENTATION_ITEM ( '' )  SURFACE ( )  );
#36 = DIRECTION ( 'NONE',  ( -0.0000000000000000000, -0.0000000000000000000, -1.000000000000000000 ) ) ;
#37 = COORDINATED_UNIVERSAL_TIME_OFFSET ( 2, 0, .AHEAD. ) ;
#38 = APPROVAL_STATUS ( 'not_yet_approved' ) ;
#39 =( NAMED_UNIT ( * ) PLANE_ANGLE_UNIT ( ) SI_UNIT ( $, .RADIAN. ) );
#40 = VERTEX_POINT ( 'NONE', #227 ) ;
#41 = PERSON_AND_ORGANIZATION_ROLE ( 'design_owner' ) ;
#42 = CARTESIAN_POINT ( 'NONE',  ( -1.561251128379126400E-014, 12.85016054134269400, 2.643878397174048700 ) ) ;
#43 = PERSON_AND_ORGANIZATION_ROLE ( 'creator' ) ;
#44 = DIRECTION ( 'NONE',  ( 0.0000000000000000000, 0.0000000000000000000, 1.000000000000000000 ) ) ;
#45 = CARTESIAN_POINT ( 'NONE',  ( -12.49366434202739700, -12.85016054134268000, 1.333253649042624300 ) ) ;
#46 = CC_DESIGN_PERSON_AND_ORGANIZATION_ASSIGNMENT ( #155, #43, ( #22 ) ) ;
#47 = ORIENTED_EDGE ( 'NONE', *, *, #71, .T. ) ;
#48 = ORIENTED_EDGE ( 'NONE', *, *, #207, .T. ) ;
#49 = ORIENTED_EDGE ( 'NONE', *, *, #29, .T. ) ;
#50 = APPROVAL ( #63, 'UNSPECIFIED' ) ;
#51 = CARTESIAN_POINT ( 'NONE',  ( 5.807371391263717500E-014, -12.69999999999998700, 1.324266419342079700 ) ) ;
#52 = AXIS2_PLACEMENT_3D ( 'NONE', #81, #259, #124 ) ;
#53 = CYLINDRICAL_SURFACE ( 'NONE', #91, 12.69999999999999900 ) ;
#54 = APPROVAL_DATE_TIME ( #214, #50 ) ;
#55 = CARTESIAN_POINT ( 'NONE',  ( -12.87029704349290400, -4.347231052691776100, 0.8913564723199023400 ) ) ;
#56 = CARTESIAN_POINT ( 'NONE',  ( -8.635155626374464400, -4.347231052691774300, -0.007089988488881512700 ) ) ;
#57 = CARTESIAN_POINT ( 'NONE',  ( 4.996003610813200500E-016, 2.442490654175340100E-015, 2.675733580657920100 ) ) ;
#58 = APPROVAL_ROLE ( '' ) ;
#59 = SECURITY_CLASSIFICATION_LEVEL ( 'unclassified' ) ;
#60 = EDGE_CURVE ( 'NONE', #116, #127, #292, .T. ) ;
#61 = APPROVAL_ROLE ( '' ) ;
#62 = PRODUCT ( '111-0214E BK7 bi-cx 25.4 F60', '111-0214E BK7 bi-cx 25.4 F60', '', ( #83 ) ) ;
#63 = APPROVAL_STATUS ( 'not_yet_approved' ) ;
#64 = DIRECTION ( 'NONE',  ( -0.0000000000000000000, -0.0000000000000000000, -1.000000000000000000 ) ) ;
#65 = CARTESIAN_POINT ( 'NONE',  ( -3.677877642304283000E-014, -12.85016054134268200, 2.643878397174038900 ) ) ;
#66 = CIRCLE ( 'NONE', #170, 12.69999999999999900 ) ;
#67 = CARTESIAN_POINT ( 'NONE',  ( -12.87029704349285600, -4.347231052691773500, 3.108643527680112800 ) ) ;
#68 = CARTESIAN_POINT ( 'NONE',  ( -12.69999999999999900, 3.997792089092478900E-015, 1.324266419342079900 ) ) ;
#69 = ORIENTED_EDGE ( 'NONE', *, *, #103, .T. ) ;
#70 = ORIENTED_EDGE ( 'NONE', *, *, #267, .F. ) ;
#71 = EDGE_CURVE ( 'NONE', #137, #127, #275, .T. ) ;
#72 = CARTESIAN_POINT ( 'NONE',  ( 4.336808689942017700E-014, -12.85016054134266700, 1.356121602825953500 ) ) ;
#73 = EDGE_CURVE ( 'NONE', #116, #137, #26, .T. ) ;
#74 = CARTESIAN_POINT ( 'NONE',  ( -3.076256642324114100E-014, 12.70000000000001700, 2.675733580657918800 ) ) ;
#75 = VERTEX_POINT ( 'NONE', #241 ) ;
#76 = COORDINATED_UNIVERSAL_TIME_OFFSET ( 2, 0, .AHEAD. ) ;
#77 =( GEOMETRIC_REPRESENTATION_CONTEXT ( 3 ) GLOBAL_UNCERTAINTY_ASSIGNED_CONTEXT ( ( #249 ) ) GLOBAL_UNIT_ASSIGNED_CONTEXT ( ( #177, #39, #133 ) ) REPRESENTATION_CONTEXT ( 'NONE', 'WORKASPACE' ) );
#78 = APPLICATION_PROTOCOL_DEFINITION ( 'international standard', 'config_control_design', 1994, #199 ) ;
#79 = ORIENTED_EDGE ( 'NONE', *, *, #29, .F. ) ;
#80 = LOCAL_TIME ( 15, 18, 3.000000000000000000, #208 ) ;
#81 = CARTESIAN_POINT ( 'NONE',  ( 2.842170943040400100E-014, 1.065814103640150000E-014, 61.56000000000000200 ) ) ;
#82 = CARTESIAN_POINT ( 'NONE',  ( 8.382458895277627800, 12.85016054134268900, 1.794591771098428500 ) ) ;
#83 = MECHANICAL_CONTEXT ( 'NONE', #199, 'mechanical' ) ;
#84 = LINE ( 'NONE', #68, #31 ) ;
#85 = CC_DESIGN_DATE_AND_TIME_ASSIGNMENT ( #264, #101, ( #191 ) ) ;
#86 = CARTESIAN_POINT ( 'NONE',  ( 4.996003610813200500E-016, 2.442490654175340100E-015, 2.675733580657920100 ) ) ;
#87 = PERSON_AND_ORGANIZATION ( #284, #228 ) ;
#88 = CARTESIAN_POINT ( 'NONE',  ( -3.557503026129354300E-014, -4.347231052691776100, 4.458778232697092400 ) ) ;
#89 = PERSON_AND_ORGANIZATION ( #284, #228 ) ;
#90 = ADVANCED_FACE ( 'NONE', ( #14 ), #217, .T. ) ;
#91 = AXIS2_PLACEMENT_3D ( 'NONE', #205, #44, #201 ) ;
#92 = ADVANCED_FACE ( 'NONE', ( #19 ), #53, .T. ) ;
#93 = FACE_OUTER_BOUND ( 'NONE', #94, .T. ) ;
#94 = EDGE_LOOP ( 'NONE', ( #70, #172, #138 ) ) ;
#95 = ADVANCED_FACE ( 'NONE', ( #93 ), #35, .T. ) ;
#96 = CARTESIAN_POINT ( 'NONE',  ( 12.69999999999999900, 2.442490654175340100E-015, 1.324266419342079900 ) ) ;
#97 = DIRECTION ( 'NONE',  ( 0.0000000000000000000, 0.0000000000000000000, 1.000000000000000000 ) ) ;
#98 = CARTESIAN_POINT ( 'NONE',  ( 4.996003610813200500E-016, 2.442490654175340100E-015, 2.675733580657920100 ) ) ;
#99 = LOCAL_TIME ( 15, 18, 3.000000000000000000, #37 ) ;
#100 = CARTESIAN_POINT ( 'NONE',  ( 4.202697209715986500, -12.85016054134266900, 1.356121602825959700 ) ) ;
#101 = DATE_TIME_ROLE ( 'classification_date' ) ;
#102 = CARTESIAN_POINT ( 'NONE',  ( 4.996003610813200500E-016, 2.442490654175340100E-015, 1.324266419342079900 ) ) ;
#103 = EDGE_CURVE ( 'NONE', #137, #211, #84, .T. ) ;
#104 = CARTESIAN_POINT ( 'NONE',  ( 12.87029704349287600, 4.347231052691787700, 0.8913564723198829100 ) ) ;
#105 = CALENDAR_DATE ( 2019, 9, 1 ) ;
#106 = PERSON_AND_ORGANIZATION_ROLE ( 'creator' ) ;
#107 = CARTESIAN_POINT ( 'NONE',  ( 4.996003610813200500E-016, 2.442490654175340100E-015, 1.324266419342079900 ) ) ;
#108 = CIRCLE ( 'NONE', #281, 12.69999999999999900 ) ;
#109 = CARTESIAN_POINT ( 'NONE',  ( -8.382458895277610000, -12.85016054134268300, 2.205408228901562400 ) ) ;
#110 =( BOUNDED_SURFACE ( )  B_SPLINE_SURFACE ( 3, 3, ( 
 ( #147, #100, #128, #262 ),
 ( #157, #181, #242, #263 ),
 ( #288, #12, #243, #104 ),
 ( #13, #283, #82, #226 ) ),
 .UNSPECIFIED., .F., .F., .F. ) 
 B_SPLINE_SURFACE_WITH_KNOTS ( ( 4, 4 ),
 ( 4, 4 ),
 ( 0.0000000000000000000, 1.000000000000000000 ),
 ( 0.0000000000000000000, 1.000000000000000000 ),
 .UNSPECIFIED. ) 
 GEOMETRIC_REPRESENTATION_ITEM ( )  RATIONAL_B_SPLINE_SURFACE ( (
 ( 1.000000000000000000, 0.9963617770509763900, 0.9963617770509763900, 1.000000000000000000),
 ( 0.9853138227980728900, 0.9817290314359787800, 0.9817290314359787800, 0.9853138227980728900),
 ( 0.9853138227980728900, 0.9817290314359787800, 0.9817290314359787800, 0.9853138227980728900),
 ( 1.000000000000000000, 0.9963617770509763900, 0.9963617770509763900, 1.000000000000000000) ) ) 
 REPRESENTATION_ITEM ( '' )  SURFACE ( )  );
#111 = EDGE_LOOP ( 'NONE', ( #27, #196, #156 ) ) ;
#112 = FACE_OUTER_BOUND ( 'NONE', #248, .T. ) ;
#113 = APPROVAL_PERSON_ORGANIZATION ( #184, #119, #58 ) ;
#114 = DESIGN_CONTEXT ( 'detailed design', #200, 'design' ) ;
#115 = ORIENTED_EDGE ( 'NONE', *, *, #103, .F. ) ;
#116 = VERTEX_POINT ( 'NONE', #51 ) ;
#117 = CARTESIAN_POINT ( 'NONE',  ( -12.49366434202739400, 12.85016054134269800, 1.333253649042631200 ) ) ;
#118 = ORIENTED_EDGE ( 'NONE', *, *, #236, .F. ) ;
#119 = APPROVAL ( #16, 'UNSPECIFIED' ) ;
#120 = CARTESIAN_POINT ( 'NONE',  ( -4.329391281223199600, -4.347231052691772600, -0.4587782326970961100 ) ) ;
#121 = AXIS2_PLACEMENT_3D ( 'NONE', #107, #64, #166 ) ;
#122 = ORIENTED_EDGE ( 'NONE', *, *, #267, .T. ) ;
#123 = CARTESIAN_POINT ( 'NONE',  ( -8.382458895277611800, -12.85016054134266900, 1.794591771098434300 ) ) ;
#124 = DIRECTION ( 'NONE',  ( 2.360183234879151100E-016, -1.000000000000000000, -2.254351495746337800E-016 ) ) ;
#125 = AXIS2_PLACEMENT_3D ( 'NONE', #225, #197, #126 ) ;
#126 = DIRECTION ( 'NONE',  ( 1.000000000000000000, 0.0000000000000000000, 0.0000000000000000000 ) ) ;
#127 = VERTEX_POINT ( 'NONE', #30 ) ;
#128 = CARTESIAN_POINT ( 'NONE',  ( 8.382458895277631300, -12.85016054134266700, 1.794591771098435600 ) ) ;
#129 = DIRECTION ( 'NONE',  ( 1.000000000000000000, 8.881784197001252300E-016, 0.0000000000000000000 ) ) ;
#130 = DIRECTION ( 'NONE',  ( 1.000000000000000000, 0.0000000000000000000, 0.0000000000000000000 ) ) ;
#131 = CARTESIAN_POINT ( 'NONE',  ( 4.329391281223204000, 4.347231052691789400, 4.458778232697101300 ) ) ;
#132 = CC_DESIGN_APPROVAL ( #50, ( #168 ) ) ;
#133 =( NAMED_UNIT ( * ) SI_UNIT ( $, .STERADIAN. ) SOLID_ANGLE_UNIT ( ) );
#134 = CARTESIAN_POINT ( 'NONE',  ( -4.202697209715964300, -12.85016054134268300, 2.643878397174037600 ) ) ;
#135 = EDGE_CURVE ( 'NONE', #40, #116, #250, .T. ) ;
#136 = CC_DESIGN_PERSON_AND_ORGANIZATION_ASSIGNMENT ( #175, #41, ( #62 ) ) ;
#137 = VERTEX_POINT ( 'NONE', #188 ) ;
#138 = ORIENTED_EDGE ( 'NONE', *, *, #207, .F. ) ;
#139 = CIRCLE ( 'NONE', #25, 12.69999999999999900 ) ;
#140 = ORIENTED_EDGE ( 'NONE', *, *, #73, .T. ) ;
#141 = ORIENTED_EDGE ( 'NONE', *, *, #223, .F. ) ;
#142 = CYLINDRICAL_SURFACE ( 'NONE', #194, 12.69999999999999900 ) ;
#143 = DIRECTION ( 'NONE',  ( -0.0000000000000000000, -0.0000000000000000000, -1.000000000000000000 ) ) ;
#144 = SHAPE_DEFINITION_REPRESENTATION ( #160, #295 ) ;
#145 = CARTESIAN_POINT ( 'NONE',  ( 3.989863994746656300E-014, 4.347231052691785000, -0.4587782326971014400 ) ) ;
#146 = DATE_AND_TIME ( #105, #233 ) ;
#147 = CARTESIAN_POINT ( 'NONE',  ( 5.809505849584582300E-014, -12.85016054134266700, 1.356121602825957500 ) ) ;
#148 = EDGE_CURVE ( 'NONE', #180, #216, #258, .T. ) ;
#149 = PERSON_AND_ORGANIZATION ( #284, #228 ) ;
#150 = DIRECTION ( 'NONE',  ( -0.0000000000000000000, -0.0000000000000000000, -1.000000000000000000 ) ) ;
#151 = CARTESIAN_POINT ( 'NONE',  ( -3.675743183983418900E-014, -12.70000000000000500, 2.675733580657918800 ) ) ;
#152 = CARTESIAN_POINT ( 'NONE',  ( 12.49366434202740800, -12.85016054134268500, 1.333253649042617900 ) ) ;
#153 = APPROVAL_DATE_TIME ( #291, #119 ) ;
#154 = CC_DESIGN_SECURITY_CLASSIFICATION ( #191, ( #22 ) ) ;
#155 = PERSON_AND_ORGANIZATION ( #284, #228 ) ;
#156 = ORIENTED_EDGE ( 'NONE', *, *, #223, .T. ) ;
#157 = CARTESIAN_POINT ( 'NONE',  ( 5.689131233409654200E-014, -4.347231052691772600, -0.4587782326970913400 ) ) ;
#158 = DIRECTION ( 'NONE',  ( -0.0000000000000000000, -0.0000000000000000000, -1.000000000000000000 ) ) ;
#159 = LINE ( 'NONE', #96, #290 ) ;
#160 = PRODUCT_DEFINITION_SHAPE ( 'NONE', 'NONE',  #168 ) ;
#161 = DIRECTION ( 'NONE',  ( -0.0000000000000000000, -0.0000000000000000000, -1.000000000000000000 ) ) ;
#162 = CARTESIAN_POINT ( 'NONE',  ( 8.382458895277604700, 12.85016054134269400, 2.205408228901568600 ) ) ;
#163 = DATE_TIME_ROLE ( 'creation_date' ) ;
#164 = CARTESIAN_POINT ( 'NONE',  ( 12.49366434202741500, 12.85016054134269200, 1.333253649042624800 ) ) ;
#165 = CC_DESIGN_PERSON_AND_ORGANIZATION_ASSIGNMENT ( #89, #10, ( #22 ) ) ;
#166 = DIRECTION ( 'NONE',  ( 1.000000000000000000, 0.0000000000000000000, 0.0000000000000000000 ) ) ;
#167 = CARTESIAN_POINT ( 'NONE',  ( -8.635155626374457300, 4.347231052691793900, 4.007089988488887800 ) ) ;
#168 = PRODUCT_DEFINITION ( 'UNKNOWN', '', #22, #114 ) ;
#169 = ORIENTED_EDGE ( 'NONE', *, *, #148, .F. ) ;
#170 = AXIS2_PLACEMENT_3D ( 'NONE', #280, #36, #212 ) ;
#171 = APPROVAL_DATE_TIME ( #254, #222 ) ;
#172 = ORIENTED_EDGE ( 'NONE', *, *, #148, .T. ) ;
#173 = CARTESIAN_POINT ( 'NONE',  ( 3.469446951953614200E-014, 12.85016054134268200, 1.356121602825947100 ) ) ;
#174 = CARTESIAN_POINT ( 'NONE',  ( -8.382458895277618900, 12.85016054134268000, 1.794591771098426700 ) ) ;
#175 = PERSON_AND_ORGANIZATION ( #284, #228 ) ;
#176 = CARTESIAN_POINT ( 'NONE',  ( 4.996003610813200500E-016, 2.442490654175340100E-015, 1.324266419342079900 ) ) ;
#177 =( LENGTH_UNIT ( ) NAMED_UNIT ( * ) SI_UNIT ( .MILLI., .METRE. ) );
#178 = CALENDAR_DATE ( 2019, 9, 1 ) ;
#179 = CARTESIAN_POINT ( 'NONE',  ( 4.996003610813200500E-016, 2.442490654175340100E-015, 2.675733580657920100 ) ) ;
#180 = VERTEX_POINT ( 'NONE', #151 ) ;
#181 = CARTESIAN_POINT ( 'NONE',  ( 4.329391281223255600, -4.347231052691771700, -0.4587782326970895100 ) ) ;
#182 = CARTESIAN_POINT ( 'NONE',  ( 8.382458895277597600, -12.85016054134268300, 2.205408228901562000 ) ) ;
#183 = CARTESIAN_POINT ( 'NONE',  ( -4.329391281223232500, 4.347231052691793000, 4.458778232697095900 ) ) ;
#184 = PERSON_AND_ORGANIZATION ( #284, #228 ) ;
#185 = ORIENTED_EDGE ( 'NONE', *, *, #215, .F. ) ;
#186 = DIRECTION ( 'NONE',  ( 1.000000000000000000, 0.0000000000000000000, 0.0000000000000000000 ) ) ;
#187 = ORIENTED_EDGE ( 'NONE', *, *, #71, .F. ) ;
#188 = CARTESIAN_POINT ( 'NONE',  ( -12.69999999999999900, 3.997792089092478900E-015, 1.324266419342079900 ) ) ;
#189 = CARTESIAN_POINT ( 'NONE',  ( -7.105427357601000300E-015, 1.065814103640150000E-014, -57.56000000000000200 ) ) ;
#190 = DIRECTION ( 'NONE',  ( -1.000000000000000000, 2.360183234879150100E-016, -4.425043108049010200E-016 ) ) ;
#191 = SECURITY_CLASSIFICATION ( '', '', #59 ) ;
#192 = APPROVAL_PERSON_ORGANIZATION ( #87, #222, #61 ) ;
#193 = DIRECTION ( 'NONE',  ( 1.000000000000000000, 0.0000000000000000000, 0.0000000000000000000 ) ) ;
#194 = AXIS2_PLACEMENT_3D ( 'NONE', #176, #34, #193 ) ;
#195 = DIRECTION ( 'NONE',  ( 0.0000000000000000000, 0.0000000000000000000, 1.000000000000000000 ) ) ;
#196 = ORIENTED_EDGE ( 'NONE', *, *, #60, .T. ) ;
#197 = DIRECTION ( 'NONE',  ( 0.0000000000000000000, 0.0000000000000000000, 1.000000000000000000 ) ) ;
#198 = CC_DESIGN_APPROVAL ( #119, ( #191 ) ) ;
#199 = APPLICATION_CONTEXT ( 'configuration controlled 3d designs of mechanical parts and assemblies' ) ;
#200 = APPLICATION_CONTEXT ( 'configuration controlled 3d designs of mechanical parts and assemblies' ) ;
#201 = DIRECTION ( 'NONE',  ( 1.000000000000000000, 0.0000000000000000000, 0.0000000000000000000 ) ) ;
#202 = CARTESIAN_POINT ( 'NONE',  ( 8.635155626374452000, -4.347231052691777900, 4.007089988488882400 ) ) ;
#203 = CC_DESIGN_PERSON_AND_ORGANIZATION_ASSIGNMENT ( #210, #106, ( #168 ) ) ;
#204 = CIRCLE ( 'NONE', #255, 12.69999999999999900 ) ;
#205 = CARTESIAN_POINT ( 'NONE',  ( 4.996003610813200500E-016, 2.442490654175340100E-015, 1.324266419342079900 ) ) ;
#206 = CARTESIAN_POINT ( 'NONE',  ( 12.87029704349287200, -4.347231052691779700, 3.108643527680105700 ) ) ;
#207 = EDGE_CURVE ( 'NONE', #211, #216, #204, .T. ) ;
#208 = COORDINATED_UNIVERSAL_TIME_OFFSET ( 2, 0, .AHEAD. ) ;
#209 = COORDINATED_UNIVERSAL_TIME_OFFSET ( 2, 0, .AHEAD. ) ;
#210 = PERSON_AND_ORGANIZATION ( #284, #228 ) ;
#211 = VERTEX_POINT ( 'NONE', #257 ) ;
#212 = DIRECTION ( 'NONE',  ( 1.000000000000000000, -1.776356839400250500E-015, 0.0000000000000000000 ) ) ;
#213 = CARTESIAN_POINT ( 'NONE',  ( -12.87029704349290800, 4.347231052691781400, 0.8913564723198961200 ) ) ;
#214 = DATE_AND_TIME ( #220, #224 ) ;
#215 = EDGE_CURVE ( 'NONE', #40, #75, #159, .T. ) ;
#216 = VERTEX_POINT ( 'NONE', #74 ) ;
#217 =( BOUNDED_SURFACE ( )  B_SPLINE_SURFACE ( 3, 3, ( 
 ( #152, #182, #244, #268 ),
 ( #206, #202, #18, #229 ),
 ( #266, #289, #131, #287 ),
 ( #164, #162, #15, #42 ) ),
 .UNSPECIFIED., .F., .F., .F. ) 
 B_SPLINE_SURFACE_WITH_KNOTS ( ( 4, 4 ),
 ( 4, 4 ),
 ( 0.0000000000000000000, 1.000000000000000000 ),
 ( 0.0000000000000000000, 1.000000000000000000 ),
 .UNSPECIFIED. ) 
 GEOMETRIC_REPRESENTATION_ITEM ( )  RATIONAL_B_SPLINE_SURFACE ( (
 ( 1.000000000000000000, 0.9963617770509762800, 0.9963617770509762800, 1.000000000000000000),
 ( 0.9853138227980728900, 0.9817290314359786700, 0.9817290314359786700, 0.9853138227980728900),
 ( 0.9853138227980728900, 0.9817290314359786700, 0.9817290314359786700, 0.9853138227980728900),
 ( 1.000000000000000000, 0.9963617770509762800, 0.9963617770509762800, 1.000000000000000000) ) ) 
 REPRESENTATION_ITEM ( '' )  SURFACE ( )  );
#218 = CARTESIAN_POINT ( 'NONE',  ( -4.329391281223202300, 4.347231052691783200, -0.4587782326971021600 ) ) ;
#219 = FACE_OUTER_BOUND ( 'NONE', #111, .T. ) ;
#220 = CALENDAR_DATE ( 2019, 9, 1 ) ;
#221 = DIRECTION ( 'NONE',  ( -2.360183234879149600E-016, -1.000000000000000000, 2.254351495746337800E-016 ) ) ;
#222 = APPROVAL ( #38, 'UNSPECIFIED' ) ;
#223 = EDGE_CURVE ( 'NONE', #127, #40, #66, .T. ) ;
#224 = LOCAL_TIME ( 15, 18, 3.000000000000000000, #76 ) ;
#225 = CARTESIAN_POINT ( 'NONE',  ( 0.0000000000000000000, 0.0000000000000000000, 0.0000000000000000000 ) ) ;
#226 = CARTESIAN_POINT ( 'NONE',  ( 12.49366434202741700, 12.85016054134268500, 2.666746350957365700 ) ) ;
#227 = CARTESIAN_POINT ( 'NONE',  ( 12.69999999999999900, 2.442490654175340100E-015, 1.324266419342079900 ) ) ;
#228 = ORGANIZATION ( 'UNSPECIFIED', 'UNSPECIFIED', '' ) ;
#229 = CARTESIAN_POINT ( 'NONE',  ( -1.908195823574487800E-014, -4.347231052691776100, 4.458778232697095100 ) ) ;
#230 = CALENDAR_DATE ( 2019, 9, 1 ) ;
#231 = CIRCLE ( 'NONE', #247, 12.69999999999999900 ) ;
#232 = ADVANCED_FACE ( 'NONE', ( #112 ), #238, .T. ) ;
#233 = LOCAL_TIME ( 15, 18, 3.000000000000000000, #209 ) ;
#234 = CARTESIAN_POINT ( 'NONE',  ( -4.202697209715958900, 12.85016054134270100, 2.643878397174044700 ) ) ;
#235 = ADVANCED_FACE ( 'NONE', ( #271 ), #142, .T. ) ;
#236 = EDGE_CURVE ( 'NONE', #75, #180, #231, .T. ) ;
#237 = CARTESIAN_POINT ( 'NONE',  ( -4.202697209715924300, -12.85016054134266900, 1.356121602825952400 ) ) ;
#238 =( BOUNDED_SURFACE ( )  B_SPLINE_SURFACE ( 3, 3, ( 
 ( #240, #123, #237, #72 ),
 ( #55, #56, #120, #32 ),
 ( #213, #278, #218, #145 ),
 ( #7, #174, #5, #173 ) ),
 .UNSPECIFIED., .F., .F., .F. ) 
 B_SPLINE_SURFACE_WITH_KNOTS ( ( 4, 4 ),
 ( 4, 4 ),
 ( 0.0000000000000000000, 1.000000000000000000 ),
 ( 0.0000000000000000000, 1.000000000000000000 ),
 .UNSPECIFIED. ) 
 GEOMETRIC_REPRESENTATION_ITEM ( )  RATIONAL_B_SPLINE_SURFACE ( (
 ( 1.000000000000000000, 0.9963617770509762800, 0.9963617770509762800, 1.000000000000000000),
 ( 0.9853138227980728900, 0.9817290314359786700, 0.9817290314359786700, 0.9853138227980728900),
 ( 0.9853138227980728900, 0.9817290314359786700, 0.9817290314359786700, 0.9853138227980728900),
 ( 1.000000000000000000, 0.9963617770509762800, 0.9963617770509762800, 1.000000000000000000) ) ) 
 REPRESENTATION_ITEM ( '' )  SURFACE ( )  );
#239 = DIRECTION ( 'NONE',  ( -0.0000000000000000000, -0.0000000000000000000, -1.000000000000000000 ) ) ;
#240 = CARTESIAN_POINT ( 'NONE',  ( -12.49366434202744000, -12.85016054134267100, 2.666746350957385700 ) ) ;
#241 = CARTESIAN_POINT ( 'NONE',  ( 12.69999999999999900, 2.442490654175340100E-015, 2.675733580657920100 ) ) ;
#242 = CARTESIAN_POINT ( 'NONE',  ( 8.635155626374478600, -4.347231052691770800, -0.007089988488880754600 ) ) ;
#243 = CARTESIAN_POINT ( 'NONE',  ( 8.635155626374476900, 4.347231052691786800, -0.007089988488886500900 ) ) ;
#244 = CARTESIAN_POINT ( 'NONE',  ( 4.202697209715927900, -12.85016054134268500, 2.643878397174042500 ) ) ;
#245 = APPLICATION_PROTOCOL_DEFINITION ( 'international standard', 'config_control_design', 1994, #200 ) ;
#246 = ORIENTED_EDGE ( 'NONE', *, *, #73, .F. ) ;
#247 = AXIS2_PLACEMENT_3D ( 'NONE', #86, #260, #130 ) ;
#248 = EDGE_LOOP ( 'NONE', ( #11, #140, #47 ) ) ;
#249 = UNCERTAINTY_MEASURE_WITH_UNIT (LENGTH_MEASURE( 1.000000000000000100E-005 ), #177, 'distance_accuracy_value', 'NONE');
#250 = CIRCLE ( 'NONE', #269, 12.69999999999999900 ) ;
#251 = CARTESIAN_POINT ( 'NONE',  ( -3.071302972800630700E-014, 12.85016054134269600, 2.643878397174046000 ) ) ;
#252 = CARTESIAN_POINT ( 'NONE',  ( -4.329391281223234200, -4.347231052691775200, 4.458778232697089700 ) ) ;
#253 = ORIENTED_EDGE ( 'NONE', *, *, #135, .F. ) ;
#254 = DATE_AND_TIME ( #17, #99 ) ;
#255 = AXIS2_PLACEMENT_3D ( 'NONE', #98, #239, #9 ) ;
#256 = CC_DESIGN_APPROVAL ( #222, ( #22 ) ) ;
#257 = CARTESIAN_POINT ( 'NONE',  ( -12.69999999999999900, 3.997792089092478900E-015, 2.675733580657920100 ) ) ;
#258 = CIRCLE ( 'NONE', #8, 61.56000000000000200 ) ;
#259 = DIRECTION ( 'NONE',  ( 1.000000000000000000, 2.360183234879150100E-016, 4.425043108049010200E-016 ) ) ;
#260 = DIRECTION ( 'NONE',  ( -0.0000000000000000000, -0.0000000000000000000, -1.000000000000000000 ) ) ;
#261 = APPROVAL_ROLE ( '' ) ;
#262 = CARTESIAN_POINT ( 'NONE',  ( 12.49366434202742000, -12.85016054134266400, 2.666746350957372800 ) ) ;
#263 = CARTESIAN_POINT ( 'NONE',  ( 12.87029704349287600, -4.347231052691771700, 0.8913564723198884600 ) ) ;
#264 = DATE_AND_TIME ( #230, #80 ) ;
#265 = PERSON_AND_ORGANIZATION_ROLE ( 'classification_officer' ) ;
#266 = CARTESIAN_POINT ( 'NONE',  ( 12.87029704349287200, 4.347231052691786800, 3.108643527680111900 ) ) ;
#267 = EDGE_CURVE ( 'NONE', #180, #211, #108, .T. ) ;
#268 = CARTESIAN_POINT ( 'NONE',  ( -2.081668171172168500E-014, -12.85016054134268300, 2.643878397174041600 ) ) ;
#269 = AXIS2_PLACEMENT_3D ( 'NONE', #273, #143, #186 ) ;
#270 = ORIENTED_EDGE ( 'NONE', *, *, #236, .T. ) ;
#271 = FACE_OUTER_BOUND ( 'NONE', #4, .T. ) ;
#272 = PRODUCT_RELATED_PRODUCT_CATEGORY ( 'detail', '', ( #62 ) ) ;
#273 = CARTESIAN_POINT ( 'NONE',  ( 4.996003610813200500E-016, 2.442490654175340100E-015, 1.324266419342079900 ) ) ;
#274 = AXIS2_PLACEMENT_3D ( 'NONE', #102, #158, #285 ) ;
#275 = CIRCLE ( 'NONE', #274, 12.69999999999999900 ) ;
#276 = ORIENTED_EDGE ( 'NONE', *, *, #215, .T. ) ;
#277 = MANIFOLD_SOLID_BREP ( 'Imported1', #33 ) ;
#278 = CARTESIAN_POINT ( 'NONE',  ( -8.635155626374468000, 4.347231052691781400, -0.007089988488887910400 ) ) ;
#279 = APPROVAL_PERSON_ORGANIZATION ( #149, #50, #261 ) ;
#280 = CARTESIAN_POINT ( 'NONE',  ( 4.996003610813200500E-016, 2.442490654175340100E-015, 1.324266419342079900 ) ) ;
#281 = AXIS2_PLACEMENT_3D ( 'NONE', #179, #161, #129 ) ;
#282 = DIRECTION ( 'NONE',  ( 1.000000000000000000, -8.881784197001252300E-016, 0.0000000000000000000 ) ) ;
#283 = CARTESIAN_POINT ( 'NONE',  ( 4.202697209715981200, 12.85016054134268700, 1.356121602825952600 ) ) ;
#284 = PERSON ( 'UNSPECIFIED', 'UNSPECIFIED', 'UNSPECIFIED', ('UNSPECIFIED'), ('UNSPECIFIED'), ('UNSPECIFIED') ) ;
#285 = DIRECTION ( 'NONE',  ( 1.000000000000000000, 8.881784197001252300E-016, 0.0000000000000000000 ) ) ;
#286 = CC_DESIGN_DATE_AND_TIME_ASSIGNMENT ( #146, #163, ( #168 ) ) ;
#287 = CARTESIAN_POINT ( 'NONE',  ( -1.908195823574487800E-014, 4.347231052691790300, 4.458778232697100400 ) ) ;
#288 = CARTESIAN_POINT ( 'NONE',  ( 5.483925996435471800E-014, 4.347231052691785000, -0.4587782326970972800 ) ) ;
#289 = CARTESIAN_POINT ( 'NONE',  ( 8.635155626374452000, 4.347231052691786800, 4.007089988488888600 ) ) ;
#290 = VECTOR ( 'NONE', #195, 1000.000000000000000 ) ;
#291 = DATE_AND_TIME ( #178, #293 ) ;
#292 = CIRCLE ( 'NONE', #52, 61.56000000000000200 ) ;
#293 = LOCAL_TIME ( 15, 18, 3.000000000000000000, #23 ) ;
#294 = ADVANCED_FACE ( 'NONE', ( #219 ), #110, .T. ) ;
#295 = ADVANCED_BREP_SHAPE_REPRESENTATION ( '111-0214E BK7 bi-cx 25.4 F60', ( #277, #125 ), #77 ) ;
ENDSEC;
END-ISO-10303-21;
