ISO-10303-21;
HEADER;
FILE_DESCRIPTION (( 'STEP AP203' ),
    '1' );
FILE_NAME ('111-0210E BK7 bi-cx 25.4 F50.STEP',
    '2019-01-09T13:03:11',
    ( '' ),
    ( '' ),
    'SwSTEP 2.0',
    'SolidWorks 2017',
    '' );
FILE_SCHEMA (( 'CONFIG_CONTROL_DESIGN' ));
ENDSEC;

DATA;
#1 = ORIENTED_EDGE ( 'NONE', *, *, #127, .F. ) ;
#2 = APPLICATION_PROTOCOL_DEFINITION ( 'international standard', 'config_control_design', 1994, #21 ) ;
#3 = DIRECTION ( 'NONE',  ( -0.0000000000000000000, -0.0000000000000000000, -1.000000000000000000 ) ) ;
#4 = COORDINATED_UNIVERSAL_TIME_OFFSET ( 2, 0, .AHEAD. ) ;
#5 = EDGE_LOOP ( 'NONE', ( #37, #195, #52, #116, #149, #91 ) ) ;
#6 = CARTESIAN_POINT ( 'NONE',  ( -12.69999999999999900, 3.997792089092478900E-015, 4.387871754069170300 ) ) ;
#7 = APPROVAL_PERSON_ORGANIZATION ( #73, #159, #231 ) ;
#8 = CARTESIAN_POINT ( 'NONE',  ( 8.317916582385358000, -12.84908807113163600, 2.179828047948011000 ) ) ;
#9 = SHAPE_DEFINITION_REPRESENTATION ( #19, #260 ) ;
#10 = PRODUCT_DEFINITION_FORMATION_WITH_SPECIFIED_SOURCE ( 'ANY', '', #46, .NOT_KNOWN. ) ;
#11 = CLOSED_SHELL ( 'NONE', ( #209, #203, #191, #51, #119, #100 ) ) ;
#12 = CARTESIAN_POINT ( 'NONE',  ( -1.499655777994384900E-014, 4.377816852840195900, 6.562458018575391300 ) ) ;
#13 = CARTESIAN_POINT ( 'NONE',  ( -8.692262610555959100, 4.377816852840196800, 6.009662368274117500 ) ) ;
#14 = DIRECTION ( 'NONE',  ( -0.0000000000000000000, -0.0000000000000000000, -1.000000000000000000 ) ) ;
#15 = DATE_AND_TIME ( #286, #157 ) ;
#16 = DIRECTION ( 'NONE',  ( 0.0000000000000000000, 0.0000000000000000000, 1.000000000000000000 ) ) ;
#17 =( BOUNDED_SURFACE ( )  B_SPLINE_SURFACE ( 3, 3, ( 
 ( #204, #186, #193, #238 ),
 ( #103, #242, #176, #126 ),
 ( #174, #60, #214, #241 ),
 ( #279, #150, #59, #216 ) ),
 .UNSPECIFIED., .F., .F., .T. ) 
 B_SPLINE_SURFACE_WITH_KNOTS ( ( 4, 4 ),
 ( 4, 4 ),
 ( 0.0000000000000000000, 1.000000000000000000 ),
 ( 0.0000000000000000000, 1.000000000000000000 ),
 .UNSPECIFIED. ) 
 GEOMETRIC_REPRESENTATION_ITEM ( )  RATIONAL_B_SPLINE_SURFACE ( (
 ( 1.000000000000000000, 0.9946290719191304100, 0.9946290719191304100, 1.000000000000000000),
 ( 0.9783482272140249200, 0.9730935892476121300, 0.9730935892476121300, 0.9783482272140249200),
 ( 0.9783482272140249200, 0.9730935892476121300, 0.9730935892476121300, 0.9783482272140249200),
 ( 1.000000000000000000, 0.9946290719191304100, 0.9946290719191304100, 1.000000000000000000) ) ) 
 REPRESENTATION_ITEM ( '' )  SURFACE ( )  );
#18 = COORDINATED_UNIVERSAL_TIME_OFFSET ( 2, 0, .AHEAD. ) ;
#19 = PRODUCT_DEFINITION_SHAPE ( 'NONE', 'NONE',  #142 ) ;
#20 = CALENDAR_DATE ( 2019, 9, 1 ) ;
#21 = APPLICATION_CONTEXT ( 'configuration controlled 3d designs of mechanical parts and assemblies' ) ;
#22 = CARTESIAN_POINT ( 'NONE',  ( 3.469446951953614200E-015, -4.377816852840182600, -0.5624580185754033400 ) ) ;
#23 = CC_DESIGN_PERSON_AND_ORGANIZATION_ASSIGNMENT ( #84, #185, ( #10 ) ) ;
#24 = LOCAL_TIME ( 15, 3, 11.00000000000000000, #252 ) ;
#25 = VERTEX_POINT ( 'NONE', #76 ) ;
#26 = CARTESIAN_POINT ( 'NONE',  ( 4.996003610813200500E-016, 2.442490654175340100E-015, 4.387871754069170300 ) ) ;
#27 = CARTESIAN_POINT ( 'NONE',  ( 12.69999999999999900, 2.442490654175340100E-015, 1.612128245930829900 ) ) ;
#28 = LOCAL_TIME ( 15, 3, 11.00000000000000000, #4 ) ;
#29 = LINE ( 'NONE', #222, #270 ) ;
#30 = CARTESIAN_POINT ( 'NONE',  ( -12.69999999999999900, 3.997792089092478900E-015, 1.612128245930829900 ) ) ;
#31 = ORIENTED_EDGE ( 'NONE', *, *, #156, .T. ) ;
#32 = CARTESIAN_POINT ( 'NONE',  ( 4.996003610813200500E-016, 2.442490654175340100E-015, 1.612128245930829900 ) ) ;
#33 = AXIS2_PLACEMENT_3D ( 'NONE', #200, #16, #165 ) ;
#34 = CARTESIAN_POINT ( 'NONE',  ( 12.91591523994435600, -4.377816852840178200, 1.087021855284854700 ) ) ;
#35 = CARTESIAN_POINT ( 'NONE',  ( 8.317916582385349100, 12.84908807113165500, 2.179828047948025600 ) ) ;
#36 = FACE_OUTER_BOUND ( 'NONE', #89, .T. ) ;
#37 = ORIENTED_EDGE ( 'NONE', *, *, #114, .F. ) ;
#38 = CARTESIAN_POINT ( 'NONE',  ( 4.175779148308050600, 12.84908807113165400, 1.650839416066669700 ) ) ;
#39 = DIRECTION ( 'NONE',  ( 1.000000000000000000, 0.0000000000000000000, 0.0000000000000000000 ) ) ;
#40 = EDGE_CURVE ( 'NONE', #80, #106, #88, .T. ) ;
#41 = UNCERTAINTY_MEASURE_WITH_UNIT (LENGTH_MEASURE( 1.000000000000000100E-005 ), #87, 'distance_accuracy_value', 'NONE');
#42 = DIRECTION ( 'NONE',  ( 1.000000000000000000, 0.0000000000000000000, 0.0000000000000000000 ) ) ;
#43 = CIRCLE ( 'NONE', #268, 12.69999999999999900 ) ;
#44 = CC_DESIGN_DATE_AND_TIME_ASSIGNMENT ( #280, #99, ( #278 ) ) ;
#45 = LINE ( 'NONE', #30, #253 ) ;
#46 = PRODUCT ( '111-0210E BK7 bi-cx 25.4 F50', '111-0210E BK7 bi-cx 25.4 F50', '', ( #187 ) ) ;
#47 = VERTEX_POINT ( 'NONE', #295 ) ;
#48 = EDGE_CURVE ( 'NONE', #47, #274, #143, .T. ) ;
#49 = APPROVAL_ROLE ( '' ) ;
#50 = DIRECTION ( 'NONE',  ( 1.000000000000000000, 8.881784197001252300E-016, 0.0000000000000000000 ) ) ;
#51 = ADVANCED_FACE ( 'NONE', ( #261 ), #218, .T. ) ;
#52 = ORIENTED_EDGE ( 'NONE', *, *, #162, .F. ) ;
#53 = APPROVAL_STATUS ( 'not_yet_approved' ) ;
#54 = DIRECTION ( 'NONE',  ( -0.0000000000000000000, -0.0000000000000000000, -1.000000000000000000 ) ) ;
#55 = DIRECTION ( 'NONE',  ( 1.000000000000000000, 0.0000000000000000000, 0.0000000000000000000 ) ) ;
#56 = EDGE_CURVE ( 'NONE', #227, #25, #90, .T. ) ;
#57 = PERSON_AND_ORGANIZATION ( #183, #182 ) ;
#58 = ORIENTED_EDGE ( 'NONE', *, *, #262, .F. ) ;
#59 = CARTESIAN_POINT ( 'NONE',  ( 4.175779148308048000, 12.84908807113165000, 4.349160583933327800 ) ) ;
#60 = CARTESIAN_POINT ( 'NONE',  ( 8.692262610555960800, 4.377816852840191500, 6.009662368274121000 ) ) ;
#61 = CARTESIAN_POINT ( 'NONE',  ( 4.175779148308057700, -12.84908807113163800, 1.650839416066655500 ) ) ;
#62 = PERSON_AND_ORGANIZATION ( #183, #182 ) ;
#63 = CARTESIAN_POINT ( 'NONE',  ( 1.499655777994384900E-014, 4.377816852840195900, -0.5624580185753933500 ) ) ;
#64 = CARTESIAN_POINT ( 'NONE',  ( -1.202838384252607100E-014, 12.84908807113165200, 4.349160583933329600 ) ) ;
#65 = DIRECTION ( 'NONE',  ( 1.000000000000000000, 0.0000000000000000000, 0.0000000000000000000 ) ) ;
#66 = CIRCLE ( 'NONE', #173, 12.69999999999999900 ) ;
#67 = EDGE_CURVE ( 'NONE', #25, #80, #287, .T. ) ;
#68 = CIRCLE ( 'NONE', #259, 12.69999999999999900 ) ;
#69 = EDGE_LOOP ( 'NONE', ( #154, #160, #31 ) ) ;
#70 = ORIENTED_EDGE ( 'NONE', *, *, #290, .T. ) ;
#71 = PERSON_AND_ORGANIZATION_ROLE ( 'design_supplier' ) ;
#72 = CARTESIAN_POINT ( 'NONE',  ( 0.0000000000000000000, 4.377816852840193300, -0.5624580185753921300 ) ) ;
#73 = PERSON_AND_ORGANIZATION ( #183, #182 ) ;
#74 = CARTESIAN_POINT ( 'NONE',  ( -8.692262610555959100, -4.377816852840187100, -0.009662368274133321200 ) ) ;
#75 = CC_DESIGN_APPROVAL ( #211, ( #10 ) ) ;
#76 = CARTESIAN_POINT ( 'NONE',  ( 12.69999999999999900, 2.442490654175340100E-015, 4.387871754069170300 ) ) ;
#77 =( NAMED_UNIT ( * ) SI_UNIT ( $, .STERADIAN. ) SOLID_ANGLE_UNIT ( ) );
#78 = APPROVAL_DATE_TIME ( #205, #201 ) ;
#79 = CIRCLE ( 'NONE', #272, 12.69999999999999900 ) ;
#80 = VERTEX_POINT ( 'NONE', #167 ) ;
#81 = CARTESIAN_POINT ( 'NONE',  ( -4.175779148308050600, 12.84908807113165400, 4.349160583933328700 ) ) ;
#82 = DIRECTION ( 'NONE',  ( -0.0000000000000000000, -0.0000000000000000000, -1.000000000000000000 ) ) ;
#83 = CARTESIAN_POINT ( 'NONE',  ( 1.937397113525331500E-014, -12.84908807113164100, 1.650839416066654400 ) ) ;
#84 = PERSON_AND_ORGANIZATION ( #183, #182 ) ;
#85 = DIRECTION ( 'NONE',  ( 0.0000000000000000000, 0.0000000000000000000, 1.000000000000000000 ) ) ;
#86 = CARTESIAN_POINT ( 'NONE',  ( 4.996003610813200500E-016, 2.442490654175340100E-015, 1.612128245930829900 ) ) ;
#87 =( LENGTH_UNIT ( ) NAMED_UNIT ( * ) SI_UNIT ( .MILLI., .METRE. ) );
#88 = CIRCLE ( 'NONE', #275, 12.69999999999999900 ) ;
#89 = EDGE_LOOP ( 'NONE', ( #58, #244, #178 ) ) ;
#90 = CIRCLE ( 'NONE', #181, 12.69999999999999900 ) ;
#91 = ORIENTED_EDGE ( 'NONE', *, *, #40, .T. ) ;
#92 = CC_DESIGN_PERSON_AND_ORGANIZATION_ASSIGNMENT ( #190, #171, ( #142 ) ) ;
#93 = DIRECTION ( 'NONE',  ( 1.000000000000000000, 0.0000000000000000000, 0.0000000000000000000 ) ) ;
#94 = PERSON_AND_ORGANIZATION ( #183, #182 ) ;
#95 = FACE_OUTER_BOUND ( 'NONE', #69, .T. ) ;
#96 = ORIENTED_EDGE ( 'NONE', *, *, #56, .T. ) ;
#97 = AXIS2_PLACEMENT_3D ( 'NONE', #153, #14, #264 ) ;
#98 = AXIS2_PLACEMENT_3D ( 'NONE', #86, #108, #281 ) ;
#99 = DATE_TIME_ROLE ( 'classification_date' ) ;
#100 = ADVANCED_FACE ( 'NONE', ( #36 ), #17, .T. ) ;
#101 = SECURITY_CLASSIFICATION_LEVEL ( 'unclassified' ) ;
#102 = CARTESIAN_POINT ( 'NONE',  ( 4.996003610813200500E-016, 2.442490654175340100E-015, 4.387871754069170300 ) ) ;
#103 = CARTESIAN_POINT ( 'NONE',  ( 12.91591523994435600, -4.377816852840187100, 4.912978144715143700 ) ) ;
#104 = CYLINDRICAL_SURFACE ( 'NONE', #251, 12.69999999999999900 ) ;
#105 = CARTESIAN_POINT ( 'NONE',  ( 4.363709181412385600, 4.377816852840195900, -0.5624580185753924600 ) ) ;
#106 = VERTEX_POINT ( 'NONE', #6 ) ;
#107 = CARTESIAN_POINT ( 'NONE',  ( -8.317916582385358000, -12.84908807113163600, 3.820171952051988600 ) ) ;
#108 = DIRECTION ( 'NONE',  ( 0.0000000000000000000, 0.0000000000000000000, 1.000000000000000000 ) ) ;
#109 = CC_DESIGN_SECURITY_CLASSIFICATION ( #278, ( #10 ) ) ;
#110 = DESIGN_CONTEXT ( 'detailed design', #292, 'design' ) ;
#111 = CALENDAR_DATE ( 2019, 9, 1 ) ;
#112 = DIRECTION ( 'NONE',  ( -1.000000000000000000, 2.858408025558929900E-016, -2.470246272169610200E-016 ) ) ;
#113 = ORIENTED_EDGE ( 'NONE', *, *, #114, .T. ) ;
#114 = EDGE_CURVE ( 'NONE', #184, #106, #45, .T. ) ;
#115 = APPROVAL_PERSON_ORGANIZATION ( #62, #201, #234 ) ;
#116 = ORIENTED_EDGE ( 'NONE', *, *, #225, .T. ) ;
#117 = CC_DESIGN_PERSON_AND_ORGANIZATION_ASSIGNMENT ( #94, #71, ( #10 ) ) ;
#118 = AXIS2_PLACEMENT_3D ( 'NONE', #163, #208, #293 ) ;
#119 = ADVANCED_FACE ( 'NONE', ( #169 ), #104, .T. ) ;
#120 = CARTESIAN_POINT ( 'NONE',  ( -12.35967093545340100, 12.84908807113164600, 3.229281832018434000 ) ) ;
#121 = PERSON_AND_ORGANIZATION_ROLE ( 'classification_officer' ) ;
#122 = CARTESIAN_POINT ( 'NONE',  ( -8.317916582385352700, 12.84908807113164800, 2.179828047948023000 ) ) ;
#123 = PERSON_AND_ORGANIZATION ( #183, #182 ) ;
#124 = VERTEX_POINT ( 'NONE', #27 ) ;
#125 = CARTESIAN_POINT ( 'NONE',  ( -8.317916582385345600, -12.84908807113164300, 2.179828047948008300 ) ) ;
#126 = CARTESIAN_POINT ( 'NONE',  ( -3.469446951953614200E-015, -4.377816852840183500, 6.562458018575401100 ) ) ;
#127 = EDGE_CURVE ( 'NONE', #106, #227, #68, .T. ) ;
#128 = LOCAL_TIME ( 15, 3, 11.00000000000000000, #239 ) ;
#129 = CYLINDRICAL_SURFACE ( 'NONE', #98, 12.69999999999999900 ) ;
#130 = ORIENTED_EDGE ( 'NONE', *, *, #48, .F. ) ;
#131 = CARTESIAN_POINT ( 'NONE',  ( 4.363709181412389200, -4.377816852840181700, -0.5624580185754044500 ) ) ;
#132 = APPROVAL_DATE_TIME ( #192, #159 ) ;
#133 = EDGE_LOOP ( 'NONE', ( #130, #144, #70 ) ) ;
#134 = CARTESIAN_POINT ( 'NONE',  ( -4.363709181412389200, -4.377816852840181700, 6.562458018575403800 ) ) ;
#135 = CARTESIAN_POINT ( 'NONE',  ( 4.996003610813200500E-016, 2.442490654175340100E-015, 1.612128245930829900 ) ) ;
#136 = LOCAL_TIME ( 15, 3, 11.00000000000000000, #148 ) ;
#137 = ORIENTED_EDGE ( 'NONE', *, *, #225, .F. ) ;
#138 = APPROVAL_PERSON_ORGANIZATION ( #57, #211, #49 ) ;
#139 = PRODUCT_RELATED_PRODUCT_CATEGORY ( 'detail', '', ( #46 ) ) ;
#140 = EDGE_CURVE ( 'NONE', #47, #184, #158, .T. ) ;
#141 = CARTESIAN_POINT ( 'NONE',  ( -4.175779148308048000, 12.84908807113165000, 1.650839416066670200 ) ) ;
#142 = PRODUCT_DEFINITION ( 'UNKNOWN', '', #10, #110 ) ;
#143 = CIRCLE ( 'NONE', #118, 50.82999999999999800 ) ;
#144 = ORIENTED_EDGE ( 'NONE', *, *, #140, .T. ) ;
#145 = APPROVAL_STATUS ( 'not_yet_approved' ) ;
#146 = DIRECTION ( 'NONE',  ( 0.0000000000000000000, 0.0000000000000000000, 1.000000000000000000 ) ) ;
#147 = DIRECTION ( 'NONE',  ( 1.000000000000000000, 0.0000000000000000000, 0.0000000000000000000 ) ) ;
#148 = COORDINATED_UNIVERSAL_TIME_OFFSET ( 2, 0, .AHEAD. ) ;
#149 = ORIENTED_EDGE ( 'NONE', *, *, #67, .T. ) ;
#150 = CARTESIAN_POINT ( 'NONE',  ( 8.317916582385352700, 12.84908807113164800, 3.820171952051976100 ) ) ;
#151 = CARTESIAN_POINT ( 'NONE',  ( -1.937397113525331500E-014, -12.84908807113164100, 4.349160583933343800 ) ) ;
#152 = CARTESIAN_POINT ( 'NONE',  ( -8.692262610555962600, -4.377816852840180900, 6.009662368274129900 ) ) ;
#153 = CARTESIAN_POINT ( 'NONE',  ( 4.996003610813200500E-016, 2.442490654175340100E-015, 1.612128245930829900 ) ) ;
#154 = ORIENTED_EDGE ( 'NONE', *, *, #162, .T. ) ;
#155 = CARTESIAN_POINT ( 'NONE',  ( -1.208056190880179200E-014, 12.70000000000000300, 4.387871754069173000 ) ) ;
#156 = EDGE_CURVE ( 'NONE', #274, #124, #43, .T. ) ;
#157 = LOCAL_TIME ( 15, 3, 11.00000000000000000, #18 ) ;
#158 = CIRCLE ( 'NONE', #97, 12.69999999999999900 ) ;
#159 = APPROVAL ( #145, 'UNSPECIFIED' ) ;
#160 = ORIENTED_EDGE ( 'NONE', *, *, #48, .T. ) ;
#161 = CC_DESIGN_PERSON_AND_ORGANIZATION_ASSIGNMENT ( #269, #121, ( #278 ) ) ;
#162 = EDGE_CURVE ( 'NONE', #124, #47, #79, .T. ) ;
#163 = CARTESIAN_POINT ( 'NONE',  ( 3.552713678800500100E-015, 0.0000000000000000000, 50.82999999999999800 ) ) ;
#164 = PERSON_AND_ORGANIZATION_ROLE ( 'design_owner' ) ;
#165 = DIRECTION ( 'NONE',  ( 1.000000000000000000, 0.0000000000000000000, 0.0000000000000000000 ) ) ;
#166 =( BOUNDED_SURFACE ( )  B_SPLINE_SURFACE ( 3, 3, ( 
 ( #151, #245, #107, #284 ),
 ( #198, #134, #152, #248 ),
 ( #12, #179, #13, #197 ),
 ( #64, #81, #246, #243 ) ),
 .UNSPECIFIED., .F., .F., .F. ) 
 B_SPLINE_SURFACE_WITH_KNOTS ( ( 4, 4 ),
 ( 4, 4 ),
 ( 0.0000000000000000000, 1.000000000000000000 ),
 ( 0.0000000000000000000, 1.000000000000000000 ),
 .UNSPECIFIED. ) 
 GEOMETRIC_REPRESENTATION_ITEM ( )  RATIONAL_B_SPLINE_SURFACE ( (
 ( 1.000000000000000000, 0.9946290719191304100, 0.9946290719191304100, 1.000000000000000000),
 ( 0.9783482272140249200, 0.9730935892476121300, 0.9730935892476121300, 0.9783482272140249200),
 ( 0.9783482272140249200, 0.9730935892476121300, 0.9730935892476121300, 0.9783482272140249200),
 ( 1.000000000000000000, 0.9946290719191304100, 0.9946290719191304100, 1.000000000000000000) ) ) 
 REPRESENTATION_ITEM ( '' )  SURFACE ( )  );
#167 = CARTESIAN_POINT ( 'NONE',  ( -1.934091829372147600E-014, -12.69999999999999900, 4.387871754069173000 ) ) ;
#168 = APPLICATION_PROTOCOL_DEFINITION ( 'international standard', 'config_control_design', 1994, #292 ) ;
#169 = FACE_OUTER_BOUND ( 'NONE', #5, .T. ) ;
#170 = CARTESIAN_POINT ( 'NONE',  ( -4.175779148308037300, -12.84908807113164100, 1.650839416066656200 ) ) ;
#171 = PERSON_AND_ORGANIZATION_ROLE ( 'creator' ) ;
#172 = DIRECTION ( 'NONE',  ( 1.000000000000000000, 0.0000000000000000000, 0.0000000000000000000 ) ) ;
#173 = AXIS2_PLACEMENT_3D ( 'NONE', #135, #267, #42 ) ;
#174 = CARTESIAN_POINT ( 'NONE',  ( 12.91591523994435800, 4.377816852840188800, 4.912978144715133900 ) ) ;
#175 = DIRECTION ( 'NONE',  ( -0.0000000000000000000, -0.0000000000000000000, -1.000000000000000000 ) ) ;
#176 = CARTESIAN_POINT ( 'NONE',  ( 4.363709181412375800, -4.377816852840186200, 6.562458018575402900 ) ) ;
#177 = CARTESIAN_POINT ( 'NONE',  ( 8.692262610555966200, -4.377816852840179100, -0.009662368274130936000 ) ) ;
#178 = ORIENTED_EDGE ( 'NONE', *, *, #56, .F. ) ;
#179 = CARTESIAN_POINT ( 'NONE',  ( -4.363709181412385600, 4.377816852840195900, 6.562458018575391300 ) ) ;
#180 = DIRECTION ( 'NONE',  ( -0.0000000000000000000, -0.0000000000000000000, -1.000000000000000000 ) ) ;
#181 = AXIS2_PLACEMENT_3D ( 'NONE', #102, #256, #50 ) ;
#182 = ORGANIZATION ( 'UNSPECIFIED', 'UNSPECIFIED', '' ) ;
#183 = PERSON ( 'UNSPECIFIED', 'UNSPECIFIED', 'UNSPECIFIED', ('UNSPECIFIED'), ('UNSPECIFIED'), ('UNSPECIFIED') ) ;
#184 = VERTEX_POINT ( 'NONE', #265 ) ;
#185 = PERSON_AND_ORGANIZATION_ROLE ( 'creator' ) ;
#186 = CARTESIAN_POINT ( 'NONE',  ( 8.317916582385345600, -12.84908807113164300, 3.820171952051990800 ) ) ;
#187 = MECHANICAL_CONTEXT ( 'NONE', #21, 'mechanical' ) ;
#188 = AXIS2_PLACEMENT_3D ( 'NONE', #26, #54, #147 ) ;
#189 = CARTESIAN_POINT ( 'NONE',  ( -12.35967093545339400, -12.84908807113164600, 3.229281832018419800 ) ) ;
#190 = PERSON_AND_ORGANIZATION ( #183, #182 ) ;
#191 = ADVANCED_FACE ( 'NONE', ( #220 ), #129, .T. ) ;
#192 = DATE_AND_TIME ( #20, #24 ) ;
#193 = CARTESIAN_POINT ( 'NONE',  ( 4.175779148308037300, -12.84908807113164100, 4.349160583933342000 ) ) ;
#194 = CARTESIAN_POINT ( 'NONE',  ( 12.35967093545340000, -12.84908807113163800, 3.229281832018420200 ) ) ;
#195 = ORIENTED_EDGE ( 'NONE', *, *, #140, .F. ) ;
#196 = CARTESIAN_POINT ( 'NONE',  ( 12.35967093545339100, 12.84908807113165500, 3.229281832018434000 ) ) ;
#197 = CARTESIAN_POINT ( 'NONE',  ( -12.91591523994435100, 4.377816852840198600, 4.912978144715133100 ) ) ;
#198 = CARTESIAN_POINT ( 'NONE',  ( -1.749927514526096000E-014, -4.377816852840181700, 6.562458018575402900 ) ) ;
#199 = CARTESIAN_POINT ( 'NONE',  ( 1.208056190880178900E-014, 12.70000000000000300, 1.612128245930825900 ) ) ;
#200 = CARTESIAN_POINT ( 'NONE',  ( 0.0000000000000000000, 0.0000000000000000000, 0.0000000000000000000 ) ) ;
#201 = APPROVAL ( #53, 'UNSPECIFIED' ) ;
#202 = ORIENTED_EDGE ( 'NONE', *, *, #262, .T. ) ;
#203 = ADVANCED_FACE ( 'NONE', ( #217 ), #166, .T. ) ;
#204 = CARTESIAN_POINT ( 'NONE',  ( 12.35967093545339400, -12.84908807113164600, 2.770718167981578400 ) ) ;
#205 = DATE_AND_TIME ( #291, #28 ) ;
#206 =( BOUNDED_SURFACE ( )  B_SPLINE_SURFACE ( 3, 3, ( 
 ( #83, #61, #8, #194 ),
 ( #263, #131, #177, #34 ),
 ( #63, #105, #283, #219 ),
 ( #282, #38, #35, #196 ) ),
 .UNSPECIFIED., .F., .F., .F. ) 
 B_SPLINE_SURFACE_WITH_KNOTS ( ( 4, 4 ),
 ( 4, 4 ),
 ( 0.0000000000000000000, 1.000000000000000000 ),
 ( 0.0000000000000000000, 1.000000000000000000 ),
 .UNSPECIFIED. ) 
 GEOMETRIC_REPRESENTATION_ITEM ( )  RATIONAL_B_SPLINE_SURFACE ( (
 ( 1.000000000000000000, 0.9946290719191304100, 0.9946290719191304100, 1.000000000000000000),
 ( 0.9783482272140249200, 0.9730935892476121300, 0.9730935892476121300, 0.9783482272140249200),
 ( 0.9783482272140249200, 0.9730935892476121300, 0.9730935892476121300, 0.9783482272140249200),
 ( 1.000000000000000000, 0.9946290719191304100, 0.9946290719191304100, 1.000000000000000000) ) ) 
 REPRESENTATION_ITEM ( '' )  SURFACE ( )  );
#207 = EDGE_LOOP ( 'NONE', ( #221, #202, #1 ) ) ;
#208 = DIRECTION ( 'NONE',  ( 1.000000000000000000, 2.858408025558929900E-016, 2.470246272169610200E-016 ) ) ;
#209 = ADVANCED_FACE ( 'NONE', ( #95 ), #206, .T. ) ;
#210 = CARTESIAN_POINT ( 'NONE',  ( -4.363709181412378500, 4.377816852840192400, -0.5624580185753919000 ) ) ;
#211 = APPROVAL ( #294, 'UNSPECIFIED' ) ;
#212 = CARTESIAN_POINT ( 'NONE',  ( 4.996003610813200500E-016, 2.442490654175340100E-015, 4.387871754069170300 ) ) ;
#213 = ORIENTED_EDGE ( 'NONE', *, *, #156, .F. ) ;
#214 = CARTESIAN_POINT ( 'NONE',  ( 4.363709181412380300, 4.377816852840191500, 6.562458018575391300 ) ) ;
#215 = CALENDAR_DATE ( 2019, 9, 1 ) ;
#216 = CARTESIAN_POINT ( 'NONE',  ( 3.469446951953614200E-015, 12.84908807113165200, 4.349160583933327800 ) ) ;
#217 = FACE_OUTER_BOUND ( 'NONE', #207, .T. ) ;
#218 =( BOUNDED_SURFACE ( )  B_SPLINE_SURFACE ( 3, 3, ( 
 ( #189, #125, #170, #230 ),
 ( #254, #74, #236, #22 ),
 ( #233, #255, #210, #72 ),
 ( #120, #122, #141, #276 ) ),
 .UNSPECIFIED., .F., .F., .F. ) 
 B_SPLINE_SURFACE_WITH_KNOTS ( ( 4, 4 ),
 ( 4, 4 ),
 ( 0.0000000000000000000, 1.000000000000000000 ),
 ( 0.0000000000000000000, 1.000000000000000000 ),
 .UNSPECIFIED. ) 
 GEOMETRIC_REPRESENTATION_ITEM ( )  RATIONAL_B_SPLINE_SURFACE ( (
 ( 1.000000000000000000, 0.9946290719191304100, 0.9946290719191304100, 1.000000000000000000),
 ( 0.9783482272140249200, 0.9730935892476121300, 0.9730935892476121300, 0.9783482272140249200),
 ( 0.9783482272140249200, 0.9730935892476121300, 0.9730935892476121300, 0.9783482272140249200),
 ( 1.000000000000000000, 0.9946290719191304100, 0.9946290719191304100, 1.000000000000000000) ) ) 
 REPRESENTATION_ITEM ( '' )  SURFACE ( )  );
#219 = CARTESIAN_POINT ( 'NONE',  ( 12.91591523994435100, 4.377816852840199500, 1.087021855284866700 ) ) ;
#220 = FACE_OUTER_BOUND ( 'NONE', #249, .T. ) ;
#221 = ORIENTED_EDGE ( 'NONE', *, *, #40, .F. ) ;
#222 = CARTESIAN_POINT ( 'NONE',  ( 12.69999999999999900, 2.442490654175340100E-015, 1.612128245930829900 ) ) ;
#223 = CC_DESIGN_APPROVAL ( #201, ( #142 ) ) ;
#224 = DIRECTION ( 'NONE',  ( -2.858408025558931400E-016, -1.000000000000000000, 2.730235649776600000E-016 ) ) ;
#225 = EDGE_CURVE ( 'NONE', #124, #25, #29, .T. ) ;
#226 = ORIENTED_EDGE ( 'NONE', *, *, #127, .T. ) ;
#227 = VERTEX_POINT ( 'NONE', #155 ) ;
#228 = APPROVAL_DATE_TIME ( #15, #211 ) ;
#229 = CIRCLE ( 'NONE', #285, 50.82999999999999800 ) ;
#230 = CARTESIAN_POINT ( 'NONE',  ( 6.938893903907228400E-015, -12.84908807113164100, 1.650839416066656200 ) ) ;
#231 = APPROVAL_ROLE ( '' ) ;
#232 = CC_DESIGN_PERSON_AND_ORGANIZATION_ASSIGNMENT ( #123, #164, ( #46 ) ) ;
#233 = CARTESIAN_POINT ( 'NONE',  ( -12.91591523994435800, 4.377816852840188800, 1.087021855284866300 ) ) ;
#234 = APPROVAL_ROLE ( '' ) ;
#235 = DATE_TIME_ROLE ( 'creation_date' ) ;
#236 = CARTESIAN_POINT ( 'NONE',  ( -4.363709181412375800, -4.377816852840185300, -0.5624580185754032300 ) ) ;
#237 = CC_DESIGN_APPROVAL ( #159, ( #278 ) ) ;
#238 = CARTESIAN_POINT ( 'NONE',  ( -6.938893903907228400E-015, -12.84908807113164100, 4.349160583933342000 ) ) ;
#239 = COORDINATED_UNIVERSAL_TIME_OFFSET ( 2, 0, .AHEAD. ) ;
#240 = CARTESIAN_POINT ( 'NONE',  ( 4.996003610813200500E-016, 2.442490654175340100E-015, 4.387871754069170300 ) ) ;
#241 = CARTESIAN_POINT ( 'NONE',  ( 1.734723475976807100E-015, 4.377816852840192400, 6.562458018575391300 ) ) ;
#242 = CARTESIAN_POINT ( 'NONE',  ( 8.692262610555959100, -4.377816852840187100, 6.009662368274131700 ) ) ;
#243 = CARTESIAN_POINT ( 'NONE',  ( -12.35967093545338900, 12.84908807113165500, 2.770718167981563800 ) ) ;
#244 = ORIENTED_EDGE ( 'NONE', *, *, #67, .F. ) ;
#245 = CARTESIAN_POINT ( 'NONE',  ( -4.175779148308057700, -12.84908807113163800, 4.349160583933342900 ) ) ;
#246 = CARTESIAN_POINT ( 'NONE',  ( -8.317916582385347400, 12.84908807113165500, 3.820171952051972100 ) ) ;
#247 = DATE_AND_TIME ( #215, #128 ) ;
#248 = CARTESIAN_POINT ( 'NONE',  ( -12.91591523994435400, -4.377816852840179100, 4.912978144715143700 ) ) ;
#249 = EDGE_LOOP ( 'NONE', ( #271, #113, #226, #96, #137, #213 ) ) ;
#250 =( NAMED_UNIT ( * ) PLANE_ANGLE_UNIT ( ) SI_UNIT ( $, .RADIAN. ) );
#251 = AXIS2_PLACEMENT_3D ( 'NONE', #258, #146, #172 ) ;
#252 = COORDINATED_UNIVERSAL_TIME_OFFSET ( 2, 0, .AHEAD. ) ;
#253 = VECTOR ( 'NONE', #277, 1000.000000000000000 ) ;
#254 = CARTESIAN_POINT ( 'NONE',  ( -12.91591523994435600, -4.377816852840187100, 1.087021855284854700 ) ) ;
#255 = CARTESIAN_POINT ( 'NONE',  ( -8.692262610555960800, 4.377816852840191500, -0.009662368274122043800 ) ) ;
#256 = DIRECTION ( 'NONE',  ( -0.0000000000000000000, -0.0000000000000000000, -1.000000000000000000 ) ) ;
#257 =( GEOMETRIC_REPRESENTATION_CONTEXT ( 3 ) GLOBAL_UNCERTAINTY_ASSIGNED_CONTEXT ( ( #41 ) ) GLOBAL_UNIT_ASSIGNED_CONTEXT ( ( #87, #250, #77 ) ) REPRESENTATION_CONTEXT ( 'NONE', 'WORKASPACE' ) );
#258 = CARTESIAN_POINT ( 'NONE',  ( 4.996003610813200500E-016, 2.442490654175340100E-015, 1.612128245930829900 ) ) ;
#259 = AXIS2_PLACEMENT_3D ( 'NONE', #240, #175, #55 ) ;
#260 = ADVANCED_BREP_SHAPE_REPRESENTATION ( '111-0210E BK7 bi-cx 25.4 F50', ( #273, #33 ), #257 ) ;
#261 = FACE_OUTER_BOUND ( 'NONE', #133, .T. ) ;
#262 = EDGE_CURVE ( 'NONE', #80, #227, #229, .T. ) ;
#263 = CARTESIAN_POINT ( 'NONE',  ( 1.749927514526096000E-014, -4.377816852840181700, -0.5624580185754057800 ) ) ;
#264 = DIRECTION ( 'NONE',  ( 1.000000000000000000, 0.0000000000000000000, 0.0000000000000000000 ) ) ;
#265 = CARTESIAN_POINT ( 'NONE',  ( -12.69999999999999900, 3.997792089092478900E-015, 1.612128245930829900 ) ) ;
#266 = CARTESIAN_POINT ( 'NONE',  ( 4.996003610813200500E-016, 2.442490654175340100E-015, 1.612128245930829900 ) ) ;
#267 = DIRECTION ( 'NONE',  ( -0.0000000000000000000, -0.0000000000000000000, -1.000000000000000000 ) ) ;
#268 = AXIS2_PLACEMENT_3D ( 'NONE', #32, #180, #65 ) ;
#269 = PERSON_AND_ORGANIZATION ( #183, #182 ) ;
#270 = VECTOR ( 'NONE', #85, 1000.000000000000000 ) ;
#271 = ORIENTED_EDGE ( 'NONE', *, *, #290, .F. ) ;
#272 = AXIS2_PLACEMENT_3D ( 'NONE', #266, #82, #39 ) ;
#273 = MANIFOLD_SOLID_BREP ( 'Imported1', #11 ) ;
#274 = VERTEX_POINT ( 'NONE', #199 ) ;
#275 = AXIS2_PLACEMENT_3D ( 'NONE', #212, #3, #93 ) ;
#276 = CARTESIAN_POINT ( 'NONE',  ( -3.469446951953614200E-015, 12.84908807113165200, 1.650839416066669700 ) ) ;
#277 = DIRECTION ( 'NONE',  ( 0.0000000000000000000, 0.0000000000000000000, 1.000000000000000000 ) ) ;
#278 = SECURITY_CLASSIFICATION ( '', '', #101 ) ;
#279 = CARTESIAN_POINT ( 'NONE',  ( 12.35967093545340100, 12.84908807113164600, 2.770718167981564700 ) ) ;
#280 = DATE_AND_TIME ( #111, #136 ) ;
#281 = DIRECTION ( 'NONE',  ( 1.000000000000000000, 0.0000000000000000000, 0.0000000000000000000 ) ) ;
#282 = CARTESIAN_POINT ( 'NONE',  ( 1.202838384252607100E-014, 12.84908807113165200, 1.650839416066668400 ) ) ;
#283 = CARTESIAN_POINT ( 'NONE',  ( 8.692262610555959100, 4.377816852840197700, -0.009662368274119008000 ) ) ;
#284 = CARTESIAN_POINT ( 'NONE',  ( -12.35967093545340000, -12.84908807113163800, 2.770718167981578400 ) ) ;
#285 = AXIS2_PLACEMENT_3D ( 'NONE', #288, #112, #224 ) ;
#286 = CALENDAR_DATE ( 2019, 9, 1 ) ;
#287 = CIRCLE ( 'NONE', #188, 12.69999999999999900 ) ;
#288 = CARTESIAN_POINT ( 'NONE',  ( -3.552713678800500100E-015, 0.0000000000000000000, -44.82999999999999800 ) ) ;
#289 = CC_DESIGN_DATE_AND_TIME_ASSIGNMENT ( #247, #235, ( #142 ) ) ;
#290 = EDGE_CURVE ( 'NONE', #184, #274, #66, .T. ) ;
#291 = CALENDAR_DATE ( 2019, 9, 1 ) ;
#292 = APPLICATION_CONTEXT ( 'configuration controlled 3d designs of mechanical parts and assemblies' ) ;
#293 = DIRECTION ( 'NONE',  ( 2.858408025558931400E-016, -1.000000000000000000, -2.730235649776600000E-016 ) ) ;
#294 = APPROVAL_STATUS ( 'not_yet_approved' ) ;
#295 = CARTESIAN_POINT ( 'NONE',  ( 1.934091829372147600E-014, -12.69999999999999900, 1.612128245930825900 ) ) ;
ENDSEC;
END-ISO-10303-21;
