ISO-10303-21;
HEADER;
FILE_DESCRIPTION (( 'STEP AP203' ),
    '1' );
FILE_NAME ('111-0208E BK7 bi-cx 25.4 F40.STEP',
    '2019-01-09T12:26:38',
    ( '' ),
    ( '' ),
    'SwSTEP 2.0',
    'SolidWorks 2017',
    '' );
FILE_SCHEMA (( 'CONFIG_CONTROL_DESIGN' ));
ENDSEC;

DATA;
#1 = DIRECTION ( 'NONE',  ( 0.0000000000000000000, 0.0000000000000000000, 1.000000000000000000 ) ) ;
#2 = CIRCLE ( 'NONE', #263, 40.45000000000000300 ) ;
#3 = APPLICATION_CONTEXT ( 'configuration controlled 3d designs of mechanical parts and assemblies' ) ;
#4 = CARTESIAN_POINT ( 'NONE',  ( -13.00190727322095800, 4.435465386988249200, 4.616263794431067600 ) ) ;
#5 = ADVANCED_FACE ( 'NONE', ( #58 ), #242, .T. ) ;
#6 = CARTESIAN_POINT ( 'NONE',  ( -8.197824614870235400, 12.84708935906351200, 3.245755398794554700 ) ) ;
#7 = CARTESIAN_POINT ( 'NONE',  ( -12.11219596204327000, -12.84708935906349800, 4.057012983580202500 ) ) ;
#8 = VERTEX_POINT ( 'NONE', #82 ) ;
#9 = DIRECTION ( 'NONE',  ( 0.0000000000000000000, 0.0000000000000000000, 1.000000000000000000 ) ) ;
#10 = CARTESIAN_POINT ( 'NONE',  ( 13.00190727322095400, 4.435465386988241200, 1.383736205568934800 ) ) ;
#11 = CALENDAR_DATE ( 2019, 9, 1 ) ;
#12 = DIRECTION ( 'NONE',  ( 0.0000000000000000000, 0.0000000000000000000, 1.000000000000000000 ) ) ;
#13 = CARTESIAN_POINT ( 'NONE',  ( -8.800002560946907700, 4.435465386988243900, -0.01472809926908631500 ) ) ;
#14 = ORIENTED_EDGE ( 'NONE', *, *, #44, .F. ) ;
#15 =( NAMED_UNIT ( * ) SI_UNIT ( $, .STERADIAN. ) SOLID_ANGLE_UNIT ( ) );
#16 = DIRECTION ( 'NONE',  ( -0.0000000000000000000, -0.0000000000000000000, -1.000000000000000000 ) ) ;
#17 = CARTESIAN_POINT ( 'NONE',  ( 8.197824614870256700, 12.84708935906351000, 3.245755398794556400 ) ) ;
#18 = PERSON_AND_ORGANIZATION ( #138, #50 ) ;
#19 = EDGE_LOOP ( 'NONE', ( #181, #79, #205 ) ) ;
#20 = ORIENTED_EDGE ( 'NONE', *, *, #116, .T. ) ;
#21 = PERSON_AND_ORGANIZATION_ROLE ( 'classification_officer' ) ;
#22 = CARTESIAN_POINT ( 'NONE',  ( 4.428510542263308200, -4.435465386988243900, 6.723080521106418800 ) ) ;
#23 = APPLICATION_CONTEXT ( 'configuration controlled 3d designs of mechanical parts and assemblies' ) ;
#24 = ADVANCED_FACE ( 'NONE', ( #83 ), #196, .T. ) ;
#25 = APPROVAL_ROLE ( '' ) ;
#26 = AXIS2_PLACEMENT_3D ( 'NONE', #232, #182, #253 ) ;
#27 = CARTESIAN_POINT ( 'NONE',  ( -12.11219596204325200, 12.84708935906351200, 1.942987016419796000 ) ) ;
#28 = CARTESIAN_POINT ( 'NONE',  ( -4.428510542263290400, 4.435465386988250100, 6.723080521106406400 ) ) ;
#29 = CC_DESIGN_PERSON_AND_ORGANIZATION_ASSIGNMENT ( #88, #267, ( #36 ) ) ;
#30 = DIRECTION ( 'NONE',  ( -0.0000000000000000000, -0.0000000000000000000, -1.000000000000000000 ) ) ;
#31 = DIRECTION ( 'NONE',  ( 0.0000000000000000000, -1.000000000000000000, 3.430849890683425400E-016 ) ) ;
#32 = CARTESIAN_POINT ( 'NONE',  ( 12.69999999999999900, 2.442490654175340100E-015, 2.045410430522760100 ) ) ;
#33 = DIRECTION ( 'NONE',  ( -0.0000000000000000000, -0.0000000000000000000, -1.000000000000000000 ) ) ;
#34 = DIRECTION ( 'NONE',  ( -0.0000000000000000000, -0.0000000000000000000, -1.000000000000000000 ) ) ;
#35 = MANIFOLD_SOLID_BREP ( 'Imported1', #259 ) ;
#36 = PRODUCT ( '111-0208E BK7 bi-cx 25.4 F40', '111-0208E BK7 bi-cx 25.4 F40', '', ( #240 ) ) ;
#37 = ORIENTED_EDGE ( 'NONE', *, *, #210, .F. ) ;
#38 = CARTESIAN_POINT ( 'NONE',  ( -4.428510542263310900, -4.435465386988240300, -0.7230805211064061900 ) ) ;
#39 =( NAMED_UNIT ( * ) PLANE_ANGLE_UNIT ( ) SI_UNIT ( $, .RADIAN. ) );
#40 = ADVANCED_FACE ( 'NONE', ( #280 ), #51, .T. ) ;
#41 = EDGE_CURVE ( 'NONE', #247, #80, #113, .T. ) ;
#42 = ORIENTED_EDGE ( 'NONE', *, *, #275, .T. ) ;
#43 = CARTESIAN_POINT ( 'NONE',  ( 13.00190727322097900, -4.435465386988243000, 4.616263794431074700 ) ) ;
#44 = EDGE_CURVE ( 'NONE', #251, #247, #250, .T. ) ;
#45 = CARTESIAN_POINT ( 'NONE',  ( -4.428510542263291300, -4.435465386988243000, 6.723080521106414400 ) ) ;
#46 = VERTEX_POINT ( 'NONE', #175 ) ;
#47 = CARTESIAN_POINT ( 'NONE',  ( 3.552713678800500100E-015, -12.84708935906350600, 3.905635765819828600 ) ) ;
#48 = DIRECTION ( 'NONE',  ( -1.000000000000000000, 0.0000000000000000000, 0.0000000000000000000 ) ) ;
#49 = PERSON_AND_ORGANIZATION ( #138, #50 ) ;
#50 = ORGANIZATION ( 'UNSPECIFIED', 'UNSPECIFIED', '' ) ;
#51 =( BOUNDED_SURFACE ( )  B_SPLINE_SURFACE ( 3, 3, ( 
 ( #47, #108, #129, #244 ),
 ( #269, #45, #215, #189 ),
 ( #131, #28, #110, #4 ),
 ( #218, #130, #6, #27 ) ),
 .UNSPECIFIED., .F., .F., .F. ) 
 B_SPLINE_SURFACE_WITH_KNOTS ( ( 4, 4 ),
 ( 4, 4 ),
 ( 0.0000000000000000000, 1.000000000000000000 ),
 ( 0.0000000000000000000, 1.000000000000000000 ),
 .UNSPECIFIED. ) 
 GEOMETRIC_REPRESENTATION_ITEM ( )  RATIONAL_B_SPLINE_SURFACE ( (
 ( 1.000000000000000000, 0.9914164483316984000, 0.9914164483316984000, 1.000000000000000000),
 ( 0.9654822540720202600, 0.9571949872593648000, 0.9571949872593648000, 0.9654822540720202600),
 ( 0.9654822540720202600, 0.9571949872593648000, 0.9571949872593648000, 0.9654822540720202600),
 ( 1.000000000000000000, 0.9914164483316984000, 0.9914164483316984000, 1.000000000000000000) ) ) 
 REPRESENTATION_ITEM ( '' )  SURFACE ( )  );
#52 = EDGE_LOOP ( 'NONE', ( #289, #139, #73, #183, #272, #14 ) ) ;
#53 = CARTESIAN_POINT ( 'NONE',  ( 4.428510542263288700, -4.435465386988240300, -0.7230805211064024200 ) ) ;
#54 = CARTESIAN_POINT ( 'NONE',  ( -3.552713678800500100E-015, -4.435465386988239400, -0.7230805211064025300 ) ) ;
#55 = CARTESIAN_POINT ( 'NONE',  ( -3.552713678800500100E-015, 0.0000000000000000000, 40.45000000000001000 ) ) ;
#56 = APPROVAL ( #153, 'UNSPECIFIED' ) ;
#57 = CARTESIAN_POINT ( 'NONE',  ( -3.552713678800500100E-015, -12.84708935906349600, 2.094364234180176700 ) ) ;
#58 = FACE_OUTER_BOUND ( 'NONE', #52, .T. ) ;
#59 = CARTESIAN_POINT ( 'NONE',  ( 4.996003610813200500E-016, 2.442490654175340100E-015, 3.954589569477240400 ) ) ;
#60 = SECURITY_CLASSIFICATION ( '', '', #124 ) ;
#61 = ORIENTED_EDGE ( 'NONE', *, *, #178, .T. ) ;
#62 = PRODUCT_DEFINITION ( 'UNKNOWN', '', #264, #97 ) ;
#63 = CARTESIAN_POINT ( 'NONE',  ( 1.214306433183765000E-014, -4.435465386988242100, 6.723080521106418800 ) ) ;
#64 = AXIS2_PLACEMENT_3D ( 'NONE', #103, #16, #256 ) ;
#65 = CARTESIAN_POINT ( 'NONE',  ( 1.561251128379126400E-014, 12.84708935906351200, 3.905635765819827700 ) ) ;
#66 = FACE_OUTER_BOUND ( 'NONE', #293, .T. ) ;
#67 = PERSON_AND_ORGANIZATION ( #138, #50 ) ;
#68 = APPROVAL_PERSON_ORGANIZATION ( #184, #56, #213 ) ;
#69 = CIRCLE ( 'NONE', #197, 40.45000000000000300 ) ;
#70 = CARTESIAN_POINT ( 'NONE',  ( -12.11219596204327300, 12.84708935906349800, 4.057012983580202500 ) ) ;
#71 = CARTESIAN_POINT ( 'NONE',  ( -4.428510542263310900, 4.435465386988243900, -0.7230805211064087500 ) ) ;
#72 = LOCAL_TIME ( 14, 26, 38.00000000000000000, #141 ) ;
#73 = ORIENTED_EDGE ( 'NONE', *, *, #111, .T. ) ;
#74 = UNCERTAINTY_MEASURE_WITH_UNIT (LENGTH_MEASURE( 1.000000000000000100E-005 ), #291, 'distance_accuracy_value', 'NONE');
#75 = CARTESIAN_POINT ( 'NONE',  ( -1.561251128379126400E-014, -4.435465386988239400, -0.7230805211064076400 ) ) ;
#76 = CARTESIAN_POINT ( 'NONE',  ( 12.11219596204324500, -12.84708935906349800, 4.057012983580202500 ) ) ;
#77 = CARTESIAN_POINT ( 'NONE',  ( 12.69999999999999900, 2.442490654175340100E-015, 2.045410430522760100 ) ) ;
#78 = ORIENTED_EDGE ( 'NONE', *, *, #233, .F. ) ;
#79 = ORIENTED_EDGE ( 'NONE', *, *, #145, .T. ) ;
#80 = VERTEX_POINT ( 'NONE', #87 ) ;
#81 = APPLICATION_PROTOCOL_DEFINITION ( 'international standard', 'config_control_design', 1994, #23 ) ;
#82 = CARTESIAN_POINT ( 'NONE',  ( -12.69999999999999900, 3.997792089092478900E-015, 3.954589569477240400 ) ) ;
#83 = FACE_OUTER_BOUND ( 'NONE', #185, .T. ) ;
#84 = APPLICATION_PROTOCOL_DEFINITION ( 'international standard', 'config_control_design', 1994, #3 ) ;
#85 = DIRECTION ( 'NONE',  ( 1.000000000000000000, 0.0000000000000000000, 0.0000000000000000000 ) ) ;
#86 = AXIS2_PLACEMENT_3D ( 'NONE', #158, #180, #193 ) ;
#87 = CARTESIAN_POINT ( 'NONE',  ( -3.552713678800500100E-015, -12.69999999999998900, 2.045410430522760500 ) ) ;
#88 = PERSON_AND_ORGANIZATION ( #138, #50 ) ;
#89 =( BOUNDED_SURFACE ( )  B_SPLINE_SURFACE ( 3, 3, ( 
 ( #57, #100, #203, #76 ),
 ( #54, #53, #254, #198 ),
 ( #282, #140, #118, #10 ),
 ( #201, #229, #96, #283 ) ),
 .UNSPECIFIED., .F., .F., .F. ) 
 B_SPLINE_SURFACE_WITH_KNOTS ( ( 4, 4 ),
 ( 4, 4 ),
 ( 0.0000000000000000000, 1.000000000000000000 ),
 ( 0.0000000000000000000, 1.000000000000000000 ),
 .UNSPECIFIED. ) 
 GEOMETRIC_REPRESENTATION_ITEM ( )  RATIONAL_B_SPLINE_SURFACE ( (
 ( 1.000000000000000000, 0.9914164483316984000, 0.9914164483316984000, 1.000000000000000000),
 ( 0.9654822540720202600, 0.9571949872593648000, 0.9571949872593648000, 0.9654822540720202600),
 ( 0.9654822540720202600, 0.9571949872593648000, 0.9571949872593648000, 0.9654822540720202600),
 ( 1.000000000000000000, 0.9914164483316984000, 0.9914164483316984000, 1.000000000000000000) ) ) 
 REPRESENTATION_ITEM ( '' )  SURFACE ( )  );
#90 = CARTESIAN_POINT ( 'NONE',  ( 3.552713678800500100E-015, 0.0000000000000000000, -34.45000000000000300 ) ) ;
#91 = AXIS2_PLACEMENT_3D ( 'NONE', #102, #109, #174 ) ;
#92 = DIRECTION ( 'NONE',  ( 1.000000000000000000, 0.0000000000000000000, 0.0000000000000000000 ) ) ;
#93 = DIRECTION ( 'NONE',  ( 1.000000000000000000, 1.776356839400250500E-015, 0.0000000000000000000 ) ) ;
#94 = DATE_AND_TIME ( #208, #123 ) ;
#95 = CARTESIAN_POINT ( 'NONE',  ( -8.800002560946904100, -4.435465386988240300, -0.01472809926908458100 ) ) ;
#96 = CARTESIAN_POINT ( 'NONE',  ( 8.197824614870233600, 12.84708935906349900, 2.754244601205446200 ) ) ;
#97 = DESIGN_CONTEXT ( 'detailed design', #3, 'design' ) ;
#98 = DATE_AND_TIME ( #257, #146 ) ;
#99 = ORIENTED_EDGE ( 'NONE', *, *, #119, .T. ) ;
#100 = CARTESIAN_POINT ( 'NONE',  ( 4.125470700621249900, -12.84708935906349400, 2.094364234180176700 ) ) ;
#101 = CARTESIAN_POINT ( 'NONE',  ( 3.552713678800500100E-015, 12.69999999999999900, 3.954589569477235900 ) ) ;
#102 = CARTESIAN_POINT ( 'NONE',  ( 0.0000000000000000000, 0.0000000000000000000, 0.0000000000000000000 ) ) ;
#103 = CARTESIAN_POINT ( 'NONE',  ( 4.996003610813200500E-016, 2.442490654175340100E-015, 2.045410430522760100 ) ) ;
#104 = COORDINATED_UNIVERSAL_TIME_OFFSET ( 2, 0, .AHEAD. ) ;
#105 = CYLINDRICAL_SURFACE ( 'NONE', #217, 12.69999999999999900 ) ;
#106 = CC_DESIGN_DATE_AND_TIME_ASSIGNMENT ( #236, #239, ( #62 ) ) ;
#107 = CARTESIAN_POINT ( 'NONE',  ( 1.734723475976806800E-014, 4.435465386988249200, 6.723080521106410900 ) ) ;
#108 = CARTESIAN_POINT ( 'NONE',  ( -4.125470700621251700, -12.84708935906350600, 3.905635765819828600 ) ) ;
#109 = DIRECTION ( 'NONE',  ( 0.0000000000000000000, 0.0000000000000000000, 1.000000000000000000 ) ) ;
#110 = CARTESIAN_POINT ( 'NONE',  ( -8.800002560946881000, 4.435465386988250100, 6.014728099269087000 ) ) ;
#111 = EDGE_CURVE ( 'NONE', #8, #277, #295, .T. ) ;
#112 = DATE_TIME_ROLE ( 'classification_date' ) ;
#113 = CIRCLE ( 'NONE', #186, 12.69999999999999900 ) ;
#114 = CARTESIAN_POINT ( 'NONE',  ( 3.552713678800500100E-015, -12.69999999999999600, 3.954589569477239500 ) ) ;
#115 = DIRECTION ( 'NONE',  ( 1.000000000000000000, -8.881784197001252300E-016, 0.0000000000000000000 ) ) ;
#116 = EDGE_CURVE ( 'NONE', #46, #251, #270, .T. ) ;
#117 = DIRECTION ( 'NONE',  ( -0.0000000000000000000, -0.0000000000000000000, -1.000000000000000000 ) ) ;
#118 = CARTESIAN_POINT ( 'NONE',  ( 8.800002560946879300, 4.435465386988243900, -0.01472809926908306300 ) ) ;
#119 = EDGE_CURVE ( 'NONE', #157, #8, #195, .T. ) ;
#120 = CC_DESIGN_APPROVAL ( #290, ( #264 ) ) ;
#121 = CIRCLE ( 'NONE', #26, 12.69999999999999900 ) ;
#122 = CARTESIAN_POINT ( 'NONE',  ( 12.11219596204327200, 12.84708935906351000, 1.942987016419796200 ) ) ;
#123 = LOCAL_TIME ( 14, 26, 38.00000000000000000, #292 ) ;
#124 = SECURITY_CLASSIFICATION_LEVEL ( 'unclassified' ) ;
#125 = CARTESIAN_POINT ( 'NONE',  ( 8.800002560946902400, -4.435465386988243900, 6.014728099269094100 ) ) ;
#126 = CARTESIAN_POINT ( 'NONE',  ( 13.00190727322098100, 4.435465386988248300, 4.616263794431068500 ) ) ;
#127 = LINE ( 'NONE', #274, #223 ) ;
#128 = ORIENTED_EDGE ( 'NONE', *, *, #41, .T. ) ;
#129 = CARTESIAN_POINT ( 'NONE',  ( -8.197824614870237200, -12.84708935906350600, 3.245755398794561800 ) ) ;
#130 = CARTESIAN_POINT ( 'NONE',  ( -4.125470700621251700, 12.84708935906351200, 3.905635765819821500 ) ) ;
#131 = CARTESIAN_POINT ( 'NONE',  ( 3.552713678800500100E-015, 4.435465386988250100, 6.723080521106408200 ) ) ;
#132 = APPROVAL_DATE_TIME ( #192, #56 ) ;
#133 = EDGE_LOOP ( 'NONE', ( #37, #42, #20 ) ) ;
#134 = APPROVAL_ROLE ( '' ) ;
#135 = DIRECTION ( 'NONE',  ( -0.0000000000000000000, -0.0000000000000000000, -1.000000000000000000 ) ) ;
#136 =( BOUNDED_SURFACE ( )  B_SPLINE_SURFACE ( 3, 3, ( 
 ( #7, #284, #202, #144 ),
 ( #287, #95, #38, #75 ),
 ( #228, #13, #71, #252 ),
 ( #70, #161, #162, #142 ) ),
 .UNSPECIFIED., .F., .F., .F. ) 
 B_SPLINE_SURFACE_WITH_KNOTS ( ( 4, 4 ),
 ( 4, 4 ),
 ( 0.0000000000000000000, 1.000000000000000000 ),
 ( 0.0000000000000000000, 1.000000000000000000 ),
 .UNSPECIFIED. ) 
 GEOMETRIC_REPRESENTATION_ITEM ( )  RATIONAL_B_SPLINE_SURFACE ( (
 ( 1.000000000000000000, 0.9914164483316984000, 0.9914164483316984000, 1.000000000000000000),
 ( 0.9654822540720202600, 0.9571949872593648000, 0.9571949872593648000, 0.9654822540720202600),
 ( 0.9654822540720202600, 0.9571949872593648000, 0.9571949872593648000, 0.9654822540720202600),
 ( 1.000000000000000000, 0.9914164483316984000, 0.9914164483316984000, 1.000000000000000000) ) ) 
 REPRESENTATION_ITEM ( '' )  SURFACE ( )  );
#137 = CC_DESIGN_PERSON_AND_ORGANIZATION_ASSIGNMENT ( #49, #188, ( #264 ) ) ;
#138 = PERSON ( 'UNSPECIFIED', 'UNSPECIFIED', 'UNSPECIFIED', ('UNSPECIFIED'), ('UNSPECIFIED'), ('UNSPECIFIED') ) ;
#139 = ORIENTED_EDGE ( 'NONE', *, *, #151, .T. ) ;
#140 = CARTESIAN_POINT ( 'NONE',  ( 4.428510542263288700, 4.435465386988244800, -0.7230805211064036400 ) ) ;
#141 = COORDINATED_UNIVERSAL_TIME_OFFSET ( 2, 0, .AHEAD. ) ;
#142 = CARTESIAN_POINT ( 'NONE',  ( -1.040834085586084300E-014, 12.84708935906349900, 2.094364234180170000 ) ) ;
#143 = PRODUCT_DEFINITION_SHAPE ( 'NONE', 'NONE',  #62 ) ;
#144 = CARTESIAN_POINT ( 'NONE',  ( -1.387778780781445700E-014, -12.84708935906349600, 2.094364234180170900 ) ) ;
#145 = EDGE_CURVE ( 'NONE', #157, #277, #69, .T. ) ;
#146 = LOCAL_TIME ( 14, 26, 38.00000000000000000, #294 ) ;
#147 = FACE_OUTER_BOUND ( 'NONE', #148, .T. ) ;
#148 = EDGE_LOOP ( 'NONE', ( #281, #169, #200, #61, #227, #99 ) ) ;
#149 = CARTESIAN_POINT ( 'NONE',  ( -3.552713678800500100E-015, 12.69999999999999000, 2.045410430522757000 ) ) ;
#150 = PERSON_AND_ORGANIZATION_ROLE ( 'creator' ) ;
#151 = EDGE_CURVE ( 'NONE', #46, #8, #127, .T. ) ;
#152 = CC_DESIGN_PERSON_AND_ORGANIZATION_ASSIGNMENT ( #268, #21, ( #60 ) ) ;
#153 = APPROVAL_STATUS ( 'not_yet_approved' ) ;
#154 = CARTESIAN_POINT ( 'NONE',  ( 4.996003610813200500E-016, 2.442490654175340100E-015, 2.045410430522760100 ) ) ;
#155 = CARTESIAN_POINT ( 'NONE',  ( 4.996003610813200500E-016, 2.442490654175340100E-015, 2.045410430522760100 ) ) ;
#156 = CALENDAR_DATE ( 2019, 9, 1 ) ;
#157 = VERTEX_POINT ( 'NONE', #114 ) ;
#158 = CARTESIAN_POINT ( 'NONE',  ( 4.996003610813200500E-016, 2.442490654175340100E-015, 3.954589569477240400 ) ) ;
#159 = AXIS2_PLACEMENT_3D ( 'NONE', #177, #34, #221 ) ;
#160 = ORIENTED_EDGE ( 'NONE', *, *, #145, .F. ) ;
#161 = CARTESIAN_POINT ( 'NONE',  ( -8.197824614870258500, 12.84708935906349900, 2.754244601205441800 ) ) ;
#162 = CARTESIAN_POINT ( 'NONE',  ( -4.125470700621267600, 12.84708935906349900, 2.094364234180170900 ) ) ;
#163 = DIRECTION ( 'NONE',  ( 1.000000000000000000, 0.0000000000000000000, 0.0000000000000000000 ) ) ;
#164 = APPROVAL_PERSON_ORGANIZATION ( #279, #167, #134 ) ;
#165 = CIRCLE ( 'NONE', #288, 12.69999999999999900 ) ;
#166 = DIRECTION ( 'NONE',  ( 0.0000000000000000000, -1.000000000000000000, -6.861699781366850700E-016 ) ) ;
#167 = APPROVAL ( #190, 'UNSPECIFIED' ) ;
#168 = LINE ( 'NONE', #32, #179 ) ;
#169 = ORIENTED_EDGE ( 'NONE', *, *, #275, .F. ) ;
#170 = AXIS2_PLACEMENT_3D ( 'NONE', #260, #212, #211 ) ;
#171 = LOCAL_TIME ( 14, 26, 38.00000000000000000, #285 ) ;
#172 = ADVANCED_FACE ( 'NONE', ( #147 ), #105, .T. ) ;
#173 = ADVANCED_BREP_SHAPE_REPRESENTATION ( '111-0208E BK7 bi-cx 25.4 F40', ( #35, #91 ), #206 ) ;
#174 = DIRECTION ( 'NONE',  ( 1.000000000000000000, 0.0000000000000000000, 0.0000000000000000000 ) ) ;
#175 = CARTESIAN_POINT ( 'NONE',  ( -12.69999999999999900, 3.997792089092478900E-015, 2.045410430522760100 ) ) ;
#176 = PERSON_AND_ORGANIZATION ( #138, #50 ) ;
#177 = CARTESIAN_POINT ( 'NONE',  ( 4.996003610813200500E-016, 2.442490654175340100E-015, 3.954589569477240400 ) ) ;
#178 = EDGE_CURVE ( 'NONE', #247, #271, #168, .T. ) ;
#179 = VECTOR ( 'NONE', #12, 1000.000000000000000 ) ;
#180 = DIRECTION ( 'NONE',  ( -0.0000000000000000000, -0.0000000000000000000, -1.000000000000000000 ) ) ;
#181 = ORIENTED_EDGE ( 'NONE', *, *, #119, .F. ) ;
#182 = DIRECTION ( 'NONE',  ( -0.0000000000000000000, -0.0000000000000000000, -1.000000000000000000 ) ) ;
#183 = ORIENTED_EDGE ( 'NONE', *, *, #233, .T. ) ;
#184 = PERSON_AND_ORGANIZATION ( #138, #50 ) ;
#185 = EDGE_LOOP ( 'NONE', ( #160, #224, #78 ) ) ;
#186 = AXIS2_PLACEMENT_3D ( 'NONE', #155, #30, #85 ) ;
#187 = CC_DESIGN_DATE_AND_TIME_ASSIGNMENT ( #216, #112, ( #60 ) ) ;
#188 = PERSON_AND_ORGANIZATION_ROLE ( 'creator' ) ;
#189 = CARTESIAN_POINT ( 'NONE',  ( -13.00190727322096000, -4.435465386988242100, 4.616263794431074700 ) ) ;
#190 = APPROVAL_STATUS ( 'not_yet_approved' ) ;
#191 = SHAPE_DEFINITION_REPRESENTATION ( #143, #173 ) ;
#192 = DATE_AND_TIME ( #11, #222 ) ;
#193 = DIRECTION ( 'NONE',  ( 1.000000000000000000, 0.0000000000000000000, 0.0000000000000000000 ) ) ;
#194 = CC_DESIGN_PERSON_AND_ORGANIZATION_ASSIGNMENT ( #18, #150, ( #62 ) ) ;
#195 = CIRCLE ( 'NONE', #159, 12.69999999999999900 ) ;
#196 =( BOUNDED_SURFACE ( )  B_SPLINE_SURFACE ( 3, 3, ( 
 ( #238, #265, #262, #209 ),
 ( #43, #125, #22, #63 ),
 ( #126, #241, #258, #107 ),
 ( #122, #17, #273, #65 ) ),
 .UNSPECIFIED., .F., .F., .F. ) 
 B_SPLINE_SURFACE_WITH_KNOTS ( ( 4, 4 ),
 ( 4, 4 ),
 ( 0.0000000000000000000, 1.000000000000000000 ),
 ( 0.0000000000000000000, 1.000000000000000000 ),
 .UNSPECIFIED. ) 
 GEOMETRIC_REPRESENTATION_ITEM ( )  RATIONAL_B_SPLINE_SURFACE ( (
 ( 1.000000000000000000, 0.9914164483316984000, 0.9914164483316984000, 1.000000000000000000),
 ( 0.9654822540720202600, 0.9571949872593648000, 0.9571949872593648000, 0.9654822540720202600),
 ( 0.9654822540720202600, 0.9571949872593648000, 0.9571949872593648000, 0.9654822540720202600),
 ( 1.000000000000000000, 0.9914164483316984000, 0.9914164483316984000, 1.000000000000000000) ) ) 
 REPRESENTATION_ITEM ( '' )  SURFACE ( )  );
#197 = AXIS2_PLACEMENT_3D ( 'NONE', #90, #48, #31 ) ;
#198 = CARTESIAN_POINT ( 'NONE',  ( 13.00190727322095100, -4.435465386988240300, 1.383736205568935500 ) ) ;
#199 = FACE_OUTER_BOUND ( 'NONE', #133, .T. ) ;
#200 = ORIENTED_EDGE ( 'NONE', *, *, #41, .F. ) ;
#201 = CARTESIAN_POINT ( 'NONE',  ( -3.552713678800500100E-015, 12.84708935906349900, 2.094364234180176700 ) ) ;
#202 = CARTESIAN_POINT ( 'NONE',  ( -4.125470700621270300, -12.84708935906349400, 2.094364234180171800 ) ) ;
#203 = CARTESIAN_POINT ( 'NONE',  ( 8.197824614870230100, -12.84708935906349400, 2.754244601205445300 ) ) ;
#204 = DIRECTION ( 'NONE',  ( 1.000000000000000000, -8.881784197001252300E-016, 0.0000000000000000000 ) ) ;
#205 = ORIENTED_EDGE ( 'NONE', *, *, #111, .F. ) ;
#206 =( GEOMETRIC_REPRESENTATION_CONTEXT ( 3 ) GLOBAL_UNCERTAINTY_ASSIGNED_CONTEXT ( ( #74 ) ) GLOBAL_UNIT_ASSIGNED_CONTEXT ( ( #291, #39, #15 ) ) REPRESENTATION_CONTEXT ( 'NONE', 'WORKASPACE' ) );
#207 = CC_DESIGN_APPROVAL ( #167, ( #60 ) ) ;
#208 = CALENDAR_DATE ( 2019, 9, 1 ) ;
#209 = CARTESIAN_POINT ( 'NONE',  ( 1.387778780781445700E-014, -12.84708935906350600, 3.905635765819834000 ) ) ;
#210 = EDGE_CURVE ( 'NONE', #80, #251, #2, .T. ) ;
#211 = DIRECTION ( 'NONE',  ( 1.000000000000000000, 0.0000000000000000000, 0.0000000000000000000 ) ) ;
#212 = DIRECTION ( 'NONE',  ( 0.0000000000000000000, 0.0000000000000000000, 1.000000000000000000 ) ) ;
#213 = APPROVAL_ROLE ( '' ) ;
#214 = CC_DESIGN_PERSON_AND_ORGANIZATION_ASSIGNMENT ( #67, #261, ( #264 ) ) ;
#215 = CARTESIAN_POINT ( 'NONE',  ( -8.800002560946882800, -4.435465386988243000, 6.014728099269094100 ) ) ;
#216 = DATE_AND_TIME ( #156, #171 ) ;
#217 = AXIS2_PLACEMENT_3D ( 'NONE', #225, #9, #92 ) ;
#218 = CARTESIAN_POINT ( 'NONE',  ( 3.552713678800500100E-015, 12.84708935906351200, 3.905635765819822000 ) ) ;
#219 = ADVANCED_FACE ( 'NONE', ( #199 ), #136, .T. ) ;
#220 = EDGE_CURVE ( 'NONE', #271, #157, #121, .T. ) ;
#221 = DIRECTION ( 'NONE',  ( 1.000000000000000000, 0.0000000000000000000, 0.0000000000000000000 ) ) ;
#222 = LOCAL_TIME ( 14, 26, 38.00000000000000000, #104 ) ;
#223 = VECTOR ( 'NONE', #1, 1000.000000000000000 ) ;
#224 = ORIENTED_EDGE ( 'NONE', *, *, #220, .F. ) ;
#225 = CARTESIAN_POINT ( 'NONE',  ( 4.996003610813200500E-016, 2.442490654175340100E-015, 2.045410430522760100 ) ) ;
#226 = PRODUCT_RELATED_PRODUCT_CATEGORY ( 'detail', '', ( #36 ) ) ;
#227 = ORIENTED_EDGE ( 'NONE', *, *, #220, .T. ) ;
#228 = CARTESIAN_POINT ( 'NONE',  ( -13.00190727322098100, 4.435465386988241200, 1.383736205568934400 ) ) ;
#229 = CARTESIAN_POINT ( 'NONE',  ( 4.125470700621251700, 12.84708935906349900, 2.094364234180176700 ) ) ;
#230 = AXIS2_PLACEMENT_3D ( 'NONE', #154, #135, #93 ) ;
#231 = APPROVAL_DATE_TIME ( #94, #290 ) ;
#232 = CARTESIAN_POINT ( 'NONE',  ( 4.996003610813200500E-016, 2.442490654175340100E-015, 3.954589569477240400 ) ) ;
#233 = EDGE_CURVE ( 'NONE', #277, #271, #165, .T. ) ;
#234 = CC_DESIGN_APPROVAL ( #56, ( #62 ) ) ;
#235 = APPROVAL_PERSON_ORGANIZATION ( #176, #290, #25 ) ;
#236 = DATE_AND_TIME ( #246, #72 ) ;
#237 = APPROVAL_STATUS ( 'not_yet_approved' ) ;
#238 = CARTESIAN_POINT ( 'NONE',  ( 12.11219596204327000, -12.84708935906350800, 1.942987016419803300 ) ) ;
#239 = DATE_TIME_ROLE ( 'creation_date' ) ;
#240 = MECHANICAL_CONTEXT ( 'NONE', #23, 'mechanical' ) ;
#241 = CARTESIAN_POINT ( 'NONE',  ( 8.800002560946907700, 4.435465386988249200, 6.014728099269089700 ) ) ;
#242 = CYLINDRICAL_SURFACE ( 'NONE', #170, 12.69999999999999900 ) ;
#243 = ADVANCED_FACE ( 'NONE', ( #66 ), #89, .T. ) ;
#244 = CARTESIAN_POINT ( 'NONE',  ( -12.11219596204325200, -12.84708935906350600, 1.942987016419803100 ) ) ;
#245 = AXIS2_PLACEMENT_3D ( 'NONE', #248, #33, #115 ) ;
#246 = CALENDAR_DATE ( 2019, 9, 1 ) ;
#247 = VERTEX_POINT ( 'NONE', #77 ) ;
#248 = CARTESIAN_POINT ( 'NONE',  ( 4.996003610813200500E-016, 2.442490654175340100E-015, 2.045410430522760100 ) ) ;
#249 = CARTESIAN_POINT ( 'NONE',  ( 12.69999999999999900, 2.442490654175340100E-015, 3.954589569477240400 ) ) ;
#250 = CIRCLE ( 'NONE', #230, 12.69999999999999900 ) ;
#251 = VERTEX_POINT ( 'NONE', #149 ) ;
#252 = CARTESIAN_POINT ( 'NONE',  ( -1.561251128379126400E-014, 4.435465386988242100, -0.7230805211064103000 ) ) ;
#253 = DIRECTION ( 'NONE',  ( 1.000000000000000000, 0.0000000000000000000, 0.0000000000000000000 ) ) ;
#254 = CARTESIAN_POINT ( 'NONE',  ( 8.800002560946875700, -4.435465386988241200, -0.01472809926908176000 ) ) ;
#255 = ORIENTED_EDGE ( 'NONE', *, *, #210, .T. ) ;
#256 = DIRECTION ( 'NONE',  ( 1.000000000000000000, 0.0000000000000000000, 0.0000000000000000000 ) ) ;
#257 = CALENDAR_DATE ( 2019, 9, 1 ) ;
#258 = CARTESIAN_POINT ( 'NONE',  ( 4.428510542263313500, 4.435465386988249200, 6.723080521106410000 ) ) ;
#259 = CLOSED_SHELL ( 'NONE', ( #243, #40, #5, #219, #172, #24 ) ) ;
#260 = CARTESIAN_POINT ( 'NONE',  ( 4.996003610813200500E-016, 2.442490654175340100E-015, 2.045410430522760100 ) ) ;
#261 = PERSON_AND_ORGANIZATION_ROLE ( 'design_supplier' ) ;
#262 = CARTESIAN_POINT ( 'NONE',  ( 4.125470700621270300, -12.84708935906350600, 3.905635765819832600 ) ) ;
#263 = AXIS2_PLACEMENT_3D ( 'NONE', #55, #163, #166 ) ;
#264 = PRODUCT_DEFINITION_FORMATION_WITH_SPECIFIED_SOURCE ( 'ANY', '', #36, .NOT_KNOWN. ) ;
#265 = CARTESIAN_POINT ( 'NONE',  ( 8.197824614870254900, -12.84708935906350800, 3.245755398794562700 ) ) ;
#266 = ORIENTED_EDGE ( 'NONE', *, *, #44, .T. ) ;
#267 = PERSON_AND_ORGANIZATION_ROLE ( 'design_owner' ) ;
#268 = PERSON_AND_ORGANIZATION ( #138, #50 ) ;
#269 = CARTESIAN_POINT ( 'NONE',  ( 3.552713678800500100E-015, -4.435465386988241200, 6.723080521106412600 ) ) ;
#270 = CIRCLE ( 'NONE', #245, 12.69999999999999900 ) ;
#271 = VERTEX_POINT ( 'NONE', #249 ) ;
#272 = ORIENTED_EDGE ( 'NONE', *, *, #178, .F. ) ;
#273 = CARTESIAN_POINT ( 'NONE',  ( 4.125470700621272100, 12.84708935906351200, 3.905635765819826400 ) ) ;
#274 = CARTESIAN_POINT ( 'NONE',  ( -12.69999999999999900, 3.997792089092478900E-015, 2.045410430522760100 ) ) ;
#275 = EDGE_CURVE ( 'NONE', #80, #46, #286, .T. ) ;
#276 = APPROVAL_DATE_TIME ( #98, #167 ) ;
#277 = VERTEX_POINT ( 'NONE', #101 ) ;
#278 = CC_DESIGN_SECURITY_CLASSIFICATION ( #60, ( #264 ) ) ;
#279 = PERSON_AND_ORGANIZATION ( #138, #50 ) ;
#280 = FACE_OUTER_BOUND ( 'NONE', #19, .T. ) ;
#281 = ORIENTED_EDGE ( 'NONE', *, *, #151, .F. ) ;
#282 = CARTESIAN_POINT ( 'NONE',  ( -3.552713678800500100E-015, 4.435465386988243000, -0.7230805211064037500 ) ) ;
#283 = CARTESIAN_POINT ( 'NONE',  ( 12.11219596204325000, 12.84708935906349800, 4.057012983580204200 ) ) ;
#284 = CARTESIAN_POINT ( 'NONE',  ( -8.197824614870254900, -12.84708935906349400, 2.754244601205442700 ) ) ;
#285 = COORDINATED_UNIVERSAL_TIME_OFFSET ( 2, 0, .AHEAD. ) ;
#286 = CIRCLE ( 'NONE', #64, 12.69999999999999900 ) ;
#287 = CARTESIAN_POINT ( 'NONE',  ( -13.00190727322097900, -4.435465386988239400, 1.383736205568935300 ) ) ;
#288 = AXIS2_PLACEMENT_3D ( 'NONE', #59, #117, #204 ) ;
#289 = ORIENTED_EDGE ( 'NONE', *, *, #116, .F. ) ;
#290 = APPROVAL ( #237, 'UNSPECIFIED' ) ;
#291 =( LENGTH_UNIT ( ) NAMED_UNIT ( * ) SI_UNIT ( .MILLI., .METRE. ) );
#292 = COORDINATED_UNIVERSAL_TIME_OFFSET ( 2, 0, .AHEAD. ) ;
#293 = EDGE_LOOP ( 'NONE', ( #128, #255, #266 ) ) ;
#294 = COORDINATED_UNIVERSAL_TIME_OFFSET ( 2, 0, .AHEAD. ) ;
#295 = CIRCLE ( 'NONE', #86, 12.69999999999999900 ) ;
ENDSEC;
END-ISO-10303-21;
