ISO-10303-21;
HEADER;
FILE_DESCRIPTION (( 'STEP AP203' ),
    '1' );
FILE_NAME ('111-0204E BK7 bi-cx 25.4 F25.STEP',
    '2019-01-09T11:54:21',
    ( '' ),
    ( '' ),
    'SwSTEP 2.0',
    'SolidWorks 2017',
    '' );
FILE_SCHEMA (( 'CONFIG_CONTROL_DESIGN' ));
ENDSEC;

DATA;
#1 = CARTESIAN_POINT ( 'NONE',  ( -12.69999999999999900, 3.997792089092478900E-015, 5.417142660125700000 ) ) ;
#2 = CARTESIAN_POINT ( 'NONE',  ( 4.996003610813200500E-016, 2.442490654175340100E-015, 5.417142660125700000 ) ) ;
#3 = CC_DESIGN_PERSON_AND_ORGANIZATION_ASSIGNMENT ( #170, #247, ( #264 ) ) ;
#4 = CARTESIAN_POINT ( 'NONE',  ( -12.69999999999999900, 3.997792089092478900E-015, 3.582857339874300000 ) ) ;
#5 = CARTESIAN_POINT ( 'NONE',  ( -2.113341005203978600E-014, -4.757444677770839900, -1.359108316271435700 ) ) ;
#6 = ADVANCED_FACE ( 'NONE', ( #39 ), #53, .T. ) ;
#7 = CARTESIAN_POINT ( 'NONE',  ( 12.69999999999999900, 2.442490654175340100E-015, 3.582857339874300000 ) ) ;
#8 = ORIENTED_EDGE ( 'NONE', *, *, #136, .F. ) ;
#9 = ORIENTED_EDGE ( 'NONE', *, *, #77, .T. ) ;
#10 = CARTESIAN_POINT ( 'NONE',  ( 13.48242484058275500, 4.757444677770831000, 6.531492390676993900 ) ) ;
#11 = CARTESIAN_POINT ( 'NONE',  ( 10.84142416528487000, -12.83644001106124200, 2.255037166317924500 ) ) ;
#12 = CARTESIAN_POINT ( 'NONE',  ( -4.793218249241295600, 4.757444677770827500, 10.35910831627144000 ) ) ;
#13 = CARTESIAN_POINT ( 'NONE',  ( -9.404219688426032100, 4.757444677770827500, 9.050060222160231800 ) ) ;
#14 = VERTEX_POINT ( 'NONE', #23 ) ;
#15 = COORDINATED_UNIVERSAL_TIME_OFFSET ( 2, 0, .AHEAD. ) ;
#16 = ADVANCED_FACE ( 'NONE', ( #98 ), #225, .T. ) ;
#17 = APPROVAL_ROLE ( '' ) ;
#18 = EDGE_CURVE ( 'NONE', #182, #97, #147, .T. ) ;
#19 = PERSON_AND_ORGANIZATION ( #289, #250 ) ;
#20 = ORIENTED_EDGE ( 'NONE', *, *, #105, .T. ) ;
#21 = DATE_AND_TIME ( #188, #175 ) ;
#22 = ORIENTED_EDGE ( 'NONE', *, *, #77, .F. ) ;
#23 = CARTESIAN_POINT ( 'NONE',  ( 12.69999999999999900, 2.442490654175340100E-015, 5.417142660125700000 ) ) ;
#24 = LOCAL_TIME ( 13, 54, 21.00000000000000000, #83 ) ;
#25 = CARTESIAN_POINT ( 'NONE',  ( -1.314439400493510000E-014, 12.69999999999999400, 3.582857339874302200 ) ) ;
#26 = FACE_OUTER_BOUND ( 'NONE', #191, .T. ) ;
#27 = CARTESIAN_POINT ( 'NONE',  ( -1.305637565074326700E-014, 12.83644001106123700, 3.667118285551430400 ) ) ;
#28 = DIRECTION ( 'NONE',  ( 1.000000000000000000, 0.0000000000000000000, 0.0000000000000000000 ) ) ;
#29 = DIRECTION ( 'NONE',  ( 1.000000000000000000, 0.0000000000000000000, 0.0000000000000000000 ) ) ;
#30 = DIRECTION ( 'NONE',  ( 0.0000000000000000000, 0.0000000000000000000, 1.000000000000000000 ) ) ;
#31 = CIRCLE ( 'NONE', #63, 12.69999999999999900 ) ;
#32 = CARTESIAN_POINT ( 'NONE',  ( -5.329070518200749800E-015, -5.329070518200749800E-015, 24.30000000000000100 ) ) ;
#33 = ORIENTED_EDGE ( 'NONE', *, *, #151, .T. ) ;
#34 = AXIS2_PLACEMENT_3D ( 'NONE', #91, #229, #111 ) ;
#35 = APPROVAL_PERSON_ORGANIZATION ( #153, #278, #17 ) ;
#36 = CARTESIAN_POINT ( 'NONE',  ( 9.404219688426040900, -4.757444677770831900, 9.050060222160237100 ) ) ;
#37 = DATE_AND_TIME ( #262, #24 ) ;
#38 = CARTESIAN_POINT ( 'NONE',  ( -7.562076984761658200, 12.83644001106123500, 4.280256106753811600 ) ) ;
#39 = FACE_OUTER_BOUND ( 'NONE', #67, .T. ) ;
#40 = CARTESIAN_POINT ( 'NONE',  ( -7.562076984761667100, 12.83644001106123900, 4.719743893246191900 ) ) ;
#41 = EDGE_CURVE ( 'NONE', #97, #120, #133, .T. ) ;
#42 = DIRECTION ( 'NONE',  ( 0.0000000000000000000, 0.0000000000000000000, 1.000000000000000000 ) ) ;
#43 = ORIENTED_EDGE ( 'NONE', *, *, #256, .F. ) ;
#44 = DATE_AND_TIME ( #160, #222 ) ;
#45 = SHAPE_DEFINITION_REPRESENTATION ( #215, #66 ) ;
#46 = AXIS2_PLACEMENT_3D ( 'NONE', #277, #73, #163 ) ;
#47 = FACE_OUTER_BOUND ( 'NONE', #54, .T. ) ;
#48 = DIRECTION ( 'NONE',  ( 0.0000000000000000000, 0.0000000000000000000, 1.000000000000000000 ) ) ;
#49 = CARTESIAN_POINT ( 'NONE',  ( 4.996003610813200500E-016, 2.442490654175340100E-015, 3.582857339874300000 ) ) ;
#50 = CARTESIAN_POINT ( 'NONE',  ( 10.84142416528487900, 12.83644001106123200, 6.744962833682086200 ) ) ;
#51 = CARTESIAN_POINT ( 'NONE',  ( -2.073789019928627300E-014, -12.69999999999999900, 3.582857339874302200 ) ) ;
#52 = CARTESIAN_POINT ( 'NONE',  ( 4.996003610813200500E-016, 2.442490654175340100E-015, 3.582857339874300000 ) ) ;
#53 =( BOUNDED_SURFACE ( )  B_SPLINE_SURFACE ( 3, 3, ( 
 ( #167, #165, #162, #169 ),
 ( #5, #118, #93, #184 ),
 ( #72, #69, #208, #281 ),
 ( #27, #234, #187, #50 ) ),
 .UNSPECIFIED., .F., .F., .F. ) 
 B_SPLINE_SURFACE_WITH_KNOTS ( ( 4, 4 ),
 ( 4, 4 ),
 ( 0.0000000000000000000, 1.000000000000000000 ),
 ( 0.0000000000000000000, 1.000000000000000000 ),
 .UNSPECIFIED. ) 
 GEOMETRIC_REPRESENTATION_ITEM ( )  RATIONAL_B_SPLINE_SURFACE ( (
 ( 1.000000000000000000, 0.9746563024977477100, 0.9746563024977477100, 1.000000000000000000),
 ( 0.8993931883250635400, 0.8765992394245668600, 0.8765992394245668600, 0.8993931883250635400),
 ( 0.8993931883250635400, 0.8765992394245668600, 0.8765992394245668600, 0.8993931883250635400),
 ( 1.000000000000000000, 0.9746563024977477100, 0.9746563024977477100, 1.000000000000000000) ) ) 
 REPRESENTATION_ITEM ( '' )  SURFACE ( )  );
#54 = EDGE_LOOP ( 'NONE', ( #110, #121, #33 ) ) ;
#55 = CARTESIAN_POINT ( 'NONE',  ( 13.48242484058275500, -4.757444677770833700, 6.531492390676993900 ) ) ;
#56 = AXIS2_PLACEMENT_3D ( 'NONE', #176, #42, #84 ) ;
#57 = LOCAL_TIME ( 13, 54, 21.00000000000000000, #180 ) ;
#58 = CARTESIAN_POINT ( 'NONE',  ( -3.854300155294830600, -12.83644001106124200, 5.332881714448571000 ) ) ;
#59 = PRODUCT_DEFINITION ( 'UNKNOWN', '', #264, #109 ) ;
#60 = CARTESIAN_POINT ( 'NONE',  ( 1.156321658104395000E-014, -12.83644001106124400, 5.332881714448571000 ) ) ;
#61 = PERSON_AND_ORGANIZATION_ROLE ( 'classification_officer' ) ;
#62 = APPLICATION_PROTOCOL_DEFINITION ( 'international standard', 'config_control_design', 1994, #82 ) ;
#63 = AXIS2_PLACEMENT_3D ( 'NONE', #2, #48, #295 ) ;
#64 = EDGE_LOOP ( 'NONE', ( #96, #221, #20, #254, #244, #22 ) ) ;
#65 = APPLICATION_PROTOCOL_DEFINITION ( 'international standard', 'config_control_design', 1994, #245 ) ;
#66 = ADVANCED_BREP_SHAPE_REPRESENTATION ( '111-0204E BK7 bi-cx 25.4 F25', ( #80, #56 ), #201 ) ;
#67 = EDGE_LOOP ( 'NONE', ( #235, #68, #158 ) ) ;
#68 = ORIENTED_EDGE ( 'NONE', *, *, #18, .T. ) ;
#69 = CARTESIAN_POINT ( 'NONE',  ( 4.793218249241291100, 4.757444677770823900, -1.359108316271441700 ) ) ;
#70 = CARTESIAN_POINT ( 'NONE',  ( -3.854300155294854100, -12.83644001106123700, 3.667118285551431700 ) ) ;
#71 = CC_DESIGN_APPROVAL ( #278, ( #275 ) ) ;
#72 = CARTESIAN_POINT ( 'NONE',  ( -1.828887162247372700E-014, 4.757444677770826600, -1.359108316271439200 ) ) ;
#73 = DIRECTION ( 'NONE',  ( 0.0000000000000000000, 0.0000000000000000000, 1.000000000000000000 ) ) ;
#74 = LOCAL_TIME ( 13, 54, 21.00000000000000000, #15 ) ;
#75 = CLOSED_SHELL ( 'NONE', ( #241, #6, #16, #282, #119, #223 ) ) ;
#76 = CARTESIAN_POINT ( 'NONE',  ( 4.996003610813200500E-016, 2.442490654175340100E-015, 3.582857339874300000 ) ) ;
#77 = EDGE_CURVE ( 'NONE', #294, #14, #103, .T. ) ;
#78 = CC_DESIGN_PERSON_AND_ORGANIZATION_ASSIGNMENT ( #236, #220, ( #268 ) ) ;
#79 = CARTESIAN_POINT ( 'NONE',  ( -10.84142416528487000, 12.83644001106123700, 2.255037166317914300 ) ) ;
#80 = MANIFOLD_SOLID_BREP ( 'Imported1', #75 ) ;
#81 = CARTESIAN_POINT ( 'NONE',  ( 10.84142416528486700, 12.83644001106123900, 2.255037166317924500 ) ) ;
#82 = APPLICATION_CONTEXT ( 'configuration controlled 3d designs of mechanical parts and assemblies' ) ;
#83 = COORDINATED_UNIVERSAL_TIME_OFFSET ( 2, 0, .AHEAD. ) ;
#84 = DIRECTION ( 'NONE',  ( 1.000000000000000000, 0.0000000000000000000, 0.0000000000000000000 ) ) ;
#85 = PRODUCT_RELATED_PRODUCT_CATEGORY ( 'detail', '', ( #268 ) ) ;
#86 = CIRCLE ( 'NONE', #100, 12.69999999999999900 ) ;
#87 = AXIS2_PLACEMENT_3D ( 'NONE', #207, #94, #259 ) ;
#88 = DIRECTION ( 'NONE',  ( -2.989565430846921300E-016, -1.000000000000000000, -2.855511894612027800E-016 ) ) ;
#89 = PERSON_AND_ORGANIZATION ( #289, #250 ) ;
#90 = CARTESIAN_POINT ( 'NONE',  ( -9.404219688426042700, -4.757444677770828400, -0.05006022216023052500 ) ) ;
#91 = CARTESIAN_POINT ( 'NONE',  ( 4.996003610813200500E-016, 2.442490654175340100E-015, 3.582857339874300000 ) ) ;
#92 = CC_DESIGN_PERSON_AND_ORGANIZATION_ASSIGNMENT ( #114, #269, ( #59 ) ) ;
#93 = CARTESIAN_POINT ( 'NONE',  ( 9.404219688426030300, -4.757444677770842600, -0.05006022216023226600 ) ) ;
#94 = DIRECTION ( 'NONE',  ( 0.0000000000000000000, 0.0000000000000000000, 1.000000000000000000 ) ) ;
#95 = FACE_OUTER_BOUND ( 'NONE', #227, .T. ) ;
#96 = ORIENTED_EDGE ( 'NONE', *, *, #242, .T. ) ;
#97 = VERTEX_POINT ( 'NONE', #25 ) ;
#98 = FACE_OUTER_BOUND ( 'NONE', #64, .T. ) ;
#99 = CARTESIAN_POINT ( 'NONE',  ( 3.854300155294844400, 12.83644001106123700, 5.332881714448570100 ) ) ;
#100 = AXIS2_PLACEMENT_3D ( 'NONE', #255, #276, #28 ) ;
#101 = CARTESIAN_POINT ( 'NONE',  ( -10.84142416528487200, 12.83644001106124000, 6.744962833682081700 ) ) ;
#102 = AXIS2_PLACEMENT_3D ( 'NONE', #52, #143, #29 ) ;
#103 = LINE ( 'NONE', #7, #200 ) ;
#104 = APPROVAL_STATUS ( 'not_yet_approved' ) ;
#105 = EDGE_CURVE ( 'NONE', #120, #217, #141, .T. ) ;
#106 =( NAMED_UNIT ( * ) PLANE_ANGLE_UNIT ( ) SI_UNIT ( $, .RADIAN. ) );
#107 = CC_DESIGN_APPROVAL ( #156, ( #264 ) ) ;
#108 = CALENDAR_DATE ( 2019, 9, 1 ) ;
#109 = DESIGN_CONTEXT ( 'detailed design', #245, 'design' ) ;
#110 = ORIENTED_EDGE ( 'NONE', *, *, #204, .F. ) ;
#111 = DIRECTION ( 'NONE',  ( 1.000000000000000000, 0.0000000000000000000, 0.0000000000000000000 ) ) ;
#112 = CARTESIAN_POINT ( 'NONE',  ( -2.775557561562891400E-014, -4.757444677770831900, -1.359108316271439200 ) ) ;
#113 = CARTESIAN_POINT ( 'NONE',  ( -10.84142416528487600, -12.83644001106123900, 6.744962833682078200 ) ) ;
#114 = PERSON_AND_ORGANIZATION ( #289, #250 ) ;
#115 = CC_DESIGN_APPROVAL ( #125, ( #59 ) ) ;
#116 = CARTESIAN_POINT ( 'NONE',  ( 4.996003610813200500E-016, 2.442490654175340100E-015, 3.582857339874300000 ) ) ;
#117 = AXIS2_PLACEMENT_3D ( 'NONE', #116, #258, #272 ) ;
#118 = CARTESIAN_POINT ( 'NONE',  ( 4.793218249241289400, -4.757444677770840800, -1.359108316271438400 ) ) ;
#119 = ADVANCED_FACE ( 'NONE', ( #26 ), #286, .T. ) ;
#120 = VERTEX_POINT ( 'NONE', #280 ) ;
#121 = ORIENTED_EDGE ( 'NONE', *, *, #256, .T. ) ;
#122 = CARTESIAN_POINT ( 'NONE',  ( -3.854300155294829300, 12.83644001106123500, 5.332881714448571000 ) ) ;
#123 = EDGE_CURVE ( 'NONE', #182, #294, #157, .T. ) ;
#124 = CARTESIAN_POINT ( 'NONE',  ( 7.562076984761661800, 12.83644001106123700, 4.280256106753813400 ) ) ;
#125 = APPROVAL ( #104, 'UNSPECIFIED' ) ;
#126 = DIRECTION ( 'NONE',  ( 1.000000000000000000, 0.0000000000000000000, 0.0000000000000000000 ) ) ;
#127 = CARTESIAN_POINT ( 'NONE',  ( -13.48242484058275900, -4.757444677770833700, 6.531492390676979700 ) ) ;
#128 = APPROVAL_PERSON_ORGANIZATION ( #89, #156, #224 ) ;
#129 = SECURITY_CLASSIFICATION_LEVEL ( 'unclassified' ) ;
#130 = ORIENTED_EDGE ( 'NONE', *, *, #18, .F. ) ;
#131 = DATE_TIME_ROLE ( 'creation_date' ) ;
#132 =( NAMED_UNIT ( * ) SI_UNIT ( $, .STERADIAN. ) SOLID_ANGLE_UNIT ( ) );
#133 = CIRCLE ( 'NONE', #34, 12.69999999999999900 ) ;
#134 = APPROVAL_STATUS ( 'not_yet_approved' ) ;
#135 = CC_DESIGN_PERSON_AND_ORGANIZATION_ASSIGNMENT ( #212, #61, ( #275 ) ) ;
#136 = EDGE_CURVE ( 'NONE', #217, #159, #86, .T. ) ;
#137 = CALENDAR_DATE ( 2019, 9, 1 ) ;
#138 = ORIENTED_EDGE ( 'NONE', *, *, #123, .T. ) ;
#139 = CARTESIAN_POINT ( 'NONE',  ( -9.404219688426042700, 4.757444677770828400, -0.05006022216023008800 ) ) ;
#140 = EDGE_CURVE ( 'NONE', #150, #217, #31, .T. ) ;
#141 = LINE ( 'NONE', #4, #237 ) ;
#142 = CARTESIAN_POINT ( 'NONE',  ( 5.329070518200749800E-015, -5.329070518200749800E-015, -15.30000000000000100 ) ) ;
#143 = DIRECTION ( 'NONE',  ( 0.0000000000000000000, 0.0000000000000000000, 1.000000000000000000 ) ) ;
#144 = DIRECTION ( 'NONE',  ( -1.000000000000000000, -4.516428635190430100E-032, 3.021461640269870000E-016 ) ) ;
#145 = ORIENTED_EDGE ( 'NONE', *, *, #173, .T. ) ;
#146 = APPROVAL_DATE_TIME ( #293, #156 ) ;
#147 = CIRCLE ( 'NONE', #292, 24.30000000000000100 ) ;
#148 = CARTESIAN_POINT ( 'NONE',  ( -13.48242484058275700, 4.757444677770826600, 6.531492390676979700 ) ) ;
#149 = CARTESIAN_POINT ( 'NONE',  ( 1.908195823574487800E-014, -4.757444677770833700, 10.35910831627144400 ) ) ;
#150 = VERTEX_POINT ( 'NONE', #231 ) ;
#151 = EDGE_CURVE ( 'NONE', #14, #150, #233, .T. ) ;
#152 = CARTESIAN_POINT ( 'NONE',  ( 1.308187166831512600E-014, 4.757444677770826600, 10.35910831627143800 ) ) ;
#153 = PERSON_AND_ORGANIZATION ( #289, #250 ) ;
#154 = DATE_TIME_ROLE ( 'classification_date' ) ;
#155 =( LENGTH_UNIT ( ) NAMED_UNIT ( * ) SI_UNIT ( .MILLI., .METRE. ) );
#156 = APPROVAL ( #291, 'UNSPECIFIED' ) ;
#157 = CIRCLE ( 'NONE', #240, 12.69999999999999900 ) ;
#158 = ORIENTED_EDGE ( 'NONE', *, *, #242, .F. ) ;
#159 = VERTEX_POINT ( 'NONE', #185 ) ;
#160 = CALENDAR_DATE ( 2019, 9, 1 ) ;
#161 = DIRECTION ( 'NONE',  ( 0.0000000000000000000, -1.000000000000000000, -1.427755947306013900E-016 ) ) ;
#162 = CARTESIAN_POINT ( 'NONE',  ( 7.562076984761651100, -12.83644001106124900, 4.719743893246188400 ) ) ;
#163 = DIRECTION ( 'NONE',  ( 1.000000000000000000, 0.0000000000000000000, 0.0000000000000000000 ) ) ;
#164 = CARTESIAN_POINT ( 'NONE',  ( -7.562076984761671600, -12.83644001106123700, 4.719743893246188400 ) ) ;
#165 = CARTESIAN_POINT ( 'NONE',  ( 3.854300155294821300, -12.83644001106124800, 3.667118285551430800 ) ) ;
#166 = CIRCLE ( 'NONE', #260, 12.69999999999999900 ) ;
#167 = CARTESIAN_POINT ( 'NONE',  ( -2.073145111318505400E-014, -12.83644001106124800, 3.667118285551433500 ) ) ;
#168 = DIRECTION ( 'NONE',  ( 1.000000000000000000, 0.0000000000000000000, 0.0000000000000000000 ) ) ;
#169 = CARTESIAN_POINT ( 'NONE',  ( 10.84142416528486500, -12.83644001106125100, 6.744962833682087900 ) ) ;
#170 = PERSON_AND_ORGANIZATION ( #289, #250 ) ;
#171 = FACE_OUTER_BOUND ( 'NONE', #202, .T. ) ;
#172 = CARTESIAN_POINT ( 'NONE',  ( -10.84142416528487200, -12.83644001106124400, 2.255037166317914300 ) ) ;
#173 = EDGE_CURVE ( 'NONE', #120, #182, #290, .T. ) ;
#174 = CARTESIAN_POINT ( 'NONE',  ( -9.404219688426033800, -4.757444677770834600, 9.050060222160231800 ) ) ;
#175 = LOCAL_TIME ( 13, 54, 21.00000000000000000, #253 ) ;
#176 = CARTESIAN_POINT ( 'NONE',  ( 0.0000000000000000000, 0.0000000000000000000, 0.0000000000000000000 ) ) ;
#177 = CARTESIAN_POINT ( 'NONE',  ( 1.156321658104394900E-014, 12.83644001106123700, 5.332881714448571000 ) ) ;
#178 = CARTESIAN_POINT ( 'NONE',  ( -2.428612866367529900E-014, 4.757444677770827500, -1.359108316271439900 ) ) ;
#179 = PERSON_AND_ORGANIZATION_ROLE ( 'creator' ) ;
#180 = COORDINATED_UNIVERSAL_TIME_OFFSET ( 2, 0, .AHEAD. ) ;
#181 = CIRCLE ( 'NONE', #249, 24.30000000000000100 ) ;
#182 = VERTEX_POINT ( 'NONE', #51 ) ;
#183 = ORIENTED_EDGE ( 'NONE', *, *, #136, .T. ) ;
#184 = CARTESIAN_POINT ( 'NONE',  ( 13.48242484058275500, -4.757444677770843500, 2.468507609323021200 ) ) ;
#185 = CARTESIAN_POINT ( 'NONE',  ( 1.158867570255758000E-014, -12.69999999999999900, 5.417142660125698200 ) ) ;
#186 = DIRECTION ( 'NONE',  ( 0.0000000000000000000, 0.0000000000000000000, 1.000000000000000000 ) ) ;
#187 = CARTESIAN_POINT ( 'NONE',  ( 7.562076984761662700, 12.83644001106123200, 4.719743893246185700 ) ) ;
#188 = CALENDAR_DATE ( 2019, 9, 1 ) ;
#189 = DIRECTION ( 'NONE',  ( 0.0000000000000000000, 0.0000000000000000000, 1.000000000000000000 ) ) ;
#190 = DIRECTION ( 'NONE',  ( 1.000000000000000000, -2.989565430846919800E-016, -5.605054603528749800E-016 ) ) ;
#191 = EDGE_LOOP ( 'NONE', ( #210, #145, #138, #9, #43, #8 ) ) ;
#192 = APPROVAL_PERSON_ORGANIZATION ( #19, #125, #219 ) ;
#193 = DIRECTION ( 'NONE',  ( 0.0000000000000000000, 0.0000000000000000000, 1.000000000000000000 ) ) ;
#194 = CC_DESIGN_DATE_AND_TIME_ASSIGNMENT ( #44, #154, ( #275 ) ) ;
#195 = CARTESIAN_POINT ( 'NONE',  ( 9.404219688426039200, 4.757444677770830100, 9.050060222160233500 ) ) ;
#196 = DIRECTION ( 'NONE',  ( 1.000000000000000000, 0.0000000000000000000, 0.0000000000000000000 ) ) ;
#197 = ORIENTED_EDGE ( 'NONE', *, *, #41, .F. ) ;
#198 = ORIENTED_EDGE ( 'NONE', *, *, #173, .F. ) ;
#199 = MECHANICAL_CONTEXT ( 'NONE', #82, 'mechanical' ) ;
#200 = VECTOR ( 'NONE', #186, 1000.000000000000000 ) ;
#201 =( GEOMETRIC_REPRESENTATION_CONTEXT ( 3 ) GLOBAL_UNCERTAINTY_ASSIGNED_CONTEXT ( ( #203 ) ) GLOBAL_UNIT_ASSIGNED_CONTEXT ( ( #155, #106, #132 ) ) REPRESENTATION_CONTEXT ( 'NONE', 'WORKASPACE' ) );
#202 = EDGE_LOOP ( 'NONE', ( #183, #243, #252 ) ) ;
#203 = UNCERTAINTY_MEASURE_WITH_UNIT (LENGTH_MEASURE( 1.000000000000000100E-005 ), #155, 'distance_accuracy_value', 'NONE');
#204 = EDGE_CURVE ( 'NONE', #159, #150, #181, .T. ) ;
#205 = CARTESIAN_POINT ( 'NONE',  ( -2.428612866367529900E-014, -12.83644001106124000, 3.667118285551428600 ) ) ;
#206 = CARTESIAN_POINT ( 'NONE',  ( -4.793218249241317800, 4.757444677770828400, -1.359108316271435900 ) ) ;
#207 = CARTESIAN_POINT ( 'NONE',  ( 4.996003610813200500E-016, 2.442490654175340100E-015, 5.417142660125700000 ) ) ;
#208 = CARTESIAN_POINT ( 'NONE',  ( 9.404219688426032100, 4.757444677770823900, -0.05006022216023529200 ) ) ;
#209 = CARTESIAN_POINT ( 'NONE',  ( 1.308187166831512700E-014, -4.757444677770833700, 10.35910831627143800 ) ) ;
#210 = ORIENTED_EDGE ( 'NONE', *, *, #105, .F. ) ;
#211 =( BOUNDED_SURFACE ( )  B_SPLINE_SURFACE ( 3, 3, ( 
 ( #113, #164, #70, #205 ),
 ( #230, #90, #257, #112 ),
 ( #274, #139, #206, #178 ),
 ( #101, #40, #285, #239 ) ),
 .UNSPECIFIED., .F., .F., .F. ) 
 B_SPLINE_SURFACE_WITH_KNOTS ( ( 4, 4 ),
 ( 4, 4 ),
 ( 0.0000000000000000000, 1.000000000000000000 ),
 ( 0.0000000000000000000, 1.000000000000000000 ),
 .UNSPECIFIED. ) 
 GEOMETRIC_REPRESENTATION_ITEM ( )  RATIONAL_B_SPLINE_SURFACE ( (
 ( 1.000000000000000000, 0.9746563024977478200, 0.9746563024977478200, 1.000000000000000000),
 ( 0.8993931883250635400, 0.8765992394245669700, 0.8765992394245669700, 0.8993931883250635400),
 ( 0.8993931883250635400, 0.8765992394245669700, 0.8765992394245669700, 0.8993931883250635400),
 ( 1.000000000000000000, 0.9746563024977478200, 0.9746563024977478200, 1.000000000000000000) ) ) 
 REPRESENTATION_ITEM ( '' )  SURFACE ( )  );
#212 = PERSON_AND_ORGANIZATION ( #289, #250 ) ;
#213 = CARTESIAN_POINT ( 'NONE',  ( 4.793218249241315100, -4.757444677770833700, 10.35910831627144200 ) ) ;
#214 = DIRECTION ( 'NONE',  ( 0.0000000000000000000, 0.0000000000000000000, 1.000000000000000000 ) ) ;
#215 = PRODUCT_DEFINITION_SHAPE ( 'NONE', 'NONE',  #59 ) ;
#216 = CARTESIAN_POINT ( 'NONE',  ( 12.69999999999999900, 2.442490654175340100E-015, 3.582857339874300000 ) ) ;
#217 = VERTEX_POINT ( 'NONE', #1 ) ;
#218 = CARTESIAN_POINT ( 'NONE',  ( 1.561251128379126400E-014, 4.757444677770830100, 10.35910831627144400 ) ) ;
#219 = APPROVAL_ROLE ( '' ) ;
#220 = PERSON_AND_ORGANIZATION_ROLE ( 'design_owner' ) ;
#221 = ORIENTED_EDGE ( 'NONE', *, *, #41, .T. ) ;
#222 = LOCAL_TIME ( 13, 54, 21.00000000000000000, #261 ) ;
#223 = ADVANCED_FACE ( 'NONE', ( #95 ), #211, .T. ) ;
#224 = APPROVAL_ROLE ( '' ) ;
#225 = CYLINDRICAL_SURFACE ( 'NONE', #102, 12.69999999999999900 ) ;
#226 =( BOUNDED_SURFACE ( )  B_SPLINE_SURFACE ( 3, 3, ( 
 ( #11, #238, #263, #284 ),
 ( #55, #36, #213, #149 ),
 ( #10, #195, #265, #218 ),
 ( #81, #124, #99, #266 ) ),
 .UNSPECIFIED., .F., .F., .F. ) 
 B_SPLINE_SURFACE_WITH_KNOTS ( ( 4, 4 ),
 ( 4, 4 ),
 ( 0.0000000000000000000, 1.000000000000000000 ),
 ( 0.0000000000000000000, 1.000000000000000000 ),
 .UNSPECIFIED. ) 
 GEOMETRIC_REPRESENTATION_ITEM ( )  RATIONAL_B_SPLINE_SURFACE ( (
 ( 1.000000000000000000, 0.9746563024977478200, 0.9746563024977478200, 1.000000000000000000),
 ( 0.8993931883250635400, 0.8765992394245669700, 0.8765992394245669700, 0.8993931883250635400),
 ( 0.8993931883250635400, 0.8765992394245669700, 0.8765992394245669700, 0.8993931883250635400),
 ( 1.000000000000000000, 0.9746563024977478200, 0.9746563024977478200, 1.000000000000000000) ) ) 
 REPRESENTATION_ITEM ( '' )  SURFACE ( )  );
#227 = EDGE_LOOP ( 'NONE', ( #130, #198, #197 ) ) ;
#228 = PERSON_AND_ORGANIZATION ( #289, #250 ) ;
#229 = DIRECTION ( 'NONE',  ( 0.0000000000000000000, 0.0000000000000000000, 1.000000000000000000 ) ) ;
#230 = CARTESIAN_POINT ( 'NONE',  ( -13.48242484058275900, -4.757444677770828400, 2.468507609323012300 ) ) ;
#231 = CARTESIAN_POINT ( 'NONE',  ( 1.158867570255758000E-014, 12.69999999999999600, 5.417142660125699100 ) ) ;
#232 = CC_DESIGN_SECURITY_CLASSIFICATION ( #275, ( #264 ) ) ;
#233 = CIRCLE ( 'NONE', #87, 12.69999999999999900 ) ;
#234 = CARTESIAN_POINT ( 'NONE',  ( 3.854300155294831100, 12.83644001106123300, 3.667118285551428200 ) ) ;
#235 = ORIENTED_EDGE ( 'NONE', *, *, #123, .F. ) ;
#236 = PERSON_AND_ORGANIZATION ( #289, #250 ) ;
#237 = VECTOR ( 'NONE', #30, 1000.000000000000000 ) ;
#238 = CARTESIAN_POINT ( 'NONE',  ( 7.562076984761665300, -12.83644001106124000, 4.280256106753813400 ) ) ;
#239 = CARTESIAN_POINT ( 'NONE',  ( -1.908195823574487800E-014, 12.83644001106123900, 3.667118285551429500 ) ) ;
#240 = AXIS2_PLACEMENT_3D ( 'NONE', #49, #189, #168 ) ;
#241 = ADVANCED_FACE ( 'NONE', ( #171 ), #251, .T. ) ;
#242 = EDGE_CURVE ( 'NONE', #294, #97, #271, .T. ) ;
#243 = ORIENTED_EDGE ( 'NONE', *, *, #204, .T. ) ;
#244 = ORIENTED_EDGE ( 'NONE', *, *, #151, .F. ) ;
#245 = APPLICATION_CONTEXT ( 'configuration controlled 3d designs of mechanical parts and assemblies' ) ;
#246 = AXIS2_PLACEMENT_3D ( 'NONE', #76, #214, #126 ) ;
#247 = PERSON_AND_ORGANIZATION_ROLE ( 'design_supplier' ) ;
#248 = CC_DESIGN_DATE_AND_TIME_ASSIGNMENT ( #21, #131, ( #59 ) ) ;
#249 = AXIS2_PLACEMENT_3D ( 'NONE', #142, #144, #161 ) ;
#250 = ORGANIZATION ( 'UNSPECIFIED', 'UNSPECIFIED', '' ) ;
#251 =( BOUNDED_SURFACE ( )  B_SPLINE_SURFACE ( 3, 3, ( 
 ( #60, #58, #288, #172 ),
 ( #209, #267, #174, #127 ),
 ( #152, #12, #13, #148 ),
 ( #177, #122, #38, #79 ) ),
 .UNSPECIFIED., .F., .F., .T. ) 
 B_SPLINE_SURFACE_WITH_KNOTS ( ( 4, 4 ),
 ( 4, 4 ),
 ( 0.0000000000000000000, 1.000000000000000000 ),
 ( 0.0000000000000000000, 1.000000000000000000 ),
 .UNSPECIFIED. ) 
 GEOMETRIC_REPRESENTATION_ITEM ( )  RATIONAL_B_SPLINE_SURFACE ( (
 ( 1.000000000000000000, 0.9746563024977478200, 0.9746563024977478200, 1.000000000000000000),
 ( 0.8993931883250635400, 0.8765992394245669700, 0.8765992394245669700, 0.8993931883250635400),
 ( 0.8993931883250635400, 0.8765992394245669700, 0.8765992394245669700, 0.8993931883250635400),
 ( 1.000000000000000000, 0.9746563024977478200, 0.9746563024977478200, 1.000000000000000000) ) ) 
 REPRESENTATION_ITEM ( '' )  SURFACE ( )  );
#252 = ORIENTED_EDGE ( 'NONE', *, *, #140, .T. ) ;
#253 = COORDINATED_UNIVERSAL_TIME_OFFSET ( 2, 0, .AHEAD. ) ;
#254 = ORIENTED_EDGE ( 'NONE', *, *, #140, .F. ) ;
#255 = CARTESIAN_POINT ( 'NONE',  ( 4.996003610813200500E-016, 2.442490654175340100E-015, 5.417142660125700000 ) ) ;
#256 = EDGE_CURVE ( 'NONE', #159, #14, #166, .T. ) ;
#257 = CARTESIAN_POINT ( 'NONE',  ( -4.793218249241323100, -4.757444677770828400, -1.359108316271435500 ) ) ;
#258 = DIRECTION ( 'NONE',  ( 0.0000000000000000000, 0.0000000000000000000, 1.000000000000000000 ) ) ;
#259 = DIRECTION ( 'NONE',  ( 1.000000000000000000, 0.0000000000000000000, 0.0000000000000000000 ) ) ;
#260 = AXIS2_PLACEMENT_3D ( 'NONE', #287, #193, #196 ) ;
#261 = COORDINATED_UNIVERSAL_TIME_OFFSET ( 2, 0, .AHEAD. ) ;
#262 = CALENDAR_DATE ( 2019, 9, 1 ) ;
#263 = CARTESIAN_POINT ( 'NONE',  ( 3.854300155294845300, -12.83644001106124000, 5.332881714448571800 ) ) ;
#264 = PRODUCT_DEFINITION_FORMATION_WITH_SPECIFIED_SOURCE ( 'ANY', '', #268, .NOT_KNOWN. ) ;
#265 = CARTESIAN_POINT ( 'NONE',  ( 4.793218249241308900, 4.757444677770828400, 10.35910831627144000 ) ) ;
#266 = CARTESIAN_POINT ( 'NONE',  ( 1.387778780781445700E-014, 12.83644001106123900, 5.332881714448572700 ) ) ;
#267 = CARTESIAN_POINT ( 'NONE',  ( -4.793218249241295600, -4.757444677770834600, 10.35910831627144000 ) ) ;
#268 = PRODUCT ( '111-0204E BK7 bi-cx 25.4 F25', '111-0204E BK7 bi-cx 25.4 F25', '', ( #199 ) ) ;
#269 = PERSON_AND_ORGANIZATION_ROLE ( 'creator' ) ;
#270 = CC_DESIGN_PERSON_AND_ORGANIZATION_ASSIGNMENT ( #228, #179, ( #264 ) ) ;
#271 = CIRCLE ( 'NONE', #246, 12.69999999999999900 ) ;
#272 = DIRECTION ( 'NONE',  ( 1.000000000000000000, 0.0000000000000000000, 0.0000000000000000000 ) ) ;
#273 = APPROVAL_DATE_TIME ( #283, #125 ) ;
#274 = CARTESIAN_POINT ( 'NONE',  ( -13.48242484058275900, 4.757444677770831000, 2.468507609323013600 ) ) ;
#275 = SECURITY_CLASSIFICATION ( '', '', #129 ) ;
#276 = DIRECTION ( 'NONE',  ( 0.0000000000000000000, 0.0000000000000000000, 1.000000000000000000 ) ) ;
#277 = CARTESIAN_POINT ( 'NONE',  ( 4.996003610813200500E-016, 2.442490654175340100E-015, 3.582857339874300000 ) ) ;
#278 = APPROVAL ( #134, 'UNSPECIFIED' ) ;
#279 = APPROVAL_DATE_TIME ( #37, #278 ) ;
#280 = CARTESIAN_POINT ( 'NONE',  ( -12.69999999999999900, 3.997792089092478900E-015, 3.582857339874300000 ) ) ;
#281 = CARTESIAN_POINT ( 'NONE',  ( 13.48242484058276400, 4.757444677770822100, 2.468507609323018000 ) ) ;
#282 = ADVANCED_FACE ( 'NONE', ( #47 ), #226, .T. ) ;
#283 = DATE_AND_TIME ( #137, #74 ) ;
#284 = CARTESIAN_POINT ( 'NONE',  ( 1.387778780781445700E-014, -12.83644001106124200, 5.332881714448574500 ) ) ;
#285 = CARTESIAN_POINT ( 'NONE',  ( -3.854300155294850600, 12.83644001106123900, 3.667118285551433000 ) ) ;
#286 = CYLINDRICAL_SURFACE ( 'NONE', #46, 12.69999999999999900 ) ;
#287 = CARTESIAN_POINT ( 'NONE',  ( 4.996003610813200500E-016, 2.442490654175340100E-015, 5.417142660125700000 ) ) ;
#288 = CARTESIAN_POINT ( 'NONE',  ( -7.562076984761659100, -12.83644001106124200, 4.280256106753811600 ) ) ;
#289 = PERSON ( 'UNSPECIFIED', 'UNSPECIFIED', 'UNSPECIFIED', ('UNSPECIFIED'), ('UNSPECIFIED'), ('UNSPECIFIED') ) ;
#290 = CIRCLE ( 'NONE', #117, 12.69999999999999900 ) ;
#291 = APPROVAL_STATUS ( 'not_yet_approved' ) ;
#292 = AXIS2_PLACEMENT_3D ( 'NONE', #32, #190, #88 ) ;
#293 = DATE_AND_TIME ( #108, #57 ) ;
#294 = VERTEX_POINT ( 'NONE', #216 ) ;
#295 = DIRECTION ( 'NONE',  ( 1.000000000000000000, 0.0000000000000000000, 0.0000000000000000000 ) ) ;
ENDSEC;
END-ISO-10303-21;
