ISO-10303-21;
HEADER;
FILE_DESCRIPTION (( 'STEP AP203' ),
    '1' );
FILE_NAME ('111-0152E BK7 bi-cx 12.7 F500.STEP',
    '2019-01-09T11:25:22',
    ( '' ),
    ( '' ),
    'SwSTEP 2.0',
    'SolidWorks 2017',
    '' );
FILE_SCHEMA (( 'CONFIG_CONTROL_DESIGN' ));
ENDSEC;

DATA;
#1 = AXIS2_PLACEMENT_3D ( 'NONE', #147, #16, #77 ) ;
#2 = DIRECTION ( 'NONE',  ( 1.000000000000000000, -1.776356839400250500E-015, 0.0000000000000000000 ) ) ;
#3 = ORIENTED_EDGE ( 'NONE', *, *, #135, .T. ) ;
#4 = DIRECTION ( 'NONE',  ( -0.0000000000000000000, -0.0000000000000000000, -1.000000000000000000 ) ) ;
#5 = AXIS2_PLACEMENT_3D ( 'NONE', #236, #199, #257 ) ;
#6 = CARTESIAN_POINT ( 'NONE',  ( 2.129269701742249100, 6.426196116789037100, 0.03984714813454151600 ) ) ;
#7 =( BOUNDED_SURFACE ( )  B_SPLINE_SURFACE ( 3, 3, ( 
 ( #192, #225, #96, #211 ),
 ( #98, #226, #57, #164 ),
 ( #100, #118, #94, #144 ),
 ( #188, #6, #167, #55 ) ),
 .UNSPECIFIED., .F., .F., .F. ) 
 B_SPLINE_SURFACE_WITH_KNOTS ( ( 4, 4 ),
 ( 4, 4 ),
 ( 0.0000000000000000000, 1.000000000000000000 ),
 ( 0.0000000000000000000, 1.000000000000000000 ),
 .UNSPECIFIED. ) 
 GEOMETRIC_REPRESENTATION_ITEM ( )  RATIONAL_B_SPLINE_SURFACE ( (
 ( 1.000000000000000000, 0.9999873355097889100, 0.9999873355097889100, 1.000000000000000000),
 ( 0.9999487364619392700, 0.9999360726209547400, 0.9999360726209547400, 0.9999487364619392700),
 ( 0.9999487364619392700, 0.9999360726209547400, 0.9999360726209547400, 0.9999487364619392700),
 ( 1.000000000000000000, 0.9999873355097889100, 0.9999873355097889100, 1.000000000000000000) ) ) 
 REPRESENTATION_ITEM ( '' )  SURFACE ( )  );
#8 = APPLICATION_CONTEXT ( 'configuration controlled 3d designs of mechanical parts and assemblies' ) ;
#9 = CARTESIAN_POINT ( 'NONE',  ( -4.258935604930276700, -2.142175187742248800, 3.000157207988682500 ) ) ;
#10 = CARTESIAN_POINT ( 'NONE',  ( 6.388261822310738600, 2.142175187742301600, 2.973905995366093800 ) ) ;
#11 = EDGE_CURVE ( 'NONE', #143, #111, #61, .T. ) ;
#12 = CARTESIAN_POINT ( 'NONE',  ( -6.387606860898921800, -6.426196116788987400, 2.920779820747169400 ) ) ;
#13 = ORIENTED_EDGE ( 'NONE', *, *, #121, .F. ) ;
#14 = ORIENTED_EDGE ( 'NONE', *, *, #184, .F. ) ;
#15 = PERSON_AND_ORGANIZATION ( #285, #153 ) ;
#16 = DIRECTION ( 'NONE',  ( 0.0000000000000000000, 0.0000000000000000000, 1.000000000000000000 ) ) ;
#17 =( BOUNDED_SURFACE ( )  B_SPLINE_SURFACE ( 3, 3, ( 
 ( #210, #99, #76, #52 ),
 ( #73, #140, #189, #36 ),
 ( #10, #171, #215, #56 ),
 ( #122, #277, #148, #232 ) ),
 .UNSPECIFIED., .F., .F., .F. ) 
 B_SPLINE_SURFACE_WITH_KNOTS ( ( 4, 4 ),
 ( 4, 4 ),
 ( 0.0000000000000000000, 1.000000000000000000 ),
 ( 0.0000000000000000000, 1.000000000000000000 ),
 .UNSPECIFIED. ) 
 GEOMETRIC_REPRESENTATION_ITEM ( )  RATIONAL_B_SPLINE_SURFACE ( (
 ( 1.000000000000000000, 0.9999873355097889100, 0.9999873355097889100, 1.000000000000000000),
 ( 0.9999487364619392700, 0.9999360726209547400, 0.9999360726209547400, 0.9999487364619392700),
 ( 0.9999487364619392700, 0.9999360726209547400, 0.9999360726209547400, 0.9999487364619392700),
 ( 1.000000000000000000, 0.9999873355097889100, 0.9999873355097889100, 1.000000000000000000) ) ) 
 REPRESENTATION_ITEM ( '' )  SURFACE ( )  );
#18 = APPROVAL_STATUS ( 'not_yet_approved' ) ;
#19 = CC_DESIGN_APPROVAL ( #23, ( #97 ) ) ;
#20 = CARTESIAN_POINT ( 'NONE',  ( -6.349999999999999600, 1.998896044546239400E-015, 2.961092229048010600 ) ) ;
#21 = CARTESIAN_POINT ( 'NONE',  ( -1.700029006457271000E-013, 2.142175187742300300, -0.01328306364829749700 ) ) ;
#22 = VERTEX_POINT ( 'NONE', #223 ) ;
#23 = APPROVAL ( #229, 'UNSPECIFIED' ) ;
#24 = ORIENTED_EDGE ( 'NONE', *, *, #48, .F. ) ;
#25 = DIRECTION ( 'NONE',  ( 2.243039443290779400E-016, -1.000000000000000000, 0.0000000000000000000 ) ) ;
#26 = APPROVAL_PERSON_ORGANIZATION ( #162, #274, #230 ) ;
#27 = CARTESIAN_POINT ( 'NONE',  ( -6.387606860898829500, 6.426196116789039800, 0.07922017925288127300 ) ) ;
#28 = CARTESIAN_POINT ( 'NONE',  ( 2.498001805406600200E-016, 1.221245327087670000E-015, 0.03890777095198839900 ) ) ;
#29 = ORIENTED_EDGE ( 'NONE', *, *, #135, .F. ) ;
#30 = EDGE_CURVE ( 'NONE', #138, #125, #180, .T. ) ;
#31 = CIRCLE ( 'NONE', #107, 518.2000000000001600 ) ;
#32 = ORIENTED_EDGE ( 'NONE', *, *, #184, .T. ) ;
#33 = AXIS2_PLACEMENT_3D ( 'NONE', #92, #161, #46 ) ;
#34 = COORDINATED_UNIVERSAL_TIME_OFFSET ( 2, 0, .AHEAD. ) ;
#35 = EDGE_CURVE ( 'NONE', #22, #67, #292, .T. ) ;
#36 = CARTESIAN_POINT ( 'NONE',  ( 1.717376241217039300E-013, -2.142175187742247500, 3.013283063648300800 ) ) ;
#37 = APPROVAL_STATUS ( 'not_yet_approved' ) ;
#38 = COORDINATED_UNIVERSAL_TIME_OFFSET ( 2, 0, .AHEAD. ) ;
#39 = PERSON_AND_ORGANIZATION_ROLE ( 'design_supplier' ) ;
#40 =( NAMED_UNIT ( * ) SI_UNIT ( $, .STERADIAN. ) SOLID_ANGLE_UNIT ( ) );
#41 = ORIENTED_EDGE ( 'NONE', *, *, #35, .T. ) ;
#42 = LOCAL_TIME ( 13, 25, 22.00000000000000000, #34 ) ;
#43 = CARTESIAN_POINT ( 'NONE',  ( -2.129269701742357400, 6.426196116789038900, 0.03984714813461051600 ) ) ;
#44 = CALENDAR_DATE ( 2019, 9, 1 ) ;
#45 = ORIENTED_EDGE ( 'NONE', *, *, #59, .T. ) ;
#46 = DIRECTION ( 'NONE',  ( 1.000000000000000000, 0.0000000000000000000, 0.0000000000000000000 ) ) ;
#47 = AXIS2_PLACEMENT_3D ( 'NONE', #155, #260, #25 ) ;
#48 = EDGE_CURVE ( 'NONE', #106, #143, #219, .T. ) ;
#49 = DIRECTION ( 'NONE',  ( 0.0000000000000000000, 0.0000000000000000000, 1.000000000000000000 ) ) ;
#50 = MANIFOLD_SOLID_BREP ( 'Imported1', #137 ) ;
#51 = DIRECTION ( 'NONE',  ( -0.0000000000000000000, -0.0000000000000000000, -1.000000000000000000 ) ) ;
#52 = CARTESIAN_POINT ( 'NONE',  ( 1.734723475976807100E-013, -6.426196116788985600, 2.960152851865393200 ) ) ;
#53 = FACE_OUTER_BOUND ( 'NONE', #280, .T. ) ;
#54 = PERSON_AND_ORGANIZATION ( #285, #153 ) ;
#55 = CARTESIAN_POINT ( 'NONE',  ( 6.387606860898924500, 6.426196116789036200, 0.07922017925283302000 ) ) ;
#56 = CARTESIAN_POINT ( 'NONE',  ( 1.708702623837154700E-013, 2.142175187742300300, 3.013283063648301200 ) ) ;
#57 = CARTESIAN_POINT ( 'NONE',  ( 4.258935604930276700, -2.142175187742248800, -0.0001572079886804898300 ) ) ;
#58 = CC_DESIGN_DATE_AND_TIME_ASSIGNMENT ( #267, #152, ( #182 ) ) ;
#59 = EDGE_CURVE ( 'NONE', #67, #125, #60, .T. ) ;
#60 = LINE ( 'NONE', #266, #282 ) ;
#61 = LINE ( 'NONE', #286, #130 ) ;
#62 = DIRECTION ( 'NONE',  ( 1.000000000000000000, 0.0000000000000000000, 0.0000000000000000000 ) ) ;
#63 = CARTESIAN_POINT ( 'NONE',  ( -4.258498954311607900, -6.426196116788985600, 0.05297165805592068300 ) ) ;
#64 = APPROVAL_DATE_TIME ( #273, #190 ) ;
#65 = CARTESIAN_POINT ( 'NONE',  ( -1.708702623837154700E-013, -2.142175187742247500, -0.01328306364829706300 ) ) ;
#66 = EDGE_LOOP ( 'NONE', ( #13, #45, #263, #32, #255, #24 ) ) ;
#67 = VERTEX_POINT ( 'NONE', #113 ) ;
#68 = COORDINATED_UNIVERSAL_TIME_OFFSET ( 2, 0, .AHEAD. ) ;
#69 = ADVANCED_FACE ( 'NONE', ( #221 ), #17, .T. ) ;
#70 = CC_DESIGN_SECURITY_CLASSIFICATION ( #182, ( #158 ) ) ;
#71 = EDGE_CURVE ( 'NONE', #125, #195, #175, .T. ) ;
#72 = ORIENTED_EDGE ( 'NONE', *, *, #290, .T. ) ;
#73 = CARTESIAN_POINT ( 'NONE',  ( 6.388261822310739500, -2.142175187742246100, 2.973905995366093300 ) ) ;
#74 = APPROVAL_PERSON_ORGANIZATION ( #156, #190, #109 ) ;
#75 = CARTESIAN_POINT ( 'NONE',  ( 4.217480345622330800E-014, 6.349999999998716200, 2.961092229048033300 ) ) ;
#76 = CARTESIAN_POINT ( 'NONE',  ( 2.129269701742361400, -6.426196116788985600, 2.960152851865391900 ) ) ;
#77 = DIRECTION ( 'NONE',  ( 1.000000000000000000, 0.0000000000000000000, 0.0000000000000000000 ) ) ;
#78 = APPROVAL_DATE_TIME ( #222, #23 ) ;
#79 = DIRECTION ( 'NONE',  ( 0.0000000000000000000, 0.0000000000000000000, 1.000000000000000000 ) ) ;
#80 = ORIENTED_EDGE ( 'NONE', *, *, #115, .T. ) ;
#81 = CARTESIAN_POINT ( 'NONE',  ( -4.258498954311597200, 6.426196116789037100, 2.947028341944131200 ) ) ;
#82 = PRODUCT ( '111-0152E BK7 bi-cx 12.7 F500', '111-0152E BK7 bi-cx 12.7 F500', '', ( #228 ) ) ;
#83 = DATE_AND_TIME ( #275, #258 ) ;
#84 = EDGE_LOOP ( 'NONE', ( #187, #233, #29, #163, #80, #246 ) ) ;
#85 = CIRCLE ( 'NONE', #112, 6.349999999999999600 ) ;
#86 = DIRECTION ( 'NONE',  ( -0.0000000000000000000, -0.0000000000000000000, -1.000000000000000000 ) ) ;
#87 = ORIENTED_EDGE ( 'NONE', *, *, #121, .T. ) ;
#88 = CARTESIAN_POINT ( 'NONE',  ( 2.498001805406600200E-016, 1.221245327087670000E-015, 0.03890777095198839900 ) ) ;
#89 = AXIS2_PLACEMENT_3D ( 'NONE', #145, #142, #165 ) ;
#90 = FACE_OUTER_BOUND ( 'NONE', #131, .T. ) ;
#91 = ADVANCED_FACE ( 'NONE', ( #53 ), #288, .T. ) ;
#92 = CARTESIAN_POINT ( 'NONE',  ( 2.498001805406600200E-016, 1.221245327087670000E-015, 0.03890777095198839900 ) ) ;
#93 = DIRECTION ( 'NONE',  ( 1.000000000000000000, 0.0000000000000000000, 0.0000000000000000000 ) ) ;
#94 = CARTESIAN_POINT ( 'NONE',  ( 4.258935604930276700, 2.142175187742299000, -0.0001572079886809167300 ) ) ;
#95 = AXIS2_PLACEMENT_3D ( 'NONE', #88, #181, #265 ) ;
#96 = CARTESIAN_POINT ( 'NONE',  ( 4.258498954311595400, -6.426196116788987400, 0.05297165805587127800 ) ) ;
#97 = PRODUCT_DEFINITION ( 'UNKNOWN', '', #158, #224 ) ;
#98 = CARTESIAN_POINT ( 'NONE',  ( -4.408974874036666500E-014, -2.142175187742247900, -0.01328306364836471000 ) ) ;
#99 = CARTESIAN_POINT ( 'NONE',  ( 4.258498954311607900, -6.426196116788985600, 2.947028341944081900 ) ) ;
#100 = CARTESIAN_POINT ( 'NONE',  ( -4.312875205225771700E-014, 2.142175187742299900, -0.01328306364836513700 ) ) ;
#101 = PERSON_AND_ORGANIZATION ( #285, #153 ) ;
#102 = CARTESIAN_POINT ( 'NONE',  ( -4.258498954311595400, -6.426196116788987400, 2.947028341944131200 ) ) ;
#103 = DATE_TIME_ROLE ( 'creation_date' ) ;
#104 = DATE_AND_TIME ( #250, #146 ) ;
#105 = CARTESIAN_POINT ( 'NONE',  ( 0.0000000000000000000, 0.0000000000000000000, 0.0000000000000000000 ) ) ;
#106 = VERTEX_POINT ( 'NONE', #235 ) ;
#107 = AXIS2_PLACEMENT_3D ( 'NONE', #169, #151, #256 ) ;
#108 = EDGE_CURVE ( 'NONE', #138, #195, #216, .T. ) ;
#109 = APPROVAL_ROLE ( '' ) ;
#110 = PRODUCT_RELATED_PRODUCT_CATEGORY ( 'detail', '', ( #82 ) ) ;
#111 = VERTEX_POINT ( 'NONE', #291 ) ;
#112 = AXIS2_PLACEMENT_3D ( 'NONE', #201, #86, #241 ) ;
#113 = CARTESIAN_POINT ( 'NONE',  ( -6.349999999999999600, 1.998896044546239400E-015, 0.03890777095198839900 ) ) ;
#114 = CALENDAR_DATE ( 2019, 9, 1 ) ;
#115 = EDGE_CURVE ( 'NONE', #111, #138, #85, .T. ) ;
#116 = ORIENTED_EDGE ( 'NONE', *, *, #115, .F. ) ;
#117 = CARTESIAN_POINT ( 'NONE',  ( 6.349999999999999600, 1.221245327087670000E-015, 0.03890777095198839900 ) ) ;
#118 = CARTESIAN_POINT ( 'NONE',  ( 2.129488029125342900, 2.142175187742299400, -0.01328306364836554800 ) ) ;
#119 = CC_DESIGN_APPROVAL ( #274, ( #158 ) ) ;
#120 = PERSON_AND_ORGANIZATION_ROLE ( 'design_owner' ) ;
#121 = EDGE_CURVE ( 'NONE', #67, #106, #149, .T. ) ;
#122 = CARTESIAN_POINT ( 'NONE',  ( 6.387606860898829500, 6.426196116789039800, 2.920779820747121400 ) ) ;
#123 = ORIENTED_EDGE ( 'NONE', *, *, #71, .F. ) ;
#124 = CARTESIAN_POINT ( 'NONE',  ( -4.258935604930278500, 2.142175187742299000, 3.000157207988682900 ) ) ;
#125 = VERTEX_POINT ( 'NONE', #20 ) ;
#126 = CARTESIAN_POINT ( 'NONE',  ( -6.388261822310831000, -2.142175187742248800, 2.973905995366141300 ) ) ;
#127 = LOCAL_TIME ( 13, 25, 22.00000000000000000, #242 ) ;
#128 = CC_DESIGN_PERSON_AND_ORGANIZATION_ASSIGNMENT ( #270, #194, ( #97 ) ) ;
#129 = CARTESIAN_POINT ( 'NONE',  ( -2.129488029125453400, 2.142175187742300800, -0.01328306364829656300 ) ) ;
#130 = VECTOR ( 'NONE', #239, 1000.000000000000000 ) ;
#131 = EDGE_LOOP ( 'NONE', ( #186, #240, #123 ) ) ;
#132 = APPROVAL_DATE_TIME ( #104, #274 ) ;
#133 = CC_DESIGN_PERSON_AND_ORGANIZATION_ASSIGNMENT ( #15, #39, ( #158 ) ) ;
#134 = CYLINDRICAL_SURFACE ( 'NONE', #1, 6.349999999999999600 ) ;
#135 = EDGE_CURVE ( 'NONE', #143, #22, #264, .T. ) ;
#136 = CARTESIAN_POINT ( 'NONE',  ( 2.498001805406600200E-016, 1.221245327087670000E-015, 0.03890777095198839900 ) ) ;
#137 = CLOSED_SHELL ( 'NONE', ( #244, #293, #183, #91, #295, #69 ) ) ;
#138 = VERTEX_POINT ( 'NONE', #294 ) ;
#139 = CARTESIAN_POINT ( 'NONE',  ( 2.498001805406600200E-016, 1.221245327087670000E-015, 0.03890777095198839900 ) ) ;
#140 = CARTESIAN_POINT ( 'NONE',  ( 4.258935604930287300, -2.142175187742246600, 3.000157207988633200 ) ) ;
#141 = CC_DESIGN_PERSON_AND_ORGANIZATION_ASSIGNMENT ( #207, #202, ( #182 ) ) ;
#142 = DIRECTION ( 'NONE',  ( -0.0000000000000000000, -0.0000000000000000000, -1.000000000000000000 ) ) ;
#143 = VERTEX_POINT ( 'NONE', #117 ) ;
#144 = CARTESIAN_POINT ( 'NONE',  ( 6.388261822310831000, 2.142175187742298500, 0.02609400463386134200 ) ) ;
#145 = CARTESIAN_POINT ( 'NONE',  ( 2.498001805406600200E-016, 1.221245327087670000E-015, 2.961092229048010600 ) ) ;
#146 = LOCAL_TIME ( 13, 25, 22.00000000000000000, #38 ) ;
#147 = CARTESIAN_POINT ( 'NONE',  ( 2.498001805406600200E-016, 1.221245327087670000E-015, 0.03890777095198839900 ) ) ;
#148 = CARTESIAN_POINT ( 'NONE',  ( 2.129269701742357900, 6.426196116789038900, 2.960152851865391900 ) ) ;
#149 = CIRCLE ( 'NONE', #33, 6.349999999999999600 ) ;
#150 =( NAMED_UNIT ( * ) PLANE_ANGLE_UNIT ( ) SI_UNIT ( $, .RADIAN. ) );
#151 = DIRECTION ( 'NONE',  ( 1.000000000000000000, -2.243039443290779900E-016, -1.938442578377179900E-016 ) ) ;
#152 = DATE_TIME_ROLE ( 'classification_date' ) ;
#153 = ORGANIZATION ( 'UNSPECIFIED', 'UNSPECIFIED', '' ) ;
#154 = CC_DESIGN_DATE_AND_TIME_ASSIGNMENT ( #83, #103, ( #97 ) ) ;
#155 = CARTESIAN_POINT ( 'NONE',  ( -5.684341886080800200E-014, 0.0000000000000000000, -515.2000000000000500 ) ) ;
#156 = PERSON_AND_ORGANIZATION ( #285, #153 ) ;
#157 = CARTESIAN_POINT ( 'NONE',  ( -4.258935604930287300, 2.142175187742301200, -0.0001572079886314975200 ) ) ;
#158 = PRODUCT_DEFINITION_FORMATION_WITH_SPECIFIED_SOURCE ( 'ANY', '', #82, .NOT_KNOWN. ) ;
#159 = UNCERTAINTY_MEASURE_WITH_UNIT (LENGTH_MEASURE( 1.000000000000000100E-005 ), #278, 'distance_accuracy_value', 'NONE');
#160 = COORDINATED_UNIVERSAL_TIME_OFFSET ( 2, 0, .AHEAD. ) ;
#161 = DIRECTION ( 'NONE',  ( -0.0000000000000000000, -0.0000000000000000000, -1.000000000000000000 ) ) ;
#162 = PERSON_AND_ORGANIZATION ( #285, #153 ) ;
#163 = ORIENTED_EDGE ( 'NONE', *, *, #11, .T. ) ;
#164 = CARTESIAN_POINT ( 'NONE',  ( 6.388261822310830100, -2.142175187742248800, 0.02609400463386176900 ) ) ;
#165 = DIRECTION ( 'NONE',  ( 1.000000000000000000, 0.0000000000000000000, 0.0000000000000000000 ) ) ;
#166 = FACE_OUTER_BOUND ( 'NONE', #66, .T. ) ;
#167 = CARTESIAN_POINT ( 'NONE',  ( 4.258498954311597200, 6.426196116789037100, 0.05297165805587127800 ) ) ;
#168 = ADVANCED_BREP_SHAPE_REPRESENTATION ( '111-0152E BK7 bi-cx 12.7 F500', ( #50, #193 ), #206 ) ;
#169 = CARTESIAN_POINT ( 'NONE',  ( 5.684341886080800200E-014, 0.0000000000000000000, 518.2000000000001600 ) ) ;
#170 = CARTESIAN_POINT ( 'NONE',  ( 4.312875205225722500E-014, 2.142175187742299900, 3.013283063648368300 ) ) ;
#171 = CARTESIAN_POINT ( 'NONE',  ( 4.258935604930287300, 2.142175187742301200, 3.000157207988633600 ) ) ;
#172 = APPLICATION_PROTOCOL_DEFINITION ( 'international standard', 'config_control_design', 1994, #272 ) ;
#173 = CC_DESIGN_PERSON_AND_ORGANIZATION_ASSIGNMENT ( #54, #120, ( #82 ) ) ;
#174 = PERSON_AND_ORGANIZATION_ROLE ( 'creator' ) ;
#175 = CIRCLE ( 'NONE', #5, 6.349999999999999600 ) ;
#176 = CYLINDRICAL_SURFACE ( 'NONE', #178, 6.349999999999999600 ) ;
#177 = CARTESIAN_POINT ( 'NONE',  ( -2.129269701742360500, -6.426196116788985600, 0.03984714813461050200 ) ) ;
#178 = AXIS2_PLACEMENT_3D ( 'NONE', #28, #49, #271 ) ;
#179 = CARTESIAN_POINT ( 'NONE',  ( -6.388261822310739500, -2.142175187742246100, 0.02609400463391001900 ) ) ;
#180 = CIRCLE ( 'NONE', #249, 6.349999999999999600 ) ;
#181 = DIRECTION ( 'NONE',  ( -0.0000000000000000000, -0.0000000000000000000, -1.000000000000000000 ) ) ;
#182 = SECURITY_CLASSIFICATION ( '', '', #237 ) ;
#183 = ADVANCED_FACE ( 'NONE', ( #166 ), #176, .T. ) ;
#184 = EDGE_CURVE ( 'NONE', #195, #111, #200, .T. ) ;
#185 = CARTESIAN_POINT ( 'NONE',  ( -6.387606860898833000, -6.426196116788983800, 0.07922017925288127300 ) ) ;
#186 = ORIENTED_EDGE ( 'NONE', *, *, #30, .F. ) ;
#187 = ORIENTED_EDGE ( 'NONE', *, *, #59, .F. ) ;
#188 = CARTESIAN_POINT ( 'NONE',  ( -4.215753027381239300E-014, 6.426196116789038000, 0.03984714813454193200 ) ) ;
#189 = CARTESIAN_POINT ( 'NONE',  ( 2.129488029125455200, -2.142175187742247000, 3.013283063648299500 ) ) ;
#190 = APPROVAL ( #18, 'UNSPECIFIED' ) ;
#191 = CARTESIAN_POINT ( 'NONE',  ( 2.498001805406600200E-016, 1.221245327087670000E-015, 2.961092229048010600 ) ) ;
#192 = CARTESIAN_POINT ( 'NONE',  ( -4.504037254586835100E-014, -6.426196116788985600, 0.03984714813454193200 ) ) ;
#193 = AXIS2_PLACEMENT_3D ( 'NONE', #105, #79, #62 ) ;
#194 = PERSON_AND_ORGANIZATION_ROLE ( 'creator' ) ;
#195 = VERTEX_POINT ( 'NONE', #75 ) ;
#196 = APPROVAL_ROLE ( '' ) ;
#197 = LOCAL_TIME ( 13, 25, 22.00000000000000000, #68 ) ;
#198 = CARTESIAN_POINT ( 'NONE',  ( 4.408974874036617300E-014, -2.142175187742247900, 3.013283063648367800 ) ) ;
#199 = DIRECTION ( 'NONE',  ( -0.0000000000000000000, -0.0000000000000000000, -1.000000000000000000 ) ) ;
#200 = CIRCLE ( 'NONE', #89, 6.349999999999999600 ) ;
#201 = CARTESIAN_POINT ( 'NONE',  ( 2.498001805406600200E-016, 1.221245327087670000E-015, 2.961092229048010600 ) ) ;
#202 = PERSON_AND_ORGANIZATION_ROLE ( 'classification_officer' ) ;
#203 = ORIENTED_EDGE ( 'NONE', *, *, #290, .F. ) ;
#204 = EDGE_LOOP ( 'NONE', ( #269, #116, #14 ) ) ;
#205 = CALENDAR_DATE ( 2019, 9, 1 ) ;
#206 =( GEOMETRIC_REPRESENTATION_CONTEXT ( 3 ) GLOBAL_UNCERTAINTY_ASSIGNED_CONTEXT ( ( #159 ) ) GLOBAL_UNIT_ASSIGNED_CONTEXT ( ( #278, #150, #40 ) ) REPRESENTATION_CONTEXT ( 'NONE', 'WORKASPACE' ) );
#207 = PERSON_AND_ORGANIZATION ( #285, #153 ) ;
#208 = DIRECTION ( 'NONE',  ( 1.000000000000000000, 0.0000000000000000000, 0.0000000000000000000 ) ) ;
#209 = SHAPE_DEFINITION_REPRESENTATION ( #227, #168 ) ;
#210 = CARTESIAN_POINT ( 'NONE',  ( 6.387606860898833000, -6.426196116788983800, 2.920779820747121400 ) ) ;
#211 = CARTESIAN_POINT ( 'NONE',  ( 6.387606860898921800, -6.426196116788987400, 0.07922017925283302000 ) ) ;
#212 = FACE_OUTER_BOUND ( 'NONE', #84, .T. ) ;
#213 = CARTESIAN_POINT ( 'NONE',  ( -2.129488029125342900, 2.142175187742299400, 3.013283063648368300 ) ) ;
#214 = CARTESIAN_POINT ( 'NONE',  ( 4.215753027381190100E-014, 6.426196116789038000, 2.960152851865460700 ) ) ;
#215 = CARTESIAN_POINT ( 'NONE',  ( 2.129488029125454300, 2.142175187742300800, 3.013283063648299900 ) ) ;
#216 = CIRCLE ( 'NONE', #47, 518.2000000000001600 ) ;
#217 = CARTESIAN_POINT ( 'NONE',  ( 4.504037254586785900E-014, -6.426196116788985600, 2.960152851865460700 ) ) ;
#218 = CARTESIAN_POINT ( 'NONE',  ( -2.129488029125341500, -2.142175187742248400, 3.013283063648367800 ) ) ;
#219 = CIRCLE ( 'NONE', #279, 6.349999999999999600 ) ;
#220 = FACE_OUTER_BOUND ( 'NONE', #247, .T. ) ;
#221 = FACE_OUTER_BOUND ( 'NONE', #204, .T. ) ;
#222 = DATE_AND_TIME ( #205, #42 ) ;
#223 = CARTESIAN_POINT ( 'NONE',  ( -4.502346354920252800E-014, -6.349999999998716200, 0.03890777095196712400 ) ) ;
#224 = DESIGN_CONTEXT ( 'detailed design', #272, 'design' ) ;
#225 = CARTESIAN_POINT ( 'NONE',  ( 2.129269701742246400, -6.426196116788987400, 0.03984714813454151600 ) ) ;
#226 = CARTESIAN_POINT ( 'NONE',  ( 2.129488029125341500, -2.142175187742248400, -0.01328306364836512100 ) ) ;
#227 = PRODUCT_DEFINITION_SHAPE ( 'NONE', 'NONE',  #97 ) ;
#228 = MECHANICAL_CONTEXT ( 'NONE', #8, 'mechanical' ) ;
#229 = APPROVAL_STATUS ( 'not_yet_approved' ) ;
#230 = APPROVAL_ROLE ( '' ) ;
#231 = ORIENTED_EDGE ( 'NONE', *, *, #48, .T. ) ;
#232 = CARTESIAN_POINT ( 'NONE',  ( 1.700029006457271000E-013, 6.426196116789038000, 2.960152851865393200 ) ) ;
#233 = ORIENTED_EDGE ( 'NONE', *, *, #35, .F. ) ;
#234 = CARTESIAN_POINT ( 'NONE',  ( -6.387606860898924500, 6.426196116789036200, 2.920779820747169400 ) ) ;
#235 = CARTESIAN_POINT ( 'NONE',  ( -4.217480345622381300E-014, 6.349999999998716200, 0.03890777095196712400 ) ) ;
#236 = CARTESIAN_POINT ( 'NONE',  ( 2.498001805406600200E-016, 1.221245327087670000E-015, 2.961092229048010600 ) ) ;
#237 = SECURITY_CLASSIFICATION_LEVEL ( 'unclassified' ) ;
#238 = CARTESIAN_POINT ( 'NONE',  ( -1.691355389077386900E-013, 6.426196116789038000, 0.03984714813460957900 ) ) ;
#239 = DIRECTION ( 'NONE',  ( 0.0000000000000000000, 0.0000000000000000000, 1.000000000000000000 ) ) ;
#240 = ORIENTED_EDGE ( 'NONE', *, *, #108, .T. ) ;
#241 = DIRECTION ( 'NONE',  ( 1.000000000000000000, 0.0000000000000000000, 0.0000000000000000000 ) ) ;
#242 = COORDINATED_UNIVERSAL_TIME_OFFSET ( 2, 0, .AHEAD. ) ;
#243 = CARTESIAN_POINT ( 'NONE',  ( -4.258935604930287300, -2.142175187742246600, -0.0001572079886310638400 ) ) ;
#244 = ADVANCED_FACE ( 'NONE', ( #220 ), #7, .T. ) ;
#245 = CC_DESIGN_APPROVAL ( #190, ( #182 ) ) ;
#246 = ORIENTED_EDGE ( 'NONE', *, *, #30, .T. ) ;
#247 = EDGE_LOOP ( 'NONE', ( #3, #72, #231 ) ) ;
#248 = DIRECTION ( 'NONE',  ( -0.0000000000000000000, -0.0000000000000000000, -1.000000000000000000 ) ) ;
#249 = AXIS2_PLACEMENT_3D ( 'NONE', #191, #4, #208 ) ;
#250 = CALENDAR_DATE ( 2019, 9, 1 ) ;
#251 = PERSON_AND_ORGANIZATION ( #285, #153 ) ;
#252 = CC_DESIGN_PERSON_AND_ORGANIZATION_ASSIGNMENT ( #101, #174, ( #158 ) ) ;
#253 = CARTESIAN_POINT ( 'NONE',  ( -2.129269701742249100, 6.426196116789037100, 2.960152851865461200 ) ) ;
#254 = CARTESIAN_POINT ( 'NONE',  ( -6.388261822310831800, 2.142175187742298500, 2.973905995366141800 ) ) ;
#255 = ORIENTED_EDGE ( 'NONE', *, *, #11, .F. ) ;
#256 = DIRECTION ( 'NONE',  ( -2.243039443290779400E-016, -1.000000000000000000, 0.0000000000000000000 ) ) ;
#257 = DIRECTION ( 'NONE',  ( 1.000000000000000000, 0.0000000000000000000, 0.0000000000000000000 ) ) ;
#258 = LOCAL_TIME ( 13, 25, 22.00000000000000000, #160 ) ;
#259 = CARTESIAN_POINT ( 'NONE',  ( -1.726049858596923100E-013, -6.426196116788985600, 0.03984714813460956500 ) ) ;
#260 = DIRECTION ( 'NONE',  ( -1.000000000000000000, -2.243039443290779900E-016, 1.938442578377170100E-016 ) ) ;
#261 = AXIS2_PLACEMENT_3D ( 'NONE', #136, #51, #93 ) ;
#262 = CARTESIAN_POINT ( 'NONE',  ( -6.388261822310738600, 2.142175187742301600, 0.02609400463390958500 ) ) ;
#263 = ORIENTED_EDGE ( 'NONE', *, *, #71, .T. ) ;
#264 = CIRCLE ( 'NONE', #95, 6.349999999999999600 ) ;
#265 = DIRECTION ( 'NONE',  ( 1.000000000000000000, 0.0000000000000000000, 0.0000000000000000000 ) ) ;
#266 = CARTESIAN_POINT ( 'NONE',  ( -6.349999999999999600, 1.998896044546239400E-015, 0.03890777095198839900 ) ) ;
#267 = DATE_AND_TIME ( #44, #197 ) ;
#268 = DIRECTION ( 'NONE',  ( 0.0000000000000000000, 0.0000000000000000000, 1.000000000000000000 ) ) ;
#269 = ORIENTED_EDGE ( 'NONE', *, *, #108, .F. ) ;
#270 = PERSON_AND_ORGANIZATION ( #285, #153 ) ;
#271 = DIRECTION ( 'NONE',  ( 1.000000000000000000, 0.0000000000000000000, 0.0000000000000000000 ) ) ;
#272 = APPLICATION_CONTEXT ( 'configuration controlled 3d designs of mechanical parts and assemblies' ) ;
#273 = DATE_AND_TIME ( #114, #127 ) ;
#274 = APPROVAL ( #37, 'UNSPECIFIED' ) ;
#275 = CALENDAR_DATE ( 2019, 9, 1 ) ;
#276 = APPLICATION_PROTOCOL_DEFINITION ( 'international standard', 'config_control_design', 1994, #8 ) ;
#277 = CARTESIAN_POINT ( 'NONE',  ( 4.258498954311604300, 6.426196116789038900, 2.947028341944081900 ) ) ;
#278 =( LENGTH_UNIT ( ) NAMED_UNIT ( * ) SI_UNIT ( .MILLI., .METRE. ) );
#279 = AXIS2_PLACEMENT_3D ( 'NONE', #139, #248, #2 ) ;
#280 = EDGE_LOOP ( 'NONE', ( #203, #41, #87 ) ) ;
#281 = CARTESIAN_POINT ( 'NONE',  ( -2.129269701742246400, -6.426196116788987400, 2.960152851865461200 ) ) ;
#282 = VECTOR ( 'NONE', #268, 1000.000000000000000 ) ;
#283 =( BOUNDED_SURFACE ( )  B_SPLINE_SURFACE ( 3, 3, ( 
 ( #217, #281, #102, #12 ),
 ( #198, #218, #9, #126 ),
 ( #170, #213, #124, #254 ),
 ( #214, #253, #81, #234 ) ),
 .UNSPECIFIED., .F., .F., .F. ) 
 B_SPLINE_SURFACE_WITH_KNOTS ( ( 4, 4 ),
 ( 4, 4 ),
 ( 0.0000000000000000000, 1.000000000000000000 ),
 ( 0.0000000000000000000, 1.000000000000000000 ),
 .UNSPECIFIED. ) 
 GEOMETRIC_REPRESENTATION_ITEM ( )  RATIONAL_B_SPLINE_SURFACE ( (
 ( 1.000000000000000000, 0.9999873355097889100, 0.9999873355097889100, 1.000000000000000000),
 ( 0.9999487364619392700, 0.9999360726209547400, 0.9999360726209547400, 0.9999487364619392700),
 ( 0.9999487364619392700, 0.9999360726209547400, 0.9999360726209547400, 0.9999487364619392700),
 ( 1.000000000000000000, 0.9999873355097889100, 0.9999873355097889100, 1.000000000000000000) ) ) 
 REPRESENTATION_ITEM ( '' )  SURFACE ( )  );
#284 = APPROVAL_PERSON_ORGANIZATION ( #251, #23, #196 ) ;
#285 = PERSON ( 'UNSPECIFIED', 'UNSPECIFIED', 'UNSPECIFIED', ('UNSPECIFIED'), ('UNSPECIFIED'), ('UNSPECIFIED') ) ;
#286 = CARTESIAN_POINT ( 'NONE',  ( 6.349999999999999600, 1.221245327087670000E-015, 0.03890777095198839900 ) ) ;
#287 = CARTESIAN_POINT ( 'NONE',  ( -4.258498954311604300, 6.426196116789038900, 0.05297165805592069000 ) ) ;
#288 =( BOUNDED_SURFACE ( )  B_SPLINE_SURFACE ( 3, 3, ( 
 ( #185, #63, #177, #259 ),
 ( #179, #243, #289, #65 ),
 ( #262, #157, #129, #21 ),
 ( #27, #287, #43, #238 ) ),
 .UNSPECIFIED., .F., .F., .F. ) 
 B_SPLINE_SURFACE_WITH_KNOTS ( ( 4, 4 ),
 ( 4, 4 ),
 ( 0.0000000000000000000, 1.000000000000000000 ),
 ( 0.0000000000000000000, 1.000000000000000000 ),
 .UNSPECIFIED. ) 
 GEOMETRIC_REPRESENTATION_ITEM ( )  RATIONAL_B_SPLINE_SURFACE ( (
 ( 1.000000000000000000, 0.9999873355097889100, 0.9999873355097889100, 1.000000000000000000),
 ( 0.9999487364619392700, 0.9999360726209547400, 0.9999360726209547400, 0.9999487364619392700),
 ( 0.9999487364619392700, 0.9999360726209547400, 0.9999360726209547400, 0.9999487364619392700),
 ( 1.000000000000000000, 0.9999873355097889100, 0.9999873355097889100, 1.000000000000000000) ) ) 
 REPRESENTATION_ITEM ( '' )  SURFACE ( )  );
#289 = CARTESIAN_POINT ( 'NONE',  ( -2.129488029125454300, -2.142175187742247000, -0.01328306364829613000 ) ) ;
#290 = EDGE_CURVE ( 'NONE', #22, #106, #31, .T. ) ;
#291 = CARTESIAN_POINT ( 'NONE',  ( 6.349999999999999600, 1.221245327087670000E-015, 2.961092229048010600 ) ) ;
#292 = CIRCLE ( 'NONE', #261, 6.349999999999999600 ) ;
#293 = ADVANCED_FACE ( 'NONE', ( #90 ), #283, .T. ) ;
#294 = CARTESIAN_POINT ( 'NONE',  ( 4.502346354920202300E-014, -6.349999999998716200, 2.961092229048033300 ) ) ;
#295 = ADVANCED_FACE ( 'NONE', ( #212 ), #134, .T. ) ;
ENDSEC;
END-ISO-10303-21;
