ISO-10303-21;
HEADER;
FILE_DESCRIPTION (( 'STEP AP203' ),
    '1' );
FILE_NAME ('111-0148E BK7 bi-cx 12.7 F400.STEP',
    '2019-01-09T11:10:17',
    ( '' ),
    ( '' ),
    'SwSTEP 2.0',
    'SolidWorks 2017',
    '' );
FILE_SCHEMA (( 'CONFIG_CONTROL_DESIGN' ));
ENDSEC;

DATA;
#1 = AXIS2_PLACEMENT_3D ( 'NONE', #258, #275, #68 ) ;
#2 = ORIENTED_EDGE ( 'NONE', *, *, #31, .T. ) ;
#3 = ADVANCED_BREP_SHAPE_REPRESENTATION ( '111-0148E BK7 bi-cx 12.7 F400', ( #126, #117 ), #71 ) ;
#4 = PERSON_AND_ORGANIZATION_ROLE ( 'creator' ) ;
#5 = APPROVAL ( #70, 'UNSPECIFIED' ) ;
#6 =( NAMED_UNIT ( * ) PLANE_ANGLE_UNIT ( ) SI_UNIT ( $, .RADIAN. ) );
#7 = COORDINATED_UNIVERSAL_TIME_OFFSET ( 2, 0, .AHEAD. ) ;
#8 = EDGE_CURVE ( 'NONE', #130, #82, #257, .T. ) ;
#9 = PERSON_AND_ORGANIZATION_ROLE ( 'classification_officer' ) ;
#10 = CARTESIAN_POINT ( 'NONE',  ( 4.259049337825479700, 2.142236206542271800, 2.000196619024622500 ) ) ;
#11 =( LENGTH_UNIT ( ) NAMED_UNIT ( * ) SI_UNIT ( .MILLI., .METRE. ) );
#12 = CARTESIAN_POINT ( 'NONE',  ( 6.388352811159379900, -2.142236206542210000, 1.967384723224460800 ) ) ;
#13 = CARTESIAN_POINT ( 'NONE',  ( 5.684341886080800200E-014, -6.350000000001980300, 0.04863104797256381800 ) ) ;
#14 = LOCAL_TIME ( 13, 10, 17.00000000000000000, #287 ) ;
#15 = VERTEX_POINT ( 'NONE', #223 ) ;
#16 = AXIS2_PLACEMENT_3D ( 'NONE', #49, #169, #134 ) ;
#17 = CARTESIAN_POINT ( 'NONE',  ( 2.498001805406600200E-016, 1.221245327087670000E-015, 1.951368952027410000 ) ) ;
#18 = CARTESIAN_POINT ( 'NONE',  ( -6.349999999999999600, 1.998896044546239400E-015, 0.04863104797259160100 ) ) ;
#19 = ORIENTED_EDGE ( 'NONE', *, *, #179, .F. ) ;
#20 = CARTESIAN_POINT ( 'NONE',  ( -2.129215182489098800, 6.426193933453221900, 0.04980517248620652100 ) ) ;
#21 = PRODUCT ( '111-0148E BK7 bi-cx 12.7 F400', '111-0148E BK7 bi-cx 12.7 F400', '', ( #32 ) ) ;
#22 = ORIENTED_EDGE ( 'NONE', *, *, #245, .F. ) ;
#23 = CARTESIAN_POINT ( 'NONE',  ( -5.684341886080800200E-014, -6.350000000001980300, 1.951368952027438000 ) ) ;
#24 = PRODUCT_RELATED_PRODUCT_CATEGORY ( 'detail', '', ( #21 ) ) ;
#25 = EDGE_LOOP ( 'NONE', ( #132, #195, #19, #289, #2, #268 ) ) ;
#26 = CARTESIAN_POINT ( 'NONE',  ( 2.129215182489073500, 6.426193933453221900, 0.04980517248620585500 ) ) ;
#27 = APPROVAL ( #219, 'UNSPECIFIED' ) ;
#28 = DIRECTION ( 'NONE',  ( -0.0000000000000000000, -0.0000000000000000000, -1.000000000000000000 ) ) ;
#29 = LOCAL_TIME ( 13, 10, 17.00000000000000000, #77 ) ;
#30 = CARTESIAN_POINT ( 'NONE',  ( 2.498001805406600200E-016, 1.221245327087670000E-015, 0.04863104797259160100 ) ) ;
#31 = EDGE_CURVE ( 'NONE', #62, #88, #124, .T. ) ;
#32 = MECHANICAL_CONTEXT ( 'NONE', #283, 'mechanical' ) ;
#33 = CARTESIAN_POINT ( 'NONE',  ( 6.387329602787687600, 6.426193933453221000, 0.09901561989626189700 ) ) ;
#34 = CARTESIAN_POINT ( 'NONE',  ( 6.349999999999999600, 1.221245327087670000E-015, 0.04863104797259160100 ) ) ;
#35 = DATE_AND_TIME ( #278, #103 ) ;
#36 = EDGE_CURVE ( 'NONE', #15, #62, #78, .T. ) ;
#37 = CYLINDRICAL_SURFACE ( 'NONE', #92, 6.349999999999999600 ) ;
#38 =( BOUNDED_SURFACE ( )  B_SPLINE_SURFACE ( 3, 3, ( 
 ( #196, #66, #216, #255 ),
 ( #213, #138, #89, #253 ),
 ( #111, #273, #133, #294 ),
 ( #163, #26, #170, #33 ) ),
 .UNSPECIFIED., .F., .F., .F. ) 
 B_SPLINE_SURFACE_WITH_KNOTS ( ( 4, 4 ),
 ( 4, 4 ),
 ( 0.0000000000000000000, 1.000000000000000000 ),
 ( 0.0000000000000000000, 1.000000000000000000 ),
 .UNSPECIFIED. ) 
 GEOMETRIC_REPRESENTATION_ITEM ( )  RATIONAL_B_SPLINE_SURFACE ( (
 ( 1.000000000000000000, 0.9999802150305497900, 0.9999802150305497900, 1.000000000000000000),
 ( 0.9999199144999417800, 0.9999001311149807700, 0.9999001311149807700, 0.9999199144999417800),
 ( 0.9999199144999417800, 0.9999001311149807700, 0.9999001311149807700, 0.9999199144999417800),
 ( 1.000000000000000000, 0.9999802150305497900, 0.9999802150305497900, 1.000000000000000000) ) ) 
 REPRESENTATION_ITEM ( '' )  SURFACE ( )  );
#39 = CARTESIAN_POINT ( 'NONE',  ( 6.388352811159379900, 2.142236206542271800, 1.967384723224460800 ) ) ;
#40 = CARTESIAN_POINT ( 'NONE',  ( -6.388352811159379900, -2.142236206542210000, 0.03261527677554107400 ) ) ;
#41 = CC_DESIGN_SECURITY_CLASSIFICATION ( #190, ( #113 ) ) ;
#42 = CC_DESIGN_PERSON_AND_ORGANIZATION_ASSIGNMENT ( #165, #4, ( #171 ) ) ;
#43 = CIRCLE ( 'NONE', #265, 414.6000000000000200 ) ;
#44 = VERTEX_POINT ( 'NONE', #13 ) ;
#45 = CARTESIAN_POINT ( 'NONE',  ( -2.129556268817027300, -2.142236206542210000, 2.016603053825930700 ) ) ;
#46 = CARTESIAN_POINT ( 'NONE',  ( -5.684341886080800900E-014, 2.142236206542271800, 2.016603053825931200 ) ) ;
#47 = EDGE_LOOP ( 'NONE', ( #224, #86, #142 ) ) ;
#48 = CARTESIAN_POINT ( 'NONE',  ( -4.259049337825414800, -2.142236206542210000, 2.000196619024640300 ) ) ;
#49 = CARTESIAN_POINT ( 'NONE',  ( 2.498001805406600200E-016, 1.221245327087670000E-015, 0.04863104797259160100 ) ) ;
#50 = CARTESIAN_POINT ( 'NONE',  ( 5.684341886080800200E-014, 2.842170943040400100E-014, 414.6000000000000200 ) ) ;
#51 = DIRECTION ( 'NONE',  ( 0.0000000000000000000, 0.0000000000000000000, 1.000000000000000000 ) ) ;
#52 = PERSON_AND_ORGANIZATION ( #107, #109 ) ;
#53 = FACE_OUTER_BOUND ( 'NONE', #47, .T. ) ;
#54 = CC_DESIGN_PERSON_AND_ORGANIZATION_ASSIGNMENT ( #256, #173, ( #113 ) ) ;
#55 = LOCAL_TIME ( 13, 10, 17.00000000000000000, #65 ) ;
#56 = PRODUCT_DEFINITION_SHAPE ( 'NONE', 'NONE',  #171 ) ;
#57 = CARTESIAN_POINT ( 'NONE',  ( -4.423544863740858100E-014, -6.426193933453159700, 0.04980517248620600800 ) ) ;
#58 = CARTESIAN_POINT ( 'NONE',  ( 4.258367175292146800, 6.426193933453221900, 1.933791020494943600 ) ) ;
#59 = ADVANCED_FACE ( 'NONE', ( #244 ), #178, .T. ) ;
#60 = CARTESIAN_POINT ( 'NONE',  ( -6.387329602787787900, -6.426193933453159700, 0.09901561989628104900 ) ) ;
#61 = APPROVAL_PERSON_ORGANIZATION ( #295, #135, #259 ) ;
#62 = VERTEX_POINT ( 'NONE', #150 ) ;
#63 = CARTESIAN_POINT ( 'NONE',  ( -2.129215182489073500, 6.426193933453221900, 1.950194827513795900 ) ) ;
#64 = CC_DESIGN_PERSON_AND_ORGANIZATION_ASSIGNMENT ( #147, #94, ( #113 ) ) ;
#65 = COORDINATED_UNIVERSAL_TIME_OFFSET ( 2, 0, .AHEAD. ) ;
#66 = CARTESIAN_POINT ( 'NONE',  ( 2.129215182489073500, -6.426193933453160600, 0.04980517248620585500 ) ) ;
#67 = DATE_AND_TIME ( #137, #264 ) ;
#68 = DIRECTION ( 'NONE',  ( 1.000000000000000000, -8.881784197001252300E-016, 0.0000000000000000000 ) ) ;
#69 = EDGE_LOOP ( 'NONE', ( #149, #217, #251, #139, #180, #203 ) ) ;
#70 = APPROVAL_STATUS ( 'not_yet_approved' ) ;
#71 =( GEOMETRIC_REPRESENTATION_CONTEXT ( 3 ) GLOBAL_UNCERTAINTY_ASSIGNED_CONTEXT ( ( #197 ) ) GLOBAL_UNIT_ASSIGNED_CONTEXT ( ( #11, #6, #175 ) ) REPRESENTATION_CONTEXT ( 'NONE', 'WORKASPACE' ) );
#72 = ORIENTED_EDGE ( 'NONE', *, *, #31, .F. ) ;
#73 = DIRECTION ( 'NONE',  ( 1.000000000000000000, 0.0000000000000000000, 0.0000000000000000000 ) ) ;
#74 = DIRECTION ( 'NONE',  ( -0.0000000000000000000, -0.0000000000000000000, -1.000000000000000000 ) ) ;
#75 = DIRECTION ( 'NONE',  ( 1.000000000000000000, 8.881784197001252300E-016, 0.0000000000000000000 ) ) ;
#76 = AXIS2_PLACEMENT_3D ( 'NONE', #50, #277, #167 ) ;
#77 = COORDINATED_UNIVERSAL_TIME_OFFSET ( 2, 0, .AHEAD. ) ;
#78 = CIRCLE ( 'NONE', #131, 6.349999999999999600 ) ;
#79 = CC_DESIGN_DATE_AND_TIME_ASSIGNMENT ( #129, #262, ( #190 ) ) ;
#80 = ADVANCED_FACE ( 'NONE', ( #53 ), #84, .T. ) ;
#81 = CARTESIAN_POINT ( 'NONE',  ( 2.129215182489097900, 6.426193933453221900, 1.950194827513795500 ) ) ;
#82 = VERTEX_POINT ( 'NONE', #228 ) ;
#83 = CARTESIAN_POINT ( 'NONE',  ( -4.423544863740856800E-014, 2.142236206542271800, -0.01660305382592871000 ) ) ;
#84 =( BOUNDED_SURFACE ( )  B_SPLINE_SURFACE ( 3, 3, ( 
 ( #60, #105, #155, #57 ),
 ( #40, #208, #182, #205 ),
 ( #230, #246, #154, #83 ),
 ( #247, #106, #20, #249 ) ),
 .UNSPECIFIED., .F., .F., .F. ) 
 B_SPLINE_SURFACE_WITH_KNOTS ( ( 4, 4 ),
 ( 4, 4 ),
 ( 0.0000000000000000000, 1.000000000000000000 ),
 ( 0.0000000000000000000, 1.000000000000000000 ),
 .UNSPECIFIED. ) 
 GEOMETRIC_REPRESENTATION_ITEM ( )  RATIONAL_B_SPLINE_SURFACE ( (
 ( 1.000000000000000000, 0.9999802150305497900, 0.9999802150305497900, 1.000000000000000000),
 ( 0.9999199144999417800, 0.9999001311149807700, 0.9999001311149807700, 0.9999199144999417800),
 ( 0.9999199144999417800, 0.9999001311149807700, 0.9999001311149807700, 0.9999199144999417800),
 ( 1.000000000000000000, 0.9999802150305497900, 0.9999802150305497900, 1.000000000000000000) ) ) 
 REPRESENTATION_ITEM ( '' )  SURFACE ( )  );
#85 = CALENDAR_DATE ( 2019, 9, 1 ) ;
#86 = ORIENTED_EDGE ( 'NONE', *, *, #145, .T. ) ;
#87 = CARTESIAN_POINT ( 'NONE',  ( -4.259049337825414800, 2.142236206542271800, 2.000196619024640300 ) ) ;
#88 = VERTEX_POINT ( 'NONE', #23 ) ;
#89 = CARTESIAN_POINT ( 'NONE',  ( 4.259049337825414800, -2.142236206542210000, -0.0001966190246385378600 ) ) ;
#90 = DATE_AND_TIME ( #194, #14 ) ;
#91 = CIRCLE ( 'NONE', #290, 6.349999999999999600 ) ;
#92 = AXIS2_PLACEMENT_3D ( 'NONE', #30, #114, #218 ) ;
#93 = DIRECTION ( 'NONE',  ( -0.0000000000000000000, -0.0000000000000000000, -1.000000000000000000 ) ) ;
#94 = PERSON_AND_ORGANIZATION_ROLE ( 'design_supplier' ) ;
#95 = FACE_OUTER_BOUND ( 'NONE', #232, .T. ) ;
#96 = DIRECTION ( 'NONE',  ( -0.0000000000000000000, -0.0000000000000000000, -1.000000000000000000 ) ) ;
#97 = CARTESIAN_POINT ( 'NONE',  ( 2.498001805406600200E-016, 1.221245327087670000E-015, 0.04863104797259160100 ) ) ;
#98 = DIRECTION ( 'NONE',  ( -0.0000000000000000000, -0.0000000000000000000, -1.000000000000000000 ) ) ;
#99 = APPROVAL_DATE_TIME ( #90, #27 ) ;
#100 = VERTEX_POINT ( 'NONE', #185 ) ;
#101 = CARTESIAN_POINT ( 'NONE',  ( 2.498001805406600200E-016, 1.221245327087670000E-015, 1.951368952027410000 ) ) ;
#102 = ADVANCED_FACE ( 'NONE', ( #172 ), #269, .T. ) ;
#103 = LOCAL_TIME ( 13, 10, 17.00000000000000000, #233 ) ;
#104 = EDGE_LOOP ( 'NONE', ( #22, #72, #210 ) ) ;
#105 = CARTESIAN_POINT ( 'NONE',  ( -4.258367175292146800, -6.426193933453160600, 0.06620897950505809400 ) ) ;
#106 = CARTESIAN_POINT ( 'NONE',  ( -4.258367175292146800, 6.426193933453221900, 0.06620897950505809400 ) ) ;
#107 = PERSON ( 'UNSPECIFIED', 'UNSPECIFIED', 'UNSPECIFIED', ('UNSPECIFIED'), ('UNSPECIFIED'), ('UNSPECIFIED') ) ;
#108 = AXIS2_PLACEMENT_3D ( 'NONE', #238, #96, #141 ) ;
#109 = ORGANIZATION ( 'UNSPECIFIED', 'UNSPECIFIED', '' ) ;
#110 = ORIENTED_EDGE ( 'NONE', *, *, #245, .T. ) ;
#111 = CARTESIAN_POINT ( 'NONE',  ( 5.684341886080800900E-014, 2.142236206542271800, -0.01660305382592883900 ) ) ;
#112 = DIRECTION ( 'NONE',  ( 0.0000000000000000000, 0.0000000000000000000, 1.000000000000000000 ) ) ;
#113 = PRODUCT_DEFINITION_FORMATION_WITH_SPECIFIED_SOURCE ( 'ANY', '', #21, .NOT_KNOWN. ) ;
#114 = DIRECTION ( 'NONE',  ( 0.0000000000000000000, 0.0000000000000000000, 1.000000000000000000 ) ) ;
#115 = CIRCLE ( 'NONE', #108, 6.349999999999999600 ) ;
#116 = ORIENTED_EDGE ( 'NONE', *, *, #164, .F. ) ;
#117 = AXIS2_PLACEMENT_3D ( 'NONE', #281, #51, #73 ) ;
#118 = DIRECTION ( 'NONE',  ( 0.0000000000000000000, -1.000000000000000000, -2.677817232573942500E-016 ) ) ;
#119 = APPROVAL_ROLE ( '' ) ;
#120 = PERSON_AND_ORGANIZATION ( #107, #109 ) ;
#121 = CARTESIAN_POINT ( 'NONE',  ( 4.258367175292146800, -6.426193933453160600, 1.933791020494943600 ) ) ;
#122 = DIRECTION ( 'NONE',  ( -1.000000000000000000, 0.0000000000000000000, 0.0000000000000000000 ) ) ;
#123 = APPROVAL_DATE_TIME ( #127, #5 ) ;
#124 = CIRCLE ( 'NONE', #285, 6.349999999999999600 ) ;
#125 = CARTESIAN_POINT ( 'NONE',  ( 4.423544863740856800E-014, -2.142236206542210000, 2.016603053825930700 ) ) ;
#126 = MANIFOLD_SOLID_BREP ( 'Imported1', #206 ) ;
#127 = DATE_AND_TIME ( #209, #29 ) ;
#128 = CARTESIAN_POINT ( 'NONE',  ( -5.684341886080800200E-014, 6.426193933453221000, 1.950194827513795900 ) ) ;
#129 = DATE_AND_TIME ( #85, #55 ) ;
#130 = VERTEX_POINT ( 'NONE', #18 ) ;
#131 = AXIS2_PLACEMENT_3D ( 'NONE', #101, #98, #75 ) ;
#132 = ORIENTED_EDGE ( 'NONE', *, *, #225, .F. ) ;
#133 = CARTESIAN_POINT ( 'NONE',  ( 4.259049337825414800, 2.142236206542271800, -0.0001966190246385852900 ) ) ;
#134 = DIRECTION ( 'NONE',  ( 1.000000000000000000, 0.0000000000000000000, 0.0000000000000000000 ) ) ;
#135 = APPROVAL ( #144, 'UNSPECIFIED' ) ;
#136 = CARTESIAN_POINT ( 'NONE',  ( 2.498001805406600200E-016, 1.221245327087670000E-015, 0.04863104797259160100 ) ) ;
#137 = CALENDAR_DATE ( 2019, 9, 1 ) ;
#138 = CARTESIAN_POINT ( 'NONE',  ( 2.129556268817027300, -2.142236206542210000, -0.01660305382592879700 ) ) ;
#139 = ORIENTED_EDGE ( 'NONE', *, *, #36, .T. ) ;
#140 = CARTESIAN_POINT ( 'NONE',  ( 6.349999999999999600, 1.221245327087670000E-015, 0.04863104797259160100 ) ) ;
#141 = DIRECTION ( 'NONE',  ( 1.000000000000000000, 0.0000000000000000000, 0.0000000000000000000 ) ) ;
#142 = ORIENTED_EDGE ( 'NONE', *, *, #8, .T. ) ;
#143 = DIRECTION ( 'NONE',  ( 0.0000000000000000000, 0.0000000000000000000, 1.000000000000000000 ) ) ;
#144 = APPROVAL_STATUS ( 'not_yet_approved' ) ;
#145 = EDGE_CURVE ( 'NONE', #44, #130, #227, .T. ) ;
#146 = DIRECTION ( 'NONE',  ( 0.0000000000000000000, 0.0000000000000000000, 1.000000000000000000 ) ) ;
#147 = PERSON_AND_ORGANIZATION ( #107, #109 ) ;
#148 = CARTESIAN_POINT ( 'NONE',  ( 4.259049337825479700, -2.142236206542210000, 2.000196619024622500 ) ) ;
#149 = ORIENTED_EDGE ( 'NONE', *, *, #8, .F. ) ;
#150 = CARTESIAN_POINT ( 'NONE',  ( 6.349999999999999600, 1.221245327087670000E-015, 1.951368952027410000 ) ) ;
#151 = DIRECTION ( 'NONE',  ( 1.000000000000000000, 0.0000000000000000000, 0.0000000000000000000 ) ) ;
#152 = CC_DESIGN_PERSON_AND_ORGANIZATION_ASSIGNMENT ( #52, #222, ( #21 ) ) ;
#153 = FACE_OUTER_BOUND ( 'NONE', #25, .T. ) ;
#154 = CARTESIAN_POINT ( 'NONE',  ( -2.129556268817052200, 2.142236206542271800, -0.01660305382592819000 ) ) ;
#155 = CARTESIAN_POINT ( 'NONE',  ( -2.129215182489098800, -6.426193933453160600, 0.04980517248620652100 ) ) ;
#156 = ORIENTED_EDGE ( 'NONE', *, *, #243, .F. ) ;
#157 = CARTESIAN_POINT ( 'NONE',  ( -6.387329602787687600, 6.426193933453221000, 1.900984380103739800 ) ) ;
#158 = CARTESIAN_POINT ( 'NONE',  ( -5.684341886080800900E-014, -2.142236206542210000, 2.016603053825931200 ) ) ;
#159 = CARTESIAN_POINT ( 'NONE',  ( -5.684341886080800200E-014, -6.426193933453159700, 1.950194827513795900 ) ) ;
#160 = VECTOR ( 'NONE', #112, 1000.000000000000000 ) ;
#161 = CARTESIAN_POINT ( 'NONE',  ( -2.129215182489073500, -6.426193933453160600, 1.950194827513795900 ) ) ;
#162 = CC_DESIGN_APPROVAL ( #135, ( #190 ) ) ;
#163 = CARTESIAN_POINT ( 'NONE',  ( 5.684341886080800200E-014, 6.426193933453221000, 0.04980517248620586200 ) ) ;
#164 = EDGE_CURVE ( 'NONE', #100, #15, #166, .T. ) ;
#165 = PERSON_AND_ORGANIZATION ( #107, #109 ) ;
#166 = CIRCLE ( 'NONE', #1, 6.349999999999999600 ) ;
#167 = DIRECTION ( 'NONE',  ( 0.0000000000000000000, -1.000000000000000000, 2.677817232573942500E-016 ) ) ;
#168 = DESIGN_CONTEXT ( 'detailed design', #240, 'design' ) ;
#169 = DIRECTION ( 'NONE',  ( -0.0000000000000000000, -0.0000000000000000000, -1.000000000000000000 ) ) ;
#170 = CARTESIAN_POINT ( 'NONE',  ( 4.258367175292082900, 6.426193933453221900, 0.06620897950504062200 ) ) ;
#171 = PRODUCT_DEFINITION ( 'UNKNOWN', '', #113, #168 ) ;
#172 = FACE_OUTER_BOUND ( 'NONE', #276, .T. ) ;
#173 = PERSON_AND_ORGANIZATION_ROLE ( 'creator' ) ;
#174 = APPLICATION_PROTOCOL_DEFINITION ( 'international standard', 'config_control_design', 1994, #283 ) ;
#175 =( NAMED_UNIT ( * ) SI_UNIT ( $, .STERADIAN. ) SOLID_ANGLE_UNIT ( ) );
#176 = CC_DESIGN_DATE_AND_TIME_ASSIGNMENT ( #35, #198, ( #171 ) ) ;
#177 = CARTESIAN_POINT ( 'NONE',  ( 2.129556268817052200, -2.142236206542210000, 2.016603053825929900 ) ) ;
#178 =( BOUNDED_SURFACE ( )  B_SPLINE_SURFACE ( 3, 3, ( 
 ( #286, #121, #266, #263 ),
 ( #12, #148, #177, #125 ),
 ( #39, #10, #267, #248 ),
 ( #207, #58, #81, #229 ) ),
 .UNSPECIFIED., .F., .F., .T. ) 
 B_SPLINE_SURFACE_WITH_KNOTS ( ( 4, 4 ),
 ( 4, 4 ),
 ( 0.0000000000000000000, 1.000000000000000000 ),
 ( 0.0000000000000000000, 1.000000000000000000 ),
 .UNSPECIFIED. ) 
 GEOMETRIC_REPRESENTATION_ITEM ( )  RATIONAL_B_SPLINE_SURFACE ( (
 ( 1.000000000000000000, 0.9999802150305497900, 0.9999802150305497900, 1.000000000000000000),
 ( 0.9999199144999417800, 0.9999001311149807700, 0.9999001311149807700, 0.9999199144999417800),
 ( 0.9999199144999417800, 0.9999001311149807700, 0.9999001311149807700, 0.9999199144999417800),
 ( 1.000000000000000000, 0.9999802150305497900, 0.9999802150305497900, 1.000000000000000000) ) ) 
 REPRESENTATION_ITEM ( '' )  SURFACE ( )  );
#179 = EDGE_CURVE ( 'NONE', #212, #44, #91, .T. ) ;
#180 = ORIENTED_EDGE ( 'NONE', *, *, #184, .F. ) ;
#181 = ADVANCED_FACE ( 'NONE', ( #153 ), #37, .T. ) ;
#182 = CARTESIAN_POINT ( 'NONE',  ( -2.129556268817052200, -2.142236206542210000, -0.01660305382592813800 ) ) ;
#183 = VECTOR ( 'NONE', #143, 1000.000000000000000 ) ;
#184 = EDGE_CURVE ( 'NONE', #212, #62, #234, .T. ) ;
#185 = CARTESIAN_POINT ( 'NONE',  ( -6.349999999999999600, 1.998896044546239400E-015, 1.951368952027410000 ) ) ;
#186 = ORIENTED_EDGE ( 'NONE', *, *, #179, .T. ) ;
#187 = CARTESIAN_POINT ( 'NONE',  ( -6.387329602787687600, -6.426193933453159700, 1.900984380103739800 ) ) ;
#188 = CC_DESIGN_APPROVAL ( #27, ( #171 ) ) ;
#189 = FACE_OUTER_BOUND ( 'NONE', #69, .T. ) ;
#190 = SECURITY_CLASSIFICATION ( '', '', #242 ) ;
#191 = DIRECTION ( 'NONE',  ( 1.000000000000000000, 0.0000000000000000000, 0.0000000000000000000 ) ) ;
#192 = CARTESIAN_POINT ( 'NONE',  ( 2.498001805406600200E-016, 1.221245327087670000E-015, 0.04863104797259160100 ) ) ;
#193 = EDGE_CURVE ( 'NONE', #82, #212, #272, .T. ) ;
#194 = CALENDAR_DATE ( 2019, 9, 1 ) ;
#195 = ORIENTED_EDGE ( 'NONE', *, *, #145, .F. ) ;
#196 = CARTESIAN_POINT ( 'NONE',  ( 5.684341886080800200E-014, -6.426193933453159700, 0.04980517248620586200 ) ) ;
#197 = UNCERTAINTY_MEASURE_WITH_UNIT (LENGTH_MEASURE( 1.000000000000000100E-005 ), #11, 'distance_accuracy_value', 'NONE');
#198 = DATE_TIME_ROLE ( 'creation_date' ) ;
#199 = APPROVAL_PERSON_ORGANIZATION ( #226, #5, #119 ) ;
#200 = APPLICATION_PROTOCOL_DEFINITION ( 'international standard', 'config_control_design', 1994, #240 ) ;
#201 = EDGE_CURVE ( 'NONE', #44, #82, #241, .T. ) ;
#202 = SHAPE_DEFINITION_REPRESENTATION ( #56, #3 ) ;
#203 = ORIENTED_EDGE ( 'NONE', *, *, #193, .F. ) ;
#204 = ADVANCED_FACE ( 'NONE', ( #95 ), #38, .T. ) ;
#205 = CARTESIAN_POINT ( 'NONE',  ( -4.423544863740856800E-014, -2.142236206542210000, -0.01660305382592865500 ) ) ;
#206 = CLOSED_SHELL ( 'NONE', ( #204, #102, #288, #80, #181, #59 ) ) ;
#207 = CARTESIAN_POINT ( 'NONE',  ( 6.387329602787787900, 6.426193933453221000, 1.900984380103720700 ) ) ;
#208 = CARTESIAN_POINT ( 'NONE',  ( -4.259049337825479700, -2.142236206542210000, -0.0001966190246210890000 ) ) ;
#209 = CALENDAR_DATE ( 2019, 9, 1 ) ;
#210 = ORIENTED_EDGE ( 'NONE', *, *, #36, .F. ) ;
#211 = CARTESIAN_POINT ( 'NONE',  ( -6.388352811159277800, 2.142236206542271800, 1.967384723224479900 ) ) ;
#212 = VERTEX_POINT ( 'NONE', #34 ) ;
#213 = CARTESIAN_POINT ( 'NONE',  ( 5.684341886080800900E-014, -2.142236206542210000, -0.01660305382592879700 ) ) ;
#214 = CC_DESIGN_APPROVAL ( #5, ( #113 ) ) ;
#215 = DIRECTION ( 'NONE',  ( 1.000000000000000000, 0.0000000000000000000, 0.0000000000000000000 ) ) ;
#216 = CARTESIAN_POINT ( 'NONE',  ( 4.258367175292082900, -6.426193933453160600, 0.06620897950504062200 ) ) ;
#217 = ORIENTED_EDGE ( 'NONE', *, *, #225, .T. ) ;
#218 = DIRECTION ( 'NONE',  ( 1.000000000000000000, 0.0000000000000000000, 0.0000000000000000000 ) ) ;
#219 = APPROVAL_STATUS ( 'not_yet_approved' ) ;
#220 = AXIS2_PLACEMENT_3D ( 'NONE', #237, #146, #280 ) ;
#221 = CARTESIAN_POINT ( 'NONE',  ( -6.349999999999999600, 1.998896044546239400E-015, 0.04863104797259160100 ) ) ;
#222 = PERSON_AND_ORGANIZATION_ROLE ( 'design_owner' ) ;
#223 = CARTESIAN_POINT ( 'NONE',  ( -5.684341886080800200E-014, 6.350000000002010500, 1.951368952027438000 ) ) ;
#224 = ORIENTED_EDGE ( 'NONE', *, *, #201, .F. ) ;
#225 = EDGE_CURVE ( 'NONE', #130, #100, #235, .T. ) ;
#226 = PERSON_AND_ORGANIZATION ( #107, #109 ) ;
#227 = CIRCLE ( 'NONE', #274, 6.349999999999999600 ) ;
#228 = CARTESIAN_POINT ( 'NONE',  ( 5.684341886080800200E-014, 6.350000000002010500, 0.04863104797256381800 ) ) ;
#229 = CARTESIAN_POINT ( 'NONE',  ( 4.336808689942017700E-014, 6.426193933453221000, 1.950194827513795900 ) ) ;
#230 = CARTESIAN_POINT ( 'NONE',  ( -6.388352811159379900, 2.142236206542271800, 0.03261527677554103300 ) ) ;
#231 = CYLINDRICAL_SURFACE ( 'NONE', #220, 6.349999999999999600 ) ;
#232 = EDGE_LOOP ( 'NONE', ( #186, #293, #239 ) ) ;
#233 = COORDINATED_UNIVERSAL_TIME_OFFSET ( 2, 0, .AHEAD. ) ;
#234 = LINE ( 'NONE', #140, #160 ) ;
#235 = LINE ( 'NONE', #221, #183 ) ;
#236 = CC_DESIGN_PERSON_AND_ORGANIZATION_ASSIGNMENT ( #120, #9, ( #190 ) ) ;
#237 = CARTESIAN_POINT ( 'NONE',  ( 2.498001805406600200E-016, 1.221245327087670000E-015, 0.04863104797259160100 ) ) ;
#238 = CARTESIAN_POINT ( 'NONE',  ( 2.498001805406600200E-016, 1.221245327087670000E-015, 1.951368952027410000 ) ) ;
#239 = ORIENTED_EDGE ( 'NONE', *, *, #193, .T. ) ;
#240 = APPLICATION_CONTEXT ( 'configuration controlled 3d designs of mechanical parts and assemblies' ) ;
#241 = CIRCLE ( 'NONE', #76, 414.6000000000000200 ) ;
#242 = SECURITY_CLASSIFICATION_LEVEL ( 'unclassified' ) ;
#243 = EDGE_CURVE ( 'NONE', #88, #100, #115, .T. ) ;
#244 = FACE_OUTER_BOUND ( 'NONE', #104, .T. ) ;
#245 = EDGE_CURVE ( 'NONE', #88, #15, #43, .T. ) ;
#246 = CARTESIAN_POINT ( 'NONE',  ( -4.259049337825479700, 2.142236206542271800, -0.0001966190246211296600 ) ) ;
#247 = CARTESIAN_POINT ( 'NONE',  ( -6.387329602787787900, 6.426193933453221000, 0.09901561989628104900 ) ) ;
#248 = CARTESIAN_POINT ( 'NONE',  ( 4.423544863740856800E-014, 2.142236206542271800, 2.016603053825930700 ) ) ;
#249 = CARTESIAN_POINT ( 'NONE',  ( -4.423544863740858100E-014, 6.426193933453221000, 0.04980517248620600800 ) ) ;
#250 = CARTESIAN_POINT ( 'NONE',  ( -6.388352811159277800, -2.142236206542210000, 1.967384723224479900 ) ) ;
#251 = ORIENTED_EDGE ( 'NONE', *, *, #164, .T. ) ;
#252 = CARTESIAN_POINT ( 'NONE',  ( -4.258367175292082900, 6.426193933453221900, 1.933791020494961100 ) ) ;
#253 = CARTESIAN_POINT ( 'NONE',  ( 6.388352811159277800, -2.142236206542210000, 0.03261527677552192300 ) ) ;
#254 = AXIS2_PLACEMENT_3D ( 'NONE', #97, #74, #151 ) ;
#255 = CARTESIAN_POINT ( 'NONE',  ( 6.387329602787687600, -6.426193933453159700, 0.09901561989626189700 ) ) ;
#256 = PERSON_AND_ORGANIZATION ( #107, #109 ) ;
#257 = CIRCLE ( 'NONE', #254, 6.349999999999999600 ) ;
#258 = CARTESIAN_POINT ( 'NONE',  ( 2.498001805406600200E-016, 1.221245327087670000E-015, 1.951368952027410000 ) ) ;
#259 = APPROVAL_ROLE ( '' ) ;
#260 = APPROVAL_ROLE ( '' ) ;
#261 = DIRECTION ( 'NONE',  ( -0.0000000000000000000, -0.0000000000000000000, -1.000000000000000000 ) ) ;
#262 = DATE_TIME_ROLE ( 'classification_date' ) ;
#263 = CARTESIAN_POINT ( 'NONE',  ( 4.336808689942017700E-014, -6.426193933453159700, 1.950194827513795900 ) ) ;
#264 = LOCAL_TIME ( 13, 10, 17.00000000000000000, #7 ) ;
#265 = AXIS2_PLACEMENT_3D ( 'NONE', #279, #122, #118 ) ;
#266 = CARTESIAN_POINT ( 'NONE',  ( 2.129215182489097900, -6.426193933453160600, 1.950194827513795500 ) ) ;
#267 = CARTESIAN_POINT ( 'NONE',  ( 2.129556268817052200, 2.142236206542271800, 2.016603053825929900 ) ) ;
#268 = ORIENTED_EDGE ( 'NONE', *, *, #243, .T. ) ;
#269 =( BOUNDED_SURFACE ( )  B_SPLINE_SURFACE ( 3, 3, ( 
 ( #159, #161, #292, #187 ),
 ( #158, #45, #48, #250 ),
 ( #46, #271, #87, #211 ),
 ( #128, #63, #252, #157 ) ),
 .UNSPECIFIED., .F., .F., .F. ) 
 B_SPLINE_SURFACE_WITH_KNOTS ( ( 4, 4 ),
 ( 4, 4 ),
 ( 0.0000000000000000000, 1.000000000000000000 ),
 ( 0.0000000000000000000, 1.000000000000000000 ),
 .UNSPECIFIED. ) 
 GEOMETRIC_REPRESENTATION_ITEM ( )  RATIONAL_B_SPLINE_SURFACE ( (
 ( 1.000000000000000000, 0.9999802150305497900, 0.9999802150305497900, 1.000000000000000000),
 ( 0.9999199144999417800, 0.9999001311149807700, 0.9999001311149807700, 0.9999199144999417800),
 ( 0.9999199144999417800, 0.9999001311149807700, 0.9999001311149807700, 0.9999199144999417800),
 ( 1.000000000000000000, 0.9999802150305497900, 0.9999802150305497900, 1.000000000000000000) ) ) 
 REPRESENTATION_ITEM ( '' )  SURFACE ( )  );
#270 = APPROVAL_PERSON_ORGANIZATION ( #284, #27, #260 ) ;
#271 = CARTESIAN_POINT ( 'NONE',  ( -2.129556268817027300, 2.142236206542271800, 2.016603053825930700 ) ) ;
#272 = CIRCLE ( 'NONE', #16, 6.349999999999999600 ) ;
#273 = CARTESIAN_POINT ( 'NONE',  ( 2.129556268817027300, 2.142236206542271800, -0.01660305382592883900 ) ) ;
#274 = AXIS2_PLACEMENT_3D ( 'NONE', #192, #28, #215 ) ;
#275 = DIRECTION ( 'NONE',  ( -0.0000000000000000000, -0.0000000000000000000, -1.000000000000000000 ) ) ;
#276 = EDGE_LOOP ( 'NONE', ( #156, #110, #116 ) ) ;
#277 = DIRECTION ( 'NONE',  ( 1.000000000000000000, 0.0000000000000000000, 0.0000000000000000000 ) ) ;
#278 = CALENDAR_DATE ( 2019, 9, 1 ) ;
#279 = CARTESIAN_POINT ( 'NONE',  ( -5.684341886080800200E-014, 2.842170943040400100E-014, -412.6000000000000200 ) ) ;
#280 = DIRECTION ( 'NONE',  ( 1.000000000000000000, 0.0000000000000000000, 0.0000000000000000000 ) ) ;
#281 = CARTESIAN_POINT ( 'NONE',  ( 0.0000000000000000000, 0.0000000000000000000, 0.0000000000000000000 ) ) ;
#282 = DIRECTION ( 'NONE',  ( 1.000000000000000000, 0.0000000000000000000, 0.0000000000000000000 ) ) ;
#283 = APPLICATION_CONTEXT ( 'configuration controlled 3d designs of mechanical parts and assemblies' ) ;
#284 = PERSON_AND_ORGANIZATION ( #107, #109 ) ;
#285 = AXIS2_PLACEMENT_3D ( 'NONE', #17, #261, #282 ) ;
#286 = CARTESIAN_POINT ( 'NONE',  ( 6.387329602787787900, -6.426193933453159700, 1.900984380103720700 ) ) ;
#287 = COORDINATED_UNIVERSAL_TIME_OFFSET ( 2, 0, .AHEAD. ) ;
#288 = ADVANCED_FACE ( 'NONE', ( #189 ), #231, .T. ) ;
#289 = ORIENTED_EDGE ( 'NONE', *, *, #184, .T. ) ;
#290 = AXIS2_PLACEMENT_3D ( 'NONE', #136, #93, #191 ) ;
#291 = APPROVAL_DATE_TIME ( #67, #135 ) ;
#292 = CARTESIAN_POINT ( 'NONE',  ( -4.258367175292082900, -6.426193933453160600, 1.933791020494961100 ) ) ;
#293 = ORIENTED_EDGE ( 'NONE', *, *, #201, .T. ) ;
#294 = CARTESIAN_POINT ( 'NONE',  ( 6.388352811159277800, 2.142236206542271800, 0.03261527677552187400 ) ) ;
#295 = PERSON_AND_ORGANIZATION ( #107, #109 ) ;
ENDSEC;
END-ISO-10303-21;
