ISO-10303-21;
HEADER;
FILE_DESCRIPTION (( 'STEP AP203' ),
    '1' );
FILE_NAME ('111-0140E BK7 bi-cx 12.7 F250.STEP',
    '2019-01-11T10:00:09',
    ( '' ),
    ( '' ),
    'SwSTEP 2.0',
    'SolidWorks 2017',
    '' );
FILE_SCHEMA (( 'CONFIG_CONTROL_DESIGN' ));
ENDSEC;

DATA;
#1 = CARTESIAN_POINT ( 'NONE',  ( -2.128978429143902200, 6.426184452368024000, 1.920266015204285400 ) ) ;
#2 = EDGE_LOOP ( 'NONE', ( #215, #102, #205, #20, #62, #81 ) ) ;
#3 = CARTESIAN_POINT ( 'NONE',  ( -2.128978429143828100, 6.426184452368022300, 0.07973398479574352000 ) ) ;
#4 = VECTOR ( 'NONE', #129, 1000.000000000000000 ) ;
#5 = CARTESIAN_POINT ( 'NONE',  ( 2.128978429143904400, -6.426184452368003600, 0.07973398479571658400 ) ) ;
#6 = CARTESIAN_POINT ( 'NONE',  ( -4.259543265090353100, -2.142501201389627900, 2.000315632199965300 ) ) ;
#7 = CARTESIAN_POINT ( 'NONE',  ( -1.084926882300050400E-013, 2.142501201389647400, 2.026583450799266400 ) ) ;
#8 = CC_DESIGN_APPROVAL ( #64, ( #55 ) ) ;
#9 = CARTESIAN_POINT ( 'NONE',  ( 6.386125700512939900, 6.426184452368022300, 1.841498898305316000 ) ) ;
#10 = AXIS2_PLACEMENT_3D ( 'NONE', #36, #191, #254 ) ;
#11 = VERTEX_POINT ( 'NONE', #23 ) ;
#12 = CARTESIAN_POINT ( 'NONE',  ( 2.498001805406600200E-016, 1.221245327087670000E-015, 0.07785436544830029400 ) ) ;
#13 = ADVANCED_BREP_SHAPE_REPRESENTATION ( '111-0140E BK7 bi-cx 12.7 F250', ( #117, #293 ), #134 ) ;
#14 = CARTESIAN_POINT ( 'NONE',  ( -4.510281037539698400E-014, 2.142501201389646900, 2.026583450799238000 ) ) ;
#15 = DIRECTION ( 'NONE',  ( 0.0000000000000000000, 0.0000000000000000000, 1.000000000000000000 ) ) ;
#16 = APPROVAL_DATE_TIME ( #63, #174 ) ;
#17 = EDGE_LOOP ( 'NONE', ( #231, #136, #85 ) ) ;
#18 = CALENDAR_DATE ( 2019, 11, 1 ) ;
#19 = DIRECTION ( 'NONE',  ( 1.000000000000000000, 0.0000000000000000000, 0.0000000000000000000 ) ) ;
#20 = ORIENTED_EDGE ( 'NONE', *, *, #116, .T. ) ;
#21 = ORIENTED_EDGE ( 'NONE', *, *, #116, .F. ) ;
#22 = DESIGN_CONTEXT ( 'detailed design', #169, 'design' ) ;
#23 = CARTESIAN_POINT ( 'NONE',  ( 6.349999999999999600, 1.221245327087670000E-015, 1.922145634551700100 ) ) ;
#24 = PRODUCT_RELATED_PRODUCT_CATEGORY ( 'detail', '', ( #261 ) ) ;
#25 = CARTESIAN_POINT ( 'NONE',  ( -1.103706921610961400E-013, -6.426184452368005400, 1.920266015204286100 ) ) ;
#26 = CARTESIAN_POINT ( 'NONE',  ( 2.129852626944203700, -2.142501201389629600, 2.026583450799238400 ) ) ;
#27 = DATE_AND_TIME ( #200, #93 ) ;
#28 = ADVANCED_FACE ( 'NONE', ( #256 ), #275, .T. ) ;
#29 = CARTESIAN_POINT ( 'NONE',  ( -2.128978429143825000, -6.426184452368005400, 0.07973398479574353400 ) ) ;
#30 = ADVANCED_FACE ( 'NONE', ( #101 ), #49, .T. ) ;
#31 = CARTESIAN_POINT ( 'NONE',  ( 1.075046278911634300E-013, 6.350000000000370000, 0.07785436544831343700 ) ) ;
#32 =( BOUNDED_SURFACE ( )  B_SPLINE_SURFACE ( 3, 3, ( 
 ( #87, #5, #245, #224 ),
 ( #114, #273, #291, #237 ),
 ( #99, #192, #34, #58 ),
 ( #182, #68, #203, #74 ) ),
 .UNSPECIFIED., .F., .F., .F. ) 
 B_SPLINE_SURFACE_WITH_KNOTS ( ( 4, 4 ),
 ( 4, 4 ),
 ( 0.0000000000000000000, 1.000000000000000000 ),
 ( 0.0000000000000000000, 1.000000000000000000 ),
 .UNSPECIFIED. ) 
 GEOMETRIC_REPRESENTATION_ITEM ( )  RATIONAL_B_SPLINE_SURFACE ( (
 ( 1.000000000000000000, 0.9999492957725335500, 0.9999492957725335500, 1.000000000000000000),
 ( 0.9997947645179002800, 0.9997440706967404300, 0.9997440706967404300, 0.9997947645179002800),
 ( 0.9997947645179002800, 0.9997440706967404300, 0.9997440706967404300, 0.9997947645179002800),
 ( 1.000000000000000000, 0.9999492957725335500, 0.9999492957725335500, 1.000000000000000000) ) ) 
 REPRESENTATION_ITEM ( '' )  SURFACE ( )  );
#33 = CARTESIAN_POINT ( 'NONE',  ( 2.498001805406600200E-016, 1.221245327087670000E-015, 1.922145634551700100 ) ) ;
#34 = CARTESIAN_POINT ( 'NONE',  ( 4.259543265090353100, 2.142501201389647800, -0.0003156321999627423700 ) ) ;
#35 = PERSON_AND_ORGANIZATION_ROLE ( 'design_owner' ) ;
#36 = CARTESIAN_POINT ( 'NONE',  ( 2.498001805406600200E-016, 1.221245327087670000E-015, 1.922145634551700100 ) ) ;
#37 = AXIS2_PLACEMENT_3D ( 'NONE', #199, #157, #19 ) ;
#38 = PERSON_AND_ORGANIZATION ( #288, #264 ) ;
#39 = SECURITY_CLASSIFICATION_LEVEL ( 'unclassified' ) ;
#40 = DATE_TIME_ROLE ( 'creation_date' ) ;
#41 = PERSON_AND_ORGANIZATION_ROLE ( 'classification_officer' ) ;
#42 = APPROVAL ( #188, 'UNSPECIFIED' ) ;
#43 = CARTESIAN_POINT ( 'NONE',  ( 4.336808689942017700E-014, 6.426184452368024000, 0.07973398479574389500 ) ) ;
#44 = CIRCLE ( 'NONE', #10, 6.349999999999999600 ) ;
#45 = DIRECTION ( 'NONE',  ( 1.000000000000000000, 0.0000000000000000000, 0.0000000000000000000 ) ) ;
#46 = ORIENTED_EDGE ( 'NONE', *, *, #230, .F. ) ;
#47 = COORDINATED_UNIVERSAL_TIME_OFFSET ( 2, 0, .AHEAD. ) ;
#48 = CARTESIAN_POINT ( 'NONE',  ( -1.094542022680683700E-013, -2.142501201389629200, 2.026583450799266800 ) ) ;
#49 = CYLINDRICAL_SURFACE ( 'NONE', #37, 6.349999999999999600 ) ;
#50 = CARTESIAN_POINT ( 'NONE',  ( -6.388747961482754300, 2.142501201389645600, 0.05221600933033400400 ) ) ;
#51 = PERSON_AND_ORGANIZATION ( #288, #264 ) ;
#52 = ADVANCED_FACE ( 'NONE', ( #165 ), #32, .T. ) ;
#53 = CARTESIAN_POINT ( 'NONE',  ( -6.388747961482753400, -2.142501201389631000, 0.05221600933033336600 ) ) ;
#54 =( NAMED_UNIT ( * ) SI_UNIT ( $, .STERADIAN. ) SOLID_ANGLE_UNIT ( ) );
#55 = PRODUCT_DEFINITION_FORMATION_WITH_SPECIFIED_SOURCE ( 'ANY', '', #261, .NOT_KNOWN. ) ;
#56 = APPROVAL_ROLE ( '' ) ;
#57 = DIRECTION ( 'NONE',  ( -0.0000000000000000000, -0.0000000000000000000, -1.000000000000000000 ) ) ;
#58 = CARTESIAN_POINT ( 'NONE',  ( 6.388747961482675200, 2.142501201389648700, 0.05221600933030780300 ) ) ;
#59 = DIRECTION ( 'NONE',  ( 0.0000000000000000000, 0.0000000000000000000, 1.000000000000000000 ) ) ;
#60 = LOCAL_TIME ( 12, 0, 9.000000000000000000, #122 ) ;
#61 = UNCERTAINTY_MEASURE_WITH_UNIT (LENGTH_MEASURE( 1.000000000000000100E-005 ), #184, 'distance_accuracy_value', 'NONE');
#62 = ORIENTED_EDGE ( 'NONE', *, *, #208, .T. ) ;
#63 = DATE_AND_TIME ( #292, #195 ) ;
#64 = APPROVAL ( #152, 'UNSPECIFIED' ) ;
#65 = CC_DESIGN_PERSON_AND_ORGANIZATION_ASSIGNMENT ( #151, #41, ( #248 ) ) ;
#66 = ADVANCED_FACE ( 'NONE', ( #79 ), #217, .T. ) ;
#67 = AXIS2_PLACEMENT_3D ( 'NONE', #271, #223, #45 ) ;
#68 = CARTESIAN_POINT ( 'NONE',  ( 2.128978429143902200, 6.426184452368024000, 0.07973398479571658400 ) ) ;
#69 = CALENDAR_DATE ( 2019, 11, 1 ) ;
#70 = CARTESIAN_POINT ( 'NONE',  ( -2.129852626944204200, -2.142501201389629600, -0.02658345079923656400 ) ) ;
#71 = CIRCLE ( 'NONE', #193, 259.0000000000000000 ) ;
#72 = VERTEX_POINT ( 'NONE', #260 ) ;
#73 = CARTESIAN_POINT ( 'NONE',  ( 2.498001805406600200E-016, 1.221245327087670000E-015, 0.07785436544830029400 ) ) ;
#74 = CARTESIAN_POINT ( 'NONE',  ( 6.386125700512858200, 6.426184452368025800, 0.1585011016946596100 ) ) ;
#75 = CARTESIAN_POINT ( 'NONE',  ( -1.075046278911634300E-013, 6.350000000000370000, 1.922145634551687900 ) ) ;
#76 = PRODUCT_DEFINITION ( 'UNKNOWN', '', #55, #22 ) ;
#77 = LOCAL_TIME ( 12, 0, 9.000000000000000000, #282 ) ;
#78 = PERSON_AND_ORGANIZATION_ROLE ( 'creator' ) ;
#79 = FACE_OUTER_BOUND ( 'NONE', #267, .T. ) ;
#80 = PERSON_AND_ORGANIZATION_ROLE ( 'design_supplier' ) ;
#81 = ORIENTED_EDGE ( 'NONE', *, *, #145, .T. ) ;
#82 = EDGE_CURVE ( 'NONE', #161, #187, #71, .T. ) ;
#83 = CC_DESIGN_DATE_AND_TIME_ASSIGNMENT ( #27, #40, ( #76 ) ) ;
#84 = AXIS2_PLACEMENT_3D ( 'NONE', #33, #265, #98 ) ;
#85 = ORIENTED_EDGE ( 'NONE', *, *, #160, .T. ) ;
#86 = LINE ( 'NONE', #104, #4 ) ;
#87 = CARTESIAN_POINT ( 'NONE',  ( 1.103706921610961300E-013, -6.426184452368005400, 0.07973398479571569600 ) ) ;
#88 = VERTEX_POINT ( 'NONE', #207 ) ;
#89 = CARTESIAN_POINT ( 'NONE',  ( -6.386125700512860900, -6.426184452368003600, 1.841498898305342200 ) ) ;
#90 = CARTESIAN_POINT ( 'NONE',  ( 6.386125700512936400, -6.426184452368007200, 1.841498898305316000 ) ) ;
#91 = DIRECTION ( 'NONE',  ( 1.000000000000000000, 8.881784197001252300E-016, 0.0000000000000000000 ) ) ;
#92 = CC_DESIGN_DATE_AND_TIME_ASSIGNMENT ( #133, #263, ( #248 ) ) ;
#93 = LOCAL_TIME ( 12, 0, 9.000000000000000000, #155 ) ;
#94 = AXIS2_PLACEMENT_3D ( 'NONE', #96, #234, #233 ) ;
#95 = ORIENTED_EDGE ( 'NONE', *, *, #131, .T. ) ;
#96 = CARTESIAN_POINT ( 'NONE',  ( 2.498001805406600200E-016, 1.221245327087670000E-015, 0.07785436544830029400 ) ) ;
#97 = CARTESIAN_POINT ( 'NONE',  ( 4.510281037539698400E-014, -2.142501201389629600, -0.02658345079923620000 ) ) ;
#98 = DIRECTION ( 'NONE',  ( 1.000000000000000000, 0.0000000000000000000, 0.0000000000000000000 ) ) ;
#99 = CARTESIAN_POINT ( 'NONE',  ( 1.084926882300050300E-013, 2.142501201389647400, -0.02658345079926377500 ) ) ;
#100 = CARTESIAN_POINT ( 'NONE',  ( -6.349999999999999600, 1.998896044546239400E-015, 1.922145634551700100 ) ) ;
#101 = FACE_OUTER_BOUND ( 'NONE', #141, .T. ) ;
#102 = ORIENTED_EDGE ( 'NONE', *, *, #175, .F. ) ;
#103 = AXIS2_PLACEMENT_3D ( 'NONE', #144, #57, #125 ) ;
#104 = CARTESIAN_POINT ( 'NONE',  ( -6.349999999999999600, 1.998896044546239400E-015, 0.07785436544830029400 ) ) ;
#105 = APPROVAL_ROLE ( '' ) ;
#106 = CARTESIAN_POINT ( 'NONE',  ( 6.349999999999999600, 1.221245327087670000E-015, 0.07785436544830029400 ) ) ;
#107 = ORIENTED_EDGE ( 'NONE', *, *, #240, .F. ) ;
#108 = APPROVAL_PERSON_ORGANIZATION ( #51, #174, #105 ) ;
#109 = CARTESIAN_POINT ( 'NONE',  ( -6.386125700512858200, 6.426184452368025800, 1.841498898305342200 ) ) ;
#110 = FACE_OUTER_BOUND ( 'NONE', #17, .T. ) ;
#111 = CYLINDRICAL_SURFACE ( 'NONE', #94, 6.349999999999999600 ) ;
#112 = PERSON_AND_ORGANIZATION ( #288, #264 ) ;
#113 = EDGE_CURVE ( 'NONE', #149, #161, #196, .T. ) ;
#114 = CARTESIAN_POINT ( 'NONE',  ( 1.094542022680683600E-013, -2.142501201389629200, -0.02658345079926442700 ) ) ;
#115 = PERSON_AND_ORGANIZATION ( #288, #264 ) ;
#116 = EDGE_CURVE ( 'NONE', #149, #11, #272, .T. ) ;
#117 = MANIFOLD_SOLID_BREP ( 'Imported1', #143 ) ;
#118 = CC_DESIGN_PERSON_AND_ORGANIZATION_ASSIGNMENT ( #166, #80, ( #55 ) ) ;
#119 = CARTESIAN_POINT ( 'NONE',  ( -6.388747961482676100, -2.142501201389627900, 1.947783990669694800 ) ) ;
#120 = AXIS2_PLACEMENT_3D ( 'NONE', #290, #259, #150 ) ;
#121 = CARTESIAN_POINT ( 'NONE',  ( -2.129852626944205100, 2.142501201389646100, -0.02658345079923593200 ) ) ;
#122 = COORDINATED_UNIVERSAL_TIME_OFFSET ( 2, 0, .AHEAD. ) ;
#123 = CARTESIAN_POINT ( 'NONE',  ( -4.257794935977882400, -6.426184452368005400, 0.1059910217714906000 ) ) ;
#124 = LOCAL_TIME ( 12, 0, 9.000000000000000000, #209 ) ;
#125 = DIRECTION ( 'NONE',  ( 1.000000000000000000, 0.0000000000000000000, 0.0000000000000000000 ) ) ;
#126 = CIRCLE ( 'NONE', #239, 6.349999999999999600 ) ;
#127 = APPLICATION_PROTOCOL_DEFINITION ( 'international standard', 'config_control_design', 1994, #286 ) ;
#128 = DATE_AND_TIME ( #69, #124 ) ;
#129 = DIRECTION ( 'NONE',  ( 0.0000000000000000000, 0.0000000000000000000, 1.000000000000000000 ) ) ;
#130 = CARTESIAN_POINT ( 'NONE',  ( 0.0000000000000000000, 2.842170943040400100E-014, 259.0000000000000000 ) ) ;
#131 = EDGE_CURVE ( 'NONE', #194, #11, #126, .T. ) ;
#132 = ORIENTED_EDGE ( 'NONE', *, *, #240, .T. ) ;
#133 = DATE_AND_TIME ( #18, #77 ) ;
#134 =( GEOMETRIC_REPRESENTATION_CONTEXT ( 3 ) GLOBAL_UNCERTAINTY_ASSIGNED_CONTEXT ( ( #61 ) ) GLOBAL_UNIT_ASSIGNED_CONTEXT ( ( #184, #186, #54 ) ) REPRESENTATION_CONTEXT ( 'NONE', 'WORKASPACE' ) );
#135 = PRODUCT_DEFINITION_SHAPE ( 'NONE', 'NONE',  #76 ) ;
#136 = ORIENTED_EDGE ( 'NONE', *, *, #175, .T. ) ;
#137 = CARTESIAN_POINT ( 'NONE',  ( -2.128978429143904400, -6.426184452368003600, 1.920266015204285400 ) ) ;
#138 = CARTESIAN_POINT ( 'NONE',  ( 4.259543265090354000, 2.142501201389645600, 2.000315632199941400 ) ) ;
#139 = CC_DESIGN_PERSON_AND_ORGANIZATION_ASSIGNMENT ( #115, #78, ( #55 ) ) ;
#140 = ADVANCED_FACE ( 'NONE', ( #110 ), #168, .T. ) ;
#141 = EDGE_LOOP ( 'NONE', ( #229, #153, #171, #95, #21, #107 ) ) ;
#142 = DIRECTION ( 'NONE',  ( -0.0000000000000000000, -0.0000000000000000000, -1.000000000000000000 ) ) ;
#143 = CLOSED_SHELL ( 'NONE', ( #52, #28, #30, #140, #181, #66 ) ) ;
#144 = CARTESIAN_POINT ( 'NONE',  ( 2.498001805406600200E-016, 1.221245327087670000E-015, 0.07785436544830029400 ) ) ;
#145 = EDGE_CURVE ( 'NONE', #88, #285, #219, .T. ) ;
#146 = CARTESIAN_POINT ( 'NONE',  ( 6.349999999999999600, 1.221245327087670000E-015, 0.07785436544830029400 ) ) ;
#147 = CARTESIAN_POINT ( 'NONE',  ( 4.259543265090353100, -2.142501201389630100, 2.000315632199942200 ) ) ;
#148 = CARTESIAN_POINT ( 'NONE',  ( 1.103543878529046500E-013, -6.350000000000341600, 0.07785436544831343700 ) ) ;
#149 = VERTEX_POINT ( 'NONE', #146 ) ;
#150 = DIRECTION ( 'NONE',  ( 1.000000000000000000, -8.881784197001252300E-016, 0.0000000000000000000 ) ) ;
#151 = PERSON_AND_ORGANIZATION ( #288, #264 ) ;
#152 = APPROVAL_STATUS ( 'not_yet_approved' ) ;
#153 = ORIENTED_EDGE ( 'NONE', *, *, #202, .T. ) ;
#154 = CC_DESIGN_PERSON_AND_ORGANIZATION_ASSIGNMENT ( #112, #212, ( #76 ) ) ;
#155 = COORDINATED_UNIVERSAL_TIME_OFFSET ( 2, 0, .AHEAD. ) ;
#156 = CARTESIAN_POINT ( 'NONE',  ( -4.257794935977882400, 6.426184452368024000, 1.894008978228535000 ) ) ;
#157 = DIRECTION ( 'NONE',  ( 0.0000000000000000000, 0.0000000000000000000, 1.000000000000000000 ) ) ;
#158 = CIRCLE ( 'NONE', #221, 6.349999999999999600 ) ;
#159 = EDGE_LOOP ( 'NONE', ( #255, #279, #46 ) ) ;
#160 = EDGE_CURVE ( 'NONE', #72, #187, #158, .T. ) ;
#161 = VERTEX_POINT ( 'NONE', #148 ) ;
#162 = CARTESIAN_POINT ( 'NONE',  ( -2.129852626944280100, 2.142501201389647400, 2.026583450799265100 ) ) ;
#163 = CARTESIAN_POINT ( 'NONE',  ( 2.128978429143828100, 6.426184452368022300, 1.920266015204258500 ) ) ;
#164 = EDGE_CURVE ( 'NONE', #88, #194, #247, .T. ) ;
#165 = FACE_OUTER_BOUND ( 'NONE', #246, .T. ) ;
#166 = PERSON_AND_ORGANIZATION ( #288, #264 ) ;
#167 = DIRECTION ( 'NONE',  ( 1.000000000000000000, 0.0000000000000000000, 0.0000000000000000000 ) ) ;
#168 =( BOUNDED_SURFACE ( )  B_SPLINE_SURFACE ( 3, 3, ( 
 ( #253, #123, #29, #276 ),
 ( #53, #210, #70, #97 ),
 ( #50, #250, #121, #220 ),
 ( #222, #269, #3, #43 ) ),
 .UNSPECIFIED., .F., .F., .F. ) 
 B_SPLINE_SURFACE_WITH_KNOTS ( ( 4, 4 ),
 ( 4, 4 ),
 ( 0.0000000000000000000, 1.000000000000000000 ),
 ( 0.0000000000000000000, 1.000000000000000000 ),
 .UNSPECIFIED. ) 
 GEOMETRIC_REPRESENTATION_ITEM ( )  RATIONAL_B_SPLINE_SURFACE ( (
 ( 1.000000000000000000, 0.9999492957725335500, 0.9999492957725335500, 1.000000000000000000),
 ( 0.9997947645179002800, 0.9997440706967404300, 0.9997440706967404300, 0.9997947645179002800),
 ( 0.9997947645179002800, 0.9997440706967404300, 0.9997440706967404300, 0.9997947645179002800),
 ( 1.000000000000000000, 0.9999492957725335500, 0.9999492957725335500, 1.000000000000000000) ) ) 
 REPRESENTATION_ITEM ( '' )  SURFACE ( )  );
#169 = APPLICATION_CONTEXT ( 'configuration controlled 3d designs of mechanical parts and assemblies' ) ;
#170 = ORIENTED_EDGE ( 'NONE', *, *, #164, .F. ) ;
#171 = ORIENTED_EDGE ( 'NONE', *, *, #230, .T. ) ;
#172 = DIRECTION ( 'NONE',  ( 1.000000000000000000, 0.0000000000000000000, 0.0000000000000000000 ) ) ;
#173 = DATE_AND_TIME ( #252, #60 ) ;
#174 = APPROVAL ( #197, 'UNSPECIFIED' ) ;
#175 = EDGE_CURVE ( 'NONE', #161, #72, #268, .T. ) ;
#176 = APPROVAL_DATE_TIME ( #128, #64 ) ;
#177 = CC_DESIGN_APPROVAL ( #42, ( #76 ) ) ;
#178 = ORIENTED_EDGE ( 'NONE', *, *, #113, .T. ) ;
#179 = APPROVAL_PERSON_ORGANIZATION ( #238, #64, #295 ) ;
#180 = FACE_OUTER_BOUND ( 'NONE', #2, .T. ) ;
#181 = ADVANCED_FACE ( 'NONE', ( #180 ), #111, .T. ) ;
#182 = CARTESIAN_POINT ( 'NONE',  ( 1.074867420572975100E-013, 6.426184452368024000, 0.07973398479571569600 ) ) ;
#183 = CARTESIAN_POINT ( 'NONE',  ( 6.388747961482754300, 2.142501201389645600, 1.947783990669668100 ) ) ;
#184 =( LENGTH_UNIT ( ) NAMED_UNIT ( * ) SI_UNIT ( .MILLI., .METRE. ) );
#185 = VECTOR ( 'NONE', #59, 1000.000000000000000 ) ;
#186 =( NAMED_UNIT ( * ) PLANE_ANGLE_UNIT ( ) SI_UNIT ( $, .RADIAN. ) );
#187 = VERTEX_POINT ( 'NONE', #31 ) ;
#188 = APPROVAL_STATUS ( 'not_yet_approved' ) ;
#189 = CARTESIAN_POINT ( 'NONE',  ( 6.388747961482753400, -2.142501201389631000, 1.947783990669668800 ) ) ;
#190 = SHAPE_DEFINITION_REPRESENTATION ( #135, #13 ) ;
#191 = DIRECTION ( 'NONE',  ( -0.0000000000000000000, -0.0000000000000000000, -1.000000000000000000 ) ) ;
#192 = CARTESIAN_POINT ( 'NONE',  ( 2.129852626944280100, 2.142501201389647400, -0.02658345079926288300 ) ) ;
#193 = AXIS2_PLACEMENT_3D ( 'NONE', #130, #241, #294 ) ;
#194 = VERTEX_POINT ( 'NONE', #75 ) ;
#195 = LOCAL_TIME ( 12, 0, 9.000000000000000000, #47 ) ;
#196 = CIRCLE ( 'NONE', #67, 6.349999999999999600 ) ;
#197 = APPROVAL_STATUS ( 'not_yet_approved' ) ;
#198 = CARTESIAN_POINT ( 'NONE',  ( -6.388747961482675200, 2.142501201389648700, 1.947783990669694300 ) ) ;
#199 = CARTESIAN_POINT ( 'NONE',  ( 2.498001805406600200E-016, 1.221245327087670000E-015, 0.07785436544830029400 ) ) ;
#200 = CALENDAR_DATE ( 2019, 11, 1 ) ;
#201 = AXIS2_PLACEMENT_3D ( 'NONE', #73, #258, #167 ) ;
#202 = EDGE_CURVE ( 'NONE', #72, #285, #86, .T. ) ;
#203 = CARTESIAN_POINT ( 'NONE',  ( 4.257794935977882400, 6.426184452368024000, 0.1059910217714669600 ) ) ;
#204 = CARTESIAN_POINT ( 'NONE',  ( -2.129852626944281000, -2.142501201389628300, 2.026583450799265500 ) ) ;
#205 = ORIENTED_EDGE ( 'NONE', *, *, #113, .F. ) ;
#206 = CC_DESIGN_PERSON_AND_ORGANIZATION_ASSIGNMENT ( #225, #35, ( #261 ) ) ;
#207 = CARTESIAN_POINT ( 'NONE',  ( -1.103543878529046600E-013, -6.350000000000341600, 1.922145634551687900 ) ) ;
#208 = EDGE_CURVE ( 'NONE', #11, #88, #44, .T. ) ;
#209 = COORDINATED_UNIVERSAL_TIME_OFFSET ( 2, 0, .AHEAD. ) ;
#210 = CARTESIAN_POINT ( 'NONE',  ( -4.259543265090353100, -2.142501201389630100, -0.0003156321999397436800 ) ) ;
#211 = DIRECTION ( 'NONE',  ( -1.000000000000000000, 2.243905481685870100E-016, -4.207037123266370000E-016 ) ) ;
#212 = PERSON_AND_ORGANIZATION_ROLE ( 'creator' ) ;
#213 = CARTESIAN_POINT ( 'NONE',  ( 2.129852626944204200, 2.142501201389646100, 2.026583450799238000 ) ) ;
#214 = APPLICATION_PROTOCOL_DEFINITION ( 'international standard', 'config_control_design', 1994, #169 ) ;
#215 = ORIENTED_EDGE ( 'NONE', *, *, #202, .F. ) ;
#216 = CIRCLE ( 'NONE', #201, 6.349999999999999600 ) ;
#217 =( BOUNDED_SURFACE ( )  B_SPLINE_SURFACE ( 3, 3, ( 
 ( #90, #249, #284, #287 ),
 ( #189, #147, #26, #278 ),
 ( #183, #138, #213, #14 ),
 ( #9, #228, #163, #235 ) ),
 .UNSPECIFIED., .F., .F., .F. ) 
 B_SPLINE_SURFACE_WITH_KNOTS ( ( 4, 4 ),
 ( 4, 4 ),
 ( 0.0000000000000000000, 1.000000000000000000 ),
 ( 0.0000000000000000000, 1.000000000000000000 ),
 .UNSPECIFIED. ) 
 GEOMETRIC_REPRESENTATION_ITEM ( )  RATIONAL_B_SPLINE_SURFACE ( (
 ( 1.000000000000000000, 0.9999492957725335500, 0.9999492957725335500, 1.000000000000000000),
 ( 0.9997947645179002800, 0.9997440706967404300, 0.9997440706967404300, 0.9997947645179002800),
 ( 0.9997947645179002800, 0.9997440706967404300, 0.9997440706967404300, 0.9997947645179002800),
 ( 1.000000000000000000, 0.9999492957725335500, 0.9999492957725335500, 1.000000000000000000) ) ) 
 REPRESENTATION_ITEM ( '' )  SURFACE ( )  );
#218 = ORIENTED_EDGE ( 'NONE', *, *, #131, .F. ) ;
#219 = CIRCLE ( 'NONE', #84, 6.349999999999999600 ) ;
#220 = CARTESIAN_POINT ( 'NONE',  ( 4.423544863740857500E-014, 2.142501201389646900, -0.02658345079923556100 ) ) ;
#221 = AXIS2_PLACEMENT_3D ( 'NONE', #12, #236, #281 ) ;
#222 = CARTESIAN_POINT ( 'NONE',  ( -6.386125700512939900, 6.426184452368022300, 0.1585011016946857900 ) ) ;
#223 = DIRECTION ( 'NONE',  ( -0.0000000000000000000, -0.0000000000000000000, -1.000000000000000000 ) ) ;
#224 = CARTESIAN_POINT ( 'NONE',  ( 6.386125700512860900, -6.426184452368003600, 0.1585011016946596100 ) ) ;
#225 = PERSON_AND_ORGANIZATION ( #288, #264 ) ;
#226 = CARTESIAN_POINT ( 'NONE',  ( -4.259543265090353100, 2.142501201389647800, 2.000315632199964900 ) ) ;
#227 = APPROVAL_PERSON_ORGANIZATION ( #38, #42, #56 ) ;
#228 = CARTESIAN_POINT ( 'NONE',  ( 4.257794935977885900, 6.426184452368022300, 1.894008978228511200 ) ) ;
#229 = ORIENTED_EDGE ( 'NONE', *, *, #160, .F. ) ;
#230 = EDGE_CURVE ( 'NONE', #285, #194, #244, .T. ) ;
#231 = ORIENTED_EDGE ( 'NONE', *, *, #82, .F. ) ;
#232 = CARTESIAN_POINT ( 'NONE',  ( 0.0000000000000000000, 2.842170943040400100E-014, -257.0000000000000000 ) ) ;
#233 = DIRECTION ( 'NONE',  ( 1.000000000000000000, 0.0000000000000000000, 0.0000000000000000000 ) ) ;
#234 = DIRECTION ( 'NONE',  ( 0.0000000000000000000, 0.0000000000000000000, 1.000000000000000000 ) ) ;
#235 = CARTESIAN_POINT ( 'NONE',  ( -4.336808689942017700E-014, 6.426184452368024000, 1.920266015204257900 ) ) ;
#236 = DIRECTION ( 'NONE',  ( -0.0000000000000000000, -0.0000000000000000000, -1.000000000000000000 ) ) ;
#237 = CARTESIAN_POINT ( 'NONE',  ( 6.388747961482676100, -2.142501201389627900, 0.05221600933030715000 ) ) ;
#238 = PERSON_AND_ORGANIZATION ( #288, #264 ) ;
#239 = AXIS2_PLACEMENT_3D ( 'NONE', #280, #142, #91 ) ;
#240 = EDGE_CURVE ( 'NONE', #187, #149, #216, .T. ) ;
#241 = DIRECTION ( 'NONE',  ( 1.000000000000000000, 2.243905481685870100E-016, 4.207037123266370000E-016 ) ) ;
#242 = ORIENTED_EDGE ( 'NONE', *, *, #82, .T. ) ;
#243 = CARTESIAN_POINT ( 'NONE',  ( -1.074867420572975300E-013, 6.426184452368024000, 1.920266015204286100 ) ) ;
#244 = CIRCLE ( 'NONE', #120, 6.349999999999999600 ) ;
#245 = CARTESIAN_POINT ( 'NONE',  ( 4.257794935977884200, -6.426184452368003600, 0.1059910217714669600 ) ) ;
#246 = EDGE_LOOP ( 'NONE', ( #178, #242, #132 ) ) ;
#247 = CIRCLE ( 'NONE', #251, 259.0000000000000000 ) ;
#248 = SECURITY_CLASSIFICATION ( '', '', #39 ) ;
#249 = CARTESIAN_POINT ( 'NONE',  ( 4.257794935977882400, -6.426184452368005400, 1.894008978228511200 ) ) ;
#250 = CARTESIAN_POINT ( 'NONE',  ( -4.259543265090354000, 2.142501201389645600, -0.0003156321999390999300 ) ) ;
#251 = AXIS2_PLACEMENT_3D ( 'NONE', #232, #211, #257 ) ;
#252 = CALENDAR_DATE ( 2019, 11, 1 ) ;
#253 = CARTESIAN_POINT ( 'NONE',  ( -6.386125700512936400, -6.426184452368007200, 0.1585011016946857900 ) ) ;
#254 = DIRECTION ( 'NONE',  ( 1.000000000000000000, 0.0000000000000000000, 0.0000000000000000000 ) ) ;
#255 = ORIENTED_EDGE ( 'NONE', *, *, #145, .F. ) ;
#256 = FACE_OUTER_BOUND ( 'NONE', #159, .T. ) ;
#257 = DIRECTION ( 'NONE',  ( -2.243905481685872100E-016, -1.000000000000000000, 4.286575384653113900E-016 ) ) ;
#258 = DIRECTION ( 'NONE',  ( -0.0000000000000000000, -0.0000000000000000000, -1.000000000000000000 ) ) ;
#259 = DIRECTION ( 'NONE',  ( -0.0000000000000000000, -0.0000000000000000000, -1.000000000000000000 ) ) ;
#260 = CARTESIAN_POINT ( 'NONE',  ( -6.349999999999999600, 1.998896044546239400E-015, 0.07785436544830029400 ) ) ;
#261 = PRODUCT ( '111-0140E BK7 bi-cx 12.7 F250', '111-0140E BK7 bi-cx 12.7 F250', '', ( #283 ) ) ;
#262 = CARTESIAN_POINT ( 'NONE',  ( 0.0000000000000000000, 0.0000000000000000000, 0.0000000000000000000 ) ) ;
#263 = DATE_TIME_ROLE ( 'classification_date' ) ;
#264 = ORGANIZATION ( 'UNSPECIFIED', 'UNSPECIFIED', '' ) ;
#265 = DIRECTION ( 'NONE',  ( -0.0000000000000000000, -0.0000000000000000000, -1.000000000000000000 ) ) ;
#266 = CC_DESIGN_APPROVAL ( #174, ( #248 ) ) ;
#267 = EDGE_LOOP ( 'NONE', ( #170, #277, #218 ) ) ;
#268 = CIRCLE ( 'NONE', #103, 6.349999999999999600 ) ;
#269 = CARTESIAN_POINT ( 'NONE',  ( -4.257794935977885900, 6.426184452368022300, 0.1059910217714906000 ) ) ;
#270 = APPROVAL_DATE_TIME ( #173, #42 ) ;
#271 = CARTESIAN_POINT ( 'NONE',  ( 2.498001805406600200E-016, 1.221245327087670000E-015, 0.07785436544830029400 ) ) ;
#272 = LINE ( 'NONE', #106, #185 ) ;
#273 = CARTESIAN_POINT ( 'NONE',  ( 2.129852626944281000, -2.142501201389628300, -0.02658345079926353500 ) ) ;
#274 = CARTESIAN_POINT ( 'NONE',  ( -4.257794935977884200, -6.426184452368003600, 1.894008978228535000 ) ) ;
#275 =( BOUNDED_SURFACE ( )  B_SPLINE_SURFACE ( 3, 3, ( 
 ( #25, #137, #274, #89 ),
 ( #48, #204, #6, #119 ),
 ( #7, #162, #226, #198 ),
 ( #243, #1, #156, #109 ) ),
 .UNSPECIFIED., .F., .F., .F. ) 
 B_SPLINE_SURFACE_WITH_KNOTS ( ( 4, 4 ),
 ( 4, 4 ),
 ( 0.0000000000000000000, 1.000000000000000000 ),
 ( 0.0000000000000000000, 1.000000000000000000 ),
 .UNSPECIFIED. ) 
 GEOMETRIC_REPRESENTATION_ITEM ( )  RATIONAL_B_SPLINE_SURFACE ( (
 ( 1.000000000000000000, 0.9999492957725335500, 0.9999492957725335500, 1.000000000000000000),
 ( 0.9997947645179002800, 0.9997440706967404300, 0.9997440706967404300, 0.9997947645179002800),
 ( 0.9997947645179002800, 0.9997440706967404300, 0.9997440706967404300, 0.9997947645179002800),
 ( 1.000000000000000000, 0.9999492957725335500, 0.9999492957725335500, 1.000000000000000000) ) ) 
 REPRESENTATION_ITEM ( '' )  SURFACE ( )  );
#276 = CARTESIAN_POINT ( 'NONE',  ( 4.683753385137379200E-014, -6.426184452368005400, 0.07973398479574392300 ) ) ;
#277 = ORIENTED_EDGE ( 'NONE', *, *, #208, .F. ) ;
#278 = CARTESIAN_POINT ( 'NONE',  ( -4.597017211338539400E-014, -2.142501201389629600, 2.026583450799238400 ) ) ;
#279 = ORIENTED_EDGE ( 'NONE', *, *, #164, .T. ) ;
#280 = CARTESIAN_POINT ( 'NONE',  ( 2.498001805406600200E-016, 1.221245327087670000E-015, 1.922145634551700100 ) ) ;
#281 = DIRECTION ( 'NONE',  ( 1.000000000000000000, 0.0000000000000000000, 0.0000000000000000000 ) ) ;
#282 = COORDINATED_UNIVERSAL_TIME_OFFSET ( 2, 0, .AHEAD. ) ;
#283 = MECHANICAL_CONTEXT ( 'NONE', #286, 'mechanical' ) ;
#284 = CARTESIAN_POINT ( 'NONE',  ( 2.128978429143825000, -6.426184452368005400, 1.920266015204258500 ) ) ;
#285 = VERTEX_POINT ( 'NONE', #100 ) ;
#286 = APPLICATION_CONTEXT ( 'configuration controlled 3d designs of mechanical parts and assemblies' ) ;
#287 = CARTESIAN_POINT ( 'NONE',  ( -4.683753385137379200E-014, -6.426184452368005400, 1.920266015204257900 ) ) ;
#288 = PERSON ( 'UNSPECIFIED', 'UNSPECIFIED', 'UNSPECIFIED', ('UNSPECIFIED'), ('UNSPECIFIED'), ('UNSPECIFIED') ) ;
#289 = CC_DESIGN_SECURITY_CLASSIFICATION ( #248, ( #55 ) ) ;
#290 = CARTESIAN_POINT ( 'NONE',  ( 2.498001805406600200E-016, 1.221245327087670000E-015, 1.922145634551700100 ) ) ;
#291 = CARTESIAN_POINT ( 'NONE',  ( 4.259543265090353100, -2.142501201389627900, -0.0003156321999633861700 ) ) ;
#292 = CALENDAR_DATE ( 2019, 11, 1 ) ;
#293 = AXIS2_PLACEMENT_3D ( 'NONE', #262, #15, #172 ) ;
#294 = DIRECTION ( 'NONE',  ( 2.243905481685872100E-016, -1.000000000000000000, -4.286575384653113900E-016 ) ) ;
#295 = APPROVAL_ROLE ( '' ) ;
ENDSEC;
END-ISO-10303-21;
