ISO-10303-21;
HEADER;
FILE_DESCRIPTION (( 'STEP AP203' ),
    '1' );
FILE_NAME ('111-0136E BK7 bi-cx 12.7 F200.STEP',
    '2019-01-09T10:25:24',
    ( '' ),
    ( '' ),
    'SwSTEP 2.0',
    'SolidWorks 2017',
    '' );
FILE_SCHEMA (( 'CONFIG_CONTROL_DESIGN' ));
ENDSEC;

DATA;
#1 = CIRCLE ( 'NONE', #184, 6.349999999999999600 ) ;
#2 = AXIS2_PLACEMENT_3D ( 'NONE', #171, #106, #53 ) ;
#3 = PERSON_AND_ORGANIZATION ( #77, #218 ) ;
#4 = ORIENTED_EDGE ( 'NONE', *, *, #75, .T. ) ;
#5 = CARTESIAN_POINT ( 'NONE',  ( -6.349999999999999600, 1.998896044546239400E-015, 1.902626794927380100 ) ) ;
#6 = DATE_AND_TIME ( #65, #154 ) ;
#7 = ORIENTED_EDGE ( 'NONE', *, *, #58, .F. ) ;
#8 = CARTESIAN_POINT ( 'NONE',  ( -3.963871660037444300E-014, -6.349999999999788300, 0.09737320507261244800 ) ) ;
#9 = CARTESIAN_POINT ( 'NONE',  ( 4.260000333517632000, -2.142746418491241500, -0.0003957608317980070900 ) ) ;
#10 = CARTESIAN_POINT ( 'NONE',  ( 6.385011918952464800, -6.426175680068500800, 1.801778360950079300 ) ) ;
#11 = CARTESIAN_POINT ( 'NONE',  ( 2.128759367503728800, 6.426175680068535500, 0.09972399504179385600 ) ) ;
#12 = CARTESIAN_POINT ( 'NONE',  ( -2.128759367503879400, 6.426175680068537200, 0.09972399504179231500 ) ) ;
#13 = ORIENTED_EDGE ( 'NONE', *, *, #220, .F. ) ;
#14 = ADVANCED_FACE ( 'NONE', ( #134 ), #186, .T. ) ;
#15 = DIRECTION ( 'NONE',  ( -0.0000000000000000000, -0.0000000000000000000, -1.000000000000000000 ) ) ;
#16 = ADVANCED_FACE ( 'NONE', ( #126 ), #108, .T. ) ;
#17 = CARTESIAN_POINT ( 'NONE',  ( -6.389113620500446600, 2.142746418491274300, 0.06530891228352991900 ) ) ;
#18 = AXIS2_PLACEMENT_3D ( 'NONE', #241, #46, #259 ) ;
#19 = DIRECTION ( 'NONE',  ( 1.000000000000000000, 0.0000000000000000000, 0.0000000000000000000 ) ) ;
#20 = ORIENTED_EDGE ( 'NONE', *, *, #143, .T. ) ;
#21 =( NAMED_UNIT ( * ) SI_UNIT ( $, .STERADIAN. ) SOLID_ANGLE_UNIT ( ) );
#22 = DATE_AND_TIME ( #205, #270 ) ;
#23 = APPROVAL ( #213, 'UNSPECIFIED' ) ;
#24 = EDGE_LOOP ( 'NONE', ( #99, #20, #282, #254, #168, #244 ) ) ;
#25 = APPROVAL_STATUS ( 'not_yet_approved' ) ;
#26 = APPROVAL_PERSON_ORGANIZATION ( #159, #179, #94 ) ;
#27 = ORIENTED_EDGE ( 'NONE', *, *, #216, .F. ) ;
#28 = EDGE_CURVE ( 'NONE', #271, #294, #219, .T. ) ;
#29 = DIRECTION ( 'NONE',  ( 1.000000000000000000, -8.881784197001252300E-016, 0.0000000000000000000 ) ) ;
#30 = CIRCLE ( 'NONE', #18, 6.349999999999999600 ) ;
#31 = CC_DESIGN_PERSON_AND_ORGANIZATION_ASSIGNMENT ( #221, #162, ( #33 ) ) ;
#32 = CARTESIAN_POINT ( 'NONE',  ( -6.349999999999999600, 1.998896044546239400E-015, 0.09737320507261540400 ) ) ;
#33 = PRODUCT ( '111-0136E BK7 bi-cx 12.7 F200', '111-0136E BK7 bi-cx 12.7 F200', '', ( #158 ) ) ;
#34 = CARTESIAN_POINT ( 'NONE',  ( -3.732417765362493800E-014, 2.142746418491272600, -0.03325200614663931900 ) ) ;
#35 = CARTESIAN_POINT ( 'NONE',  ( 9.107298248878237200E-014, -6.426175680068502600, 1.900276004958211000 ) ) ;
#36 = VERTEX_POINT ( 'NONE', #32 ) ;
#37 = DIRECTION ( 'NONE',  ( 1.000000000000000000, 0.0000000000000000000, 0.0000000000000000000 ) ) ;
#38 = DIRECTION ( 'NONE',  ( 1.000000000000000000, 0.0000000000000000000, 0.0000000000000000000 ) ) ;
#39 = CARTESIAN_POINT ( 'NONE',  ( -2.128759367503725300, -6.426175680068504400, 1.900276004958208100 ) ) ;
#40 = DIRECTION ( 'NONE',  ( -0.0000000000000000000, -0.0000000000000000000, -1.000000000000000000 ) ) ;
#41 = ADVANCED_BREP_SHAPE_REPRESENTATION ( '111-0136E BK7 bi-cx 12.7 F200', ( #164, #262 ), #252 ) ;
#42 = SECURITY_CLASSIFICATION_LEVEL ( 'unclassified' ) ;
#43 = VERTEX_POINT ( 'NONE', #80 ) ;
#44 = PERSON_AND_ORGANIZATION_ROLE ( 'design_supplier' ) ;
#45 = APPROVAL_ROLE ( '' ) ;
#46 = DIRECTION ( 'NONE',  ( -0.0000000000000000000, -0.0000000000000000000, -1.000000000000000000 ) ) ;
#47 = EDGE_CURVE ( 'NONE', #36, #56, #121, .T. ) ;
#48 = LOCAL_TIME ( 12, 25, 24.00000000000000000, #148 ) ;
#49 = VERTEX_POINT ( 'NONE', #8 ) ;
#50 = AXIS2_PLACEMENT_3D ( 'NONE', #131, #152, #37 ) ;
#51 =( BOUNDED_SURFACE ( )  B_SPLINE_SURFACE ( 3, 3, ( 
 ( #273, #39, #202, #89 ),
 ( #231, #156, #256, #290 ),
 ( #129, #111, #199, #127 ),
 ( #112, #180, #287, #289 ) ),
 .UNSPECIFIED., .F., .F., .F. ) 
 B_SPLINE_SURFACE_WITH_KNOTS ( ( 4, 4 ),
 ( 4, 4 ),
 ( 0.0000000000000000000, 1.000000000000000000 ),
 ( 0.0000000000000000000, 1.000000000000000000 ),
 .UNSPECIFIED. ) 
 GEOMETRIC_REPRESENTATION_ITEM ( )  RATIONAL_B_SPLINE_SURFACE ( (
 ( 1.000000000000000000, 0.9999206897166477100, 0.9999206897166477100, 1.000000000000000000),
 ( 0.9996789827940069100, 0.9995996979706202000, 0.9995996979706202000, 0.9996789827940069100),
 ( 0.9996789827940069100, 0.9995996979706202000, 0.9995996979706202000, 0.9996789827940069100),
 ( 1.000000000000000000, 0.9999206897166477100, 0.9999206897166477100, 1.000000000000000000) ) ) 
 REPRESENTATION_ITEM ( '' )  SURFACE ( )  );
#52 = ORIENTED_EDGE ( 'NONE', *, *, #28, .F. ) ;
#53 = DIRECTION ( 'NONE',  ( 1.000000000000000000, 0.0000000000000000000, 0.0000000000000000000 ) ) ;
#54 = DIRECTION ( 'NONE',  ( -0.0000000000000000000, -0.0000000000000000000, -1.000000000000000000 ) ) ;
#55 = CALENDAR_DATE ( 2019, 9, 1 ) ;
#56 = VERTEX_POINT ( 'NONE', #145 ) ;
#57 = CARTESIAN_POINT ( 'NONE',  ( 6.349999999999999600, 1.221245327087670000E-015, 0.09737320507261540400 ) ) ;
#58 = EDGE_CURVE ( 'NONE', #294, #229, #185, .T. ) ;
#59 = CARTESIAN_POINT ( 'NONE',  ( 2.498001805406600200E-016, 1.221245327087670000E-015, 1.902626794927380100 ) ) ;
#60 = CARTESIAN_POINT ( 'NONE',  ( 3.607479660959262300E-014, 6.349999999999830900, 1.902626794927386300 ) ) ;
#61 = CARTESIAN_POINT ( 'NONE',  ( 2.498001805406600200E-016, 1.221245327087670000E-015, 1.902626794927380100 ) ) ;
#62 = CARTESIAN_POINT ( 'NONE',  ( -2.130126872483323600, 2.142746418491273500, -0.03325200614664200500 ) ) ;
#63 = PRODUCT_DEFINITION_FORMATION_WITH_SPECIFIED_SOURCE ( 'ANY', '', #33, .NOT_KNOWN. ) ;
#64 = DIRECTION ( 'NONE',  ( -2.806236213214111900E-016, -1.000000000000000000, -2.680403246318581900E-016 ) ) ;
#65 = CALENDAR_DATE ( 2019, 9, 1 ) ;
#66 = CIRCLE ( 'NONE', #172, 6.349999999999999600 ) ;
#67 = DATE_TIME_ROLE ( 'classification_date' ) ;
#68 = CC_DESIGN_APPROVAL ( #142, ( #284 ) ) ;
#69 =( LENGTH_UNIT ( ) NAMED_UNIT ( * ) SI_UNIT ( .MILLI., .METRE. ) );
#70 = FACE_OUTER_BOUND ( 'NONE', #76, .T. ) ;
#71 = DATE_TIME_ROLE ( 'creation_date' ) ;
#72 = CALENDAR_DATE ( 2019, 9, 1 ) ;
#73 = ORIENTED_EDGE ( 'NONE', *, *, #216, .T. ) ;
#74 = CC_DESIGN_DATE_AND_TIME_ASSIGNMENT ( #227, #71, ( #284 ) ) ;
#75 = EDGE_CURVE ( 'NONE', #49, #36, #104, .T. ) ;
#76 = EDGE_LOOP ( 'NONE', ( #174, #239, #27, #212, #118, #139 ) ) ;
#77 = PERSON ( 'UNSPECIFIED', 'UNSPECIFIED', 'UNSPECIFIED', ('UNSPECIFIED'), ('UNSPECIFIED'), ('UNSPECIFIED') ) ;
#78 = DIRECTION ( 'NONE',  ( 0.0000000000000000000, 0.0000000000000000000, 1.000000000000000000 ) ) ;
#79 = APPROVAL_PERSON_ORGANIZATION ( #266, #142, #137 ) ;
#80 = CARTESIAN_POINT ( 'NONE',  ( 6.349999999999999600, 1.221245327087670000E-015, 0.09737320507261540400 ) ) ;
#81 = DIRECTION ( 'NONE',  ( -0.0000000000000000000, -0.0000000000000000000, -1.000000000000000000 ) ) ;
#82 = DIRECTION ( 'NONE',  ( -1.000000000000000000, -2.806236213214109900E-016, 5.261335658744520000E-016 ) ) ;
#83 = CARTESIAN_POINT ( 'NONE',  ( 2.128759367503878500, 6.426175680068537200, 1.900276004958209500 ) ) ;
#84 = ORIENTED_EDGE ( 'NONE', *, *, #128, .F. ) ;
#85 = CC_DESIGN_APPROVAL ( #23, ( #63 ) ) ;
#86 = CARTESIAN_POINT ( 'NONE',  ( 2.498001805406600200E-016, 1.221245327087670000E-015, 0.09737320507261540400 ) ) ;
#87 = UNCERTAINTY_MEASURE_WITH_UNIT (LENGTH_MEASURE( 1.000000000000000100E-005 ), #69, 'distance_accuracy_value', 'NONE');
#88 = CARTESIAN_POINT ( 'NONE',  ( -4.260000333517809600, -2.142746418491238800, -0.0003957608317898891300 ) ) ;
#89 = CARTESIAN_POINT ( 'NONE',  ( -6.385011918952256100, -6.426175680068504400, 1.801778360950091700 ) ) ;
#90 = EDGE_CURVE ( 'NONE', #43, #271, #141, .T. ) ;
#91 = APPROVAL_PERSON_ORGANIZATION ( #165, #23, #45 ) ;
#92 = VECTOR ( 'NONE', #285, 1000.000000000000000 ) ;
#93 = CARTESIAN_POINT ( 'NONE',  ( 0.0000000000000000000, 0.0000000000000000000, 0.0000000000000000000 ) ) ;
#94 = APPROVAL_ROLE ( '' ) ;
#95 = SHAPE_DEFINITION_REPRESENTATION ( #167, #41 ) ;
#96 = AXIS2_PLACEMENT_3D ( 'NONE', #122, #251, #29 ) ;
#97 = CC_DESIGN_APPROVAL ( #179, ( #232 ) ) ;
#98 = FACE_OUTER_BOUND ( 'NONE', #177, .T. ) ;
#99 = ORIENTED_EDGE ( 'NONE', *, *, #47, .F. ) ;
#100 = PERSON_AND_ORGANIZATION ( #77, #218 ) ;
#101 = CARTESIAN_POINT ( 'NONE',  ( 2.128759367503725300, -6.426175680068504400, 0.09972399504179385600 ) ) ;
#102 = CARTESIAN_POINT ( 'NONE',  ( 4.260000333517809600, -2.142746418491238800, 2.000395760831792400 ) ) ;
#103 = PERSON_AND_ORGANIZATION ( #77, #218 ) ;
#104 = CIRCLE ( 'NONE', #157, 6.349999999999999600 ) ;
#105 = DIRECTION ( 'NONE',  ( 1.000000000000000000, 0.0000000000000000000, 0.0000000000000000000 ) ) ;
#106 = DIRECTION ( 'NONE',  ( -0.0000000000000000000, -0.0000000000000000000, -1.000000000000000000 ) ) ;
#107 = CARTESIAN_POINT ( 'NONE',  ( 3.963871660037443700E-014, -6.349999999999788300, 1.902626794927386300 ) ) ;
#108 =( BOUNDED_SURFACE ( )  B_SPLINE_SURFACE ( 3, 3, ( 
 ( #10, #176, #196, #35 ),
 ( #269, #102, #230, #123 ),
 ( #286, #151, #200, #190 ),
 ( #147, #267, #83, #191 ) ),
 .UNSPECIFIED., .F., .F., .F. ) 
 B_SPLINE_SURFACE_WITH_KNOTS ( ( 4, 4 ),
 ( 4, 4 ),
 ( 0.0000000000000000000, 1.000000000000000000 ),
 ( 0.0000000000000000000, 1.000000000000000000 ),
 .UNSPECIFIED. ) 
 GEOMETRIC_REPRESENTATION_ITEM ( )  RATIONAL_B_SPLINE_SURFACE ( (
 ( 1.000000000000000000, 0.9999206897166477100, 0.9999206897166477100, 1.000000000000000000),
 ( 0.9996789827940069100, 0.9995996979706202000, 0.9995996979706202000, 0.9996789827940069100),
 ( 0.9996789827940069100, 0.9995996979706202000, 0.9995996979706202000, 0.9996789827940069100),
 ( 1.000000000000000000, 0.9999206897166477100, 0.9999206897166477100, 1.000000000000000000) ) ) 
 REPRESENTATION_ITEM ( '' )  SURFACE ( )  );
#109 = DIRECTION ( 'NONE',  ( 1.000000000000000000, -2.806236213214109900E-016, -5.261335658744520000E-016 ) ) ;
#110 = CIRCLE ( 'NONE', #169, 207.0999999999999700 ) ;
#111 = CARTESIAN_POINT ( 'NONE',  ( -2.130126872483171200, 2.142746418491272600, 2.033252006146643300 ) ) ;
#112 = CARTESIAN_POINT ( 'NONE',  ( 3.605218308488603400E-014, 6.426175680068535500, 1.900276004958206800 ) ) ;
#113 = CARTESIAN_POINT ( 'NONE',  ( -8.933825901280556500E-014, 2.142746418491272600, -0.03325200614664364900 ) ) ;
#114 = AXIS2_PLACEMENT_3D ( 'NONE', #228, #146, #38 ) ;
#115 = PERSON_AND_ORGANIZATION_ROLE ( 'creator' ) ;
#116 = CLOSED_SHELL ( 'NONE', ( #130, #272, #14, #275, #201, #16 ) ) ;
#117 = ORIENTED_EDGE ( 'NONE', *, *, #47, .T. ) ;
#118 = ORIENTED_EDGE ( 'NONE', *, *, #28, .T. ) ;
#119 = CIRCLE ( 'NONE', #188, 6.349999999999999600 ) ;
#120 = CARTESIAN_POINT ( 'NONE',  ( 2.130126872483169900, -2.142746418491240600, -0.03325200614664151200 ) ) ;
#121 = CIRCLE ( 'NONE', #96, 6.349999999999999600 ) ;
#122 = CARTESIAN_POINT ( 'NONE',  ( 2.498001805406600200E-016, 1.221245327087670000E-015, 0.09737320507261540400 ) ) ;
#123 = CARTESIAN_POINT ( 'NONE',  ( 9.020562075079396900E-014, -2.142746418491239700, 2.033252006146646800 ) ) ;
#124 = CARTESIAN_POINT ( 'NONE',  ( 4.257265486244556000, 6.426175680068535500, 0.1325591472097200100 ) ) ;
#125 = CARTESIAN_POINT ( 'NONE',  ( -3.965885646606285000E-014, -6.426175680068502600, 0.09972399504179496600 ) ) ;
#126 = FACE_OUTER_BOUND ( 'NONE', #192, .T. ) ;
#127 = CARTESIAN_POINT ( 'NONE',  ( -6.389113620500243200, 2.142746418491270800, 1.934691087716484500 ) ) ;
#128 = EDGE_CURVE ( 'NONE', #229, #271, #66, .T. ) ;
#129 = CARTESIAN_POINT ( 'NONE',  ( 3.732417765362493800E-014, 2.142746418491272600, 2.033252006146641000 ) ) ;
#130 = ADVANCED_FACE ( 'NONE', ( #288 ), #234, .T. ) ;
#131 = CARTESIAN_POINT ( 'NONE',  ( 2.498001805406600200E-016, 1.221245327087670000E-015, 0.09737320507261540400 ) ) ;
#132 = DIRECTION ( 'NONE',  ( 1.000000000000000000, 0.0000000000000000000, 0.0000000000000000000 ) ) ;
#133 = COORDINATED_UNIVERSAL_TIME_OFFSET ( 2, 0, .AHEAD. ) ;
#134 = FACE_OUTER_BOUND ( 'NONE', #24, .T. ) ;
#135 = CARTESIAN_POINT ( 'NONE',  ( -4.257265486244731900, 6.426175680068537200, 0.1325591472097281100 ) ) ;
#136 = APPLICATION_PROTOCOL_DEFINITION ( 'international standard', 'config_control_design', 1994, #277 ) ;
#137 = APPROVAL_ROLE ( '' ) ;
#138 = APPROVAL_DATE_TIME ( #173, #179 ) ;
#139 = ORIENTED_EDGE ( 'NONE', *, *, #220, .T. ) ;
#140 = AXIS2_PLACEMENT_3D ( 'NONE', #265, #82, #223 ) ;
#141 = LINE ( 'NONE', #57, #149 ) ;
#142 = APPROVAL ( #25, 'UNSPECIFIED' ) ;
#143 = EDGE_CURVE ( 'NONE', #36, #182, #264, .T. ) ;
#144 = CC_DESIGN_PERSON_AND_ORGANIZATION_ASSIGNMENT ( #238, #209, ( #232 ) ) ;
#145 = CARTESIAN_POINT ( 'NONE',  ( -3.607479660959263000E-014, 6.349999999999830900, 0.09737320507261244800 ) ) ;
#146 = DIRECTION ( 'NONE',  ( 0.0000000000000000000, 0.0000000000000000000, 1.000000000000000000 ) ) ;
#147 = CARTESIAN_POINT ( 'NONE',  ( 6.385011918952461200, 6.426175680068537200, 1.801778360950079300 ) ) ;
#148 = COORDINATED_UNIVERSAL_TIME_OFFSET ( 2, 0, .AHEAD. ) ;
#149 = VECTOR ( 'NONE', #78, 1000.000000000000000 ) ;
#150 = CARTESIAN_POINT ( 'NONE',  ( -9.194034422677077600E-014, -6.426175680068502600, 0.09972399504179063600 ) ) ;
#151 = CARTESIAN_POINT ( 'NONE',  ( 4.260000333517808700, 2.142746418491274300, 2.000395760831791500 ) ) ;
#152 = DIRECTION ( 'NONE',  ( 0.0000000000000000000, 0.0000000000000000000, 1.000000000000000000 ) ) ;
#153 = CARTESIAN_POINT ( 'NONE',  ( 2.498001805406600200E-016, 1.221245327087670000E-015, 0.09737320507261540400 ) ) ;
#154 = LOCAL_TIME ( 12, 25, 24.00000000000000000, #279 ) ;
#155 = CARTESIAN_POINT ( 'NONE',  ( -6.385011918952464800, -6.426175680068500800, 0.1982216390499225200 ) ) ;
#156 = CARTESIAN_POINT ( 'NONE',  ( -2.130126872483169900, -2.142746418491240600, 2.033252006146644600 ) ) ;
#157 = AXIS2_PLACEMENT_3D ( 'NONE', #193, #54, #105 ) ;
#158 = MECHANICAL_CONTEXT ( 'NONE', #240, 'mechanical' ) ;
#159 = PERSON_AND_ORGANIZATION ( #77, #218 ) ;
#160 = PRODUCT_RELATED_PRODUCT_CATEGORY ( 'detail', '', ( #33 ) ) ;
#161 = ORIENTED_EDGE ( 'NONE', *, *, #281, .F. ) ;
#162 = PERSON_AND_ORGANIZATION_ROLE ( 'design_owner' ) ;
#163 = CC_DESIGN_PERSON_AND_ORGANIZATION_ASSIGNMENT ( #3, #183, ( #63 ) ) ;
#164 = MANIFOLD_SOLID_BREP ( 'Imported1', #116 ) ;
#165 = PERSON_AND_ORGANIZATION ( #77, #218 ) ;
#166 = CC_DESIGN_DATE_AND_TIME_ASSIGNMENT ( #293, #67, ( #232 ) ) ;
#167 = PRODUCT_DEFINITION_SHAPE ( 'NONE', 'NONE',  #284 ) ;
#168 = ORIENTED_EDGE ( 'NONE', *, *, #90, .F. ) ;
#169 = AXIS2_PLACEMENT_3D ( 'NONE', #206, #109, #64 ) ;
#170 =( BOUNDED_SURFACE ( )  B_SPLINE_SURFACE ( 3, 3, ( 
 ( #155, #178, #203, #150 ),
 ( #235, #88, #255, #274 ),
 ( #17, #257, #62, #113 ),
 ( #276, #135, #12, #208 ) ),
 .UNSPECIFIED., .F., .F., .F. ) 
 B_SPLINE_SURFACE_WITH_KNOTS ( ( 4, 4 ),
 ( 4, 4 ),
 ( 0.0000000000000000000, 1.000000000000000000 ),
 ( 0.0000000000000000000, 1.000000000000000000 ),
 .UNSPECIFIED. ) 
 GEOMETRIC_REPRESENTATION_ITEM ( )  RATIONAL_B_SPLINE_SURFACE ( (
 ( 1.000000000000000000, 0.9999206897166477100, 0.9999206897166477100, 1.000000000000000000),
 ( 0.9996789827940069100, 0.9995996979706202000, 0.9995996979706202000, 0.9996789827940069100),
 ( 0.9996789827940069100, 0.9995996979706202000, 0.9995996979706202000, 0.9996789827940069100),
 ( 1.000000000000000000, 0.9999206897166477100, 0.9999206897166477100, 1.000000000000000000) ) ) 
 REPRESENTATION_ITEM ( '' )  SURFACE ( )  );
#171 = CARTESIAN_POINT ( 'NONE',  ( 2.498001805406600200E-016, 1.221245327087670000E-015, 1.902626794927380100 ) ) ;
#172 = AXIS2_PLACEMENT_3D ( 'NONE', #59, #81, #248 ) ;
#173 = DATE_AND_TIME ( #210, #197 ) ;
#174 = ORIENTED_EDGE ( 'NONE', *, *, #143, .F. ) ;
#175 = CARTESIAN_POINT ( 'NONE',  ( 6.389113620500242300, -2.142746418491241500, 0.06530891228351636000 ) ) ;
#176 = CARTESIAN_POINT ( 'NONE',  ( 4.257265486244735400, -6.426175680068502600, 1.867440852790273500 ) ) ;
#177 = EDGE_LOOP ( 'NONE', ( #250, #4, #117 ) ) ;
#178 = CARTESIAN_POINT ( 'NONE',  ( -4.257265486244735400, -6.426175680068502600, 0.1325591472097281100 ) ) ;
#179 = APPROVAL ( #215, 'UNSPECIFIED' ) ;
#180 = CARTESIAN_POINT ( 'NONE',  ( -2.128759367503728800, 6.426175680068535500, 1.900276004958208100 ) ) ;
#181 =( NAMED_UNIT ( * ) PLANE_ANGLE_UNIT ( ) SI_UNIT ( $, .RADIAN. ) );
#182 = VERTEX_POINT ( 'NONE', #5 ) ;
#183 = PERSON_AND_ORGANIZATION_ROLE ( 'creator' ) ;
#184 = AXIS2_PLACEMENT_3D ( 'NONE', #153, #15, #19 ) ;
#185 = CIRCLE ( 'NONE', #140, 207.0999999999999700 ) ;
#186 = CYLINDRICAL_SURFACE ( 'NONE', #114, 6.349999999999999600 ) ;
#187 = ORIENTED_EDGE ( 'NONE', *, *, #225, .T. ) ;
#188 = AXIS2_PLACEMENT_3D ( 'NONE', #86, #204, #291 ) ;
#189 = CC_DESIGN_PERSON_AND_ORGANIZATION_ASSIGNMENT ( #103, #115, ( #284 ) ) ;
#190 = CARTESIAN_POINT ( 'NONE',  ( 8.933825901280556500E-014, 2.142746418491272600, 2.033252006146645500 ) ) ;
#191 = CARTESIAN_POINT ( 'NONE',  ( 8.760353553682875800E-014, 6.426175680068535500, 1.900276004958211000 ) ) ;
#192 = EDGE_LOOP ( 'NONE', ( #7, #52, #84 ) ) ;
#193 = CARTESIAN_POINT ( 'NONE',  ( 2.498001805406600200E-016, 1.221245327087670000E-015, 0.09737320507261540400 ) ) ;
#194 = CARTESIAN_POINT ( 'NONE',  ( 2.130126872483171200, 2.142746418491272600, -0.03325200614664045000 ) ) ;
#195 = CARTESIAN_POINT ( 'NONE',  ( 4.260000333517632000, 2.142746418491271700, -0.0003957608317969364400 ) ) ;
#196 = CARTESIAN_POINT ( 'NONE',  ( 2.128759367503882100, -6.426175680068502600, 1.900276004958209500 ) ) ;
#197 = LOCAL_TIME ( 12, 25, 24.00000000000000000, #243 ) ;
#198 = EDGE_LOOP ( 'NONE', ( #13, #280, #161 ) ) ;
#199 = CARTESIAN_POINT ( 'NONE',  ( -4.260000333517632000, 2.142746418491271700, 2.000395760831799500 ) ) ;
#200 = CARTESIAN_POINT ( 'NONE',  ( 2.130126872483323600, 2.142746418491273500, 2.033252006146644600 ) ) ;
#201 = ADVANCED_FACE ( 'NONE', ( #70 ), #242, .T. ) ;
#202 = CARTESIAN_POINT ( 'NONE',  ( -4.257265486244552500, -6.426175680068504400, 1.867440852790281500 ) ) ;
#203 = CARTESIAN_POINT ( 'NONE',  ( -2.128759367503882900, -6.426175680068502600, 0.09972399504179231500 ) ) ;
#204 = DIRECTION ( 'NONE',  ( -0.0000000000000000000, -0.0000000000000000000, -1.000000000000000000 ) ) ;
#205 = CALENDAR_DATE ( 2019, 9, 1 ) ;
#206 = CARTESIAN_POINT ( 'NONE',  ( 7.105427357601000600E-014, 4.263256414560599900E-014, 207.0999999999999900 ) ) ;
#207 = AXIS2_PLACEMENT_3D ( 'NONE', #61, #40, #132 ) ;
#208 = CARTESIAN_POINT ( 'NONE',  ( -8.847089727481716200E-014, 6.426175680068535500, 0.09972399504179063600 ) ) ;
#209 = PERSON_AND_ORGANIZATION_ROLE ( 'classification_officer' ) ;
#210 = CALENDAR_DATE ( 2019, 9, 1 ) ;
#211 = APPLICATION_PROTOCOL_DEFINITION ( 'international standard', 'config_control_design', 1994, #240 ) ;
#212 = ORIENTED_EDGE ( 'NONE', *, *, #90, .T. ) ;
#213 = APPROVAL_STATUS ( 'not_yet_approved' ) ;
#214 = CC_DESIGN_PERSON_AND_ORGANIZATION_ASSIGNMENT ( #100, #44, ( #63 ) ) ;
#215 = APPROVAL_STATUS ( 'not_yet_approved' ) ;
#216 = EDGE_CURVE ( 'NONE', #43, #49, #1, .T. ) ;
#217 = APPROVAL_DATE_TIME ( #6, #23 ) ;
#218 = ORGANIZATION ( 'UNSPECIFIED', 'UNSPECIFIED', '' ) ;
#219 = CIRCLE ( 'NONE', #2, 6.349999999999999600 ) ;
#220 = EDGE_CURVE ( 'NONE', #294, #182, #246, .T. ) ;
#221 = PERSON_AND_ORGANIZATION ( #77, #218 ) ;
#222 = CARTESIAN_POINT ( 'NONE',  ( 6.385011918952256900, -6.426175680068504400, 0.1982216390499100500 ) ) ;
#223 = DIRECTION ( 'NONE',  ( 2.806236213214111900E-016, -1.000000000000000000, 2.680403246318581900E-016 ) ) ;
#224 = CARTESIAN_POINT ( 'NONE',  ( 4.257265486244552500, -6.426175680068504400, 0.1325591472097200100 ) ) ;
#225 = EDGE_CURVE ( 'NONE', #56, #43, #119, .T. ) ;
#226 = CARTESIAN_POINT ( 'NONE',  ( 6.389113620500243200, 2.142746418491270800, 0.06530891228351742800 ) ) ;
#227 = DATE_AND_TIME ( #72, #48 ) ;
#228 = CARTESIAN_POINT ( 'NONE',  ( 2.498001805406600200E-016, 1.221245327087670000E-015, 0.09737320507261540400 ) ) ;
#229 = VERTEX_POINT ( 'NONE', #60 ) ;
#230 = CARTESIAN_POINT ( 'NONE',  ( 2.130126872483324400, -2.142746418491239700, 2.033252006146645500 ) ) ;
#231 = CARTESIAN_POINT ( 'NONE',  ( 3.852678817268593600E-014, -2.142746418491239700, 2.033252006146642400 ) ) ;
#232 = SECURITY_CLASSIFICATION ( '', '', #42 ) ;
#233 = EDGE_CURVE ( 'NONE', #49, #56, #110, .T. ) ;
#234 =( BOUNDED_SURFACE ( )  B_SPLINE_SURFACE ( 3, 3, ( 
 ( #125, #101, #224, #222 ),
 ( #247, #120, #9, #175 ),
 ( #34, #194, #195, #226 ),
 ( #253, #11, #124, #283 ) ),
 .UNSPECIFIED., .F., .F., .F. ) 
 B_SPLINE_SURFACE_WITH_KNOTS ( ( 4, 4 ),
 ( 4, 4 ),
 ( 0.0000000000000000000, 1.000000000000000000 ),
 ( 0.0000000000000000000, 1.000000000000000000 ),
 .UNSPECIFIED. ) 
 GEOMETRIC_REPRESENTATION_ITEM ( )  RATIONAL_B_SPLINE_SURFACE ( (
 ( 1.000000000000000000, 0.9999206897166477100, 0.9999206897166477100, 1.000000000000000000),
 ( 0.9996789827940069100, 0.9995996979706202000, 0.9995996979706202000, 0.9996789827940069100),
 ( 0.9996789827940069100, 0.9995996979706202000, 0.9995996979706202000, 0.9996789827940069100),
 ( 1.000000000000000000, 0.9999206897166477100, 0.9999206897166477100, 1.000000000000000000) ) ) 
 REPRESENTATION_ITEM ( '' )  SURFACE ( )  );
#235 = CARTESIAN_POINT ( 'NONE',  ( -6.389113620500447500, -2.142746418491237900, 0.06530891228352883600 ) ) ;
#236 = CARTESIAN_POINT ( 'NONE',  ( 6.349999999999999600, 1.221245327087670000E-015, 1.902626794927380100 ) ) ;
#237 = DIRECTION ( 'NONE',  ( 1.000000000000000000, 0.0000000000000000000, 0.0000000000000000000 ) ) ;
#238 = PERSON_AND_ORGANIZATION ( #77, #218 ) ;
#239 = ORIENTED_EDGE ( 'NONE', *, *, #75, .F. ) ;
#240 = APPLICATION_CONTEXT ( 'configuration controlled 3d designs of mechanical parts and assemblies' ) ;
#241 = CARTESIAN_POINT ( 'NONE',  ( 2.498001805406600200E-016, 1.221245327087670000E-015, 1.902626794927380100 ) ) ;
#242 = CYLINDRICAL_SURFACE ( 'NONE', #50, 6.349999999999999600 ) ;
#243 = COORDINATED_UNIVERSAL_TIME_OFFSET ( 2, 0, .AHEAD. ) ;
#244 = ORIENTED_EDGE ( 'NONE', *, *, #225, .F. ) ;
#245 = CC_DESIGN_SECURITY_CLASSIFICATION ( #232, ( #63 ) ) ;
#246 = CIRCLE ( 'NONE', #207, 6.349999999999999600 ) ;
#247 = CARTESIAN_POINT ( 'NONE',  ( -3.852678817268593600E-014, -2.142746418491239700, -0.03325200614664037400 ) ) ;
#248 = DIRECTION ( 'NONE',  ( 1.000000000000000000, 0.0000000000000000000, 0.0000000000000000000 ) ) ;
#249 = COORDINATED_UNIVERSAL_TIME_OFFSET ( 2, 0, .AHEAD. ) ;
#250 = ORIENTED_EDGE ( 'NONE', *, *, #233, .F. ) ;
#251 = DIRECTION ( 'NONE',  ( -0.0000000000000000000, -0.0000000000000000000, -1.000000000000000000 ) ) ;
#252 =( GEOMETRIC_REPRESENTATION_CONTEXT ( 3 ) GLOBAL_UNCERTAINTY_ASSIGNED_CONTEXT ( ( #87 ) ) GLOBAL_UNIT_ASSIGNED_CONTEXT ( ( #69, #181, #21 ) ) REPRESENTATION_CONTEXT ( 'NONE', 'WORKASPACE' ) );
#253 = CARTESIAN_POINT ( 'NONE',  ( -3.605218308488603400E-014, 6.426175680068535500, 0.09972399504179496600 ) ) ;
#254 = ORIENTED_EDGE ( 'NONE', *, *, #128, .T. ) ;
#255 = CARTESIAN_POINT ( 'NONE',  ( -2.130126872483324400, -2.142746418491239700, -0.03325200614664301800 ) ) ;
#256 = CARTESIAN_POINT ( 'NONE',  ( -4.260000333517630200, -2.142746418491241500, 2.000395760831800800 ) ) ;
#257 = CARTESIAN_POINT ( 'NONE',  ( -4.260000333517808700, 2.142746418491274300, -0.0003957608317888185900 ) ) ;
#258 = EDGE_LOOP ( 'NONE', ( #73, #260, #187 ) ) ;
#259 = DIRECTION ( 'NONE',  ( 1.000000000000000000, 0.0000000000000000000, 0.0000000000000000000 ) ) ;
#260 = ORIENTED_EDGE ( 'NONE', *, *, #233, .T. ) ;
#261 = APPROVAL_DATE_TIME ( #22, #142 ) ;
#262 = AXIS2_PLACEMENT_3D ( 'NONE', #93, #295, #237 ) ;
#263 = LOCAL_TIME ( 12, 25, 24.00000000000000000, #249 ) ;
#264 = LINE ( 'NONE', #268, #92 ) ;
#265 = CARTESIAN_POINT ( 'NONE',  ( -7.105427357601000600E-014, 4.263256414560599900E-014, -205.0999999999999900 ) ) ;
#266 = PERSON_AND_ORGANIZATION ( #77, #218 ) ;
#267 = CARTESIAN_POINT ( 'NONE',  ( 4.257265486244731900, 6.426175680068537200, 1.867440852790273500 ) ) ;
#268 = CARTESIAN_POINT ( 'NONE',  ( -6.349999999999999600, 1.998896044546239400E-015, 0.09737320507261540400 ) ) ;
#269 = CARTESIAN_POINT ( 'NONE',  ( 6.389113620500447500, -2.142746418491237900, 1.934691087716472700 ) ) ;
#270 = LOCAL_TIME ( 12, 25, 24.00000000000000000, #133 ) ;
#271 = VERTEX_POINT ( 'NONE', #236 ) ;
#272 = ADVANCED_FACE ( 'NONE', ( #278 ), #51, .T. ) ;
#273 = CARTESIAN_POINT ( 'NONE',  ( 3.965885646606285000E-014, -6.426175680068502600, 1.900276004958206800 ) ) ;
#274 = CARTESIAN_POINT ( 'NONE',  ( -9.020562075079396900E-014, -2.142746418491239700, -0.03325200614664467600 ) ) ;
#275 = ADVANCED_FACE ( 'NONE', ( #98 ), #170, .T. ) ;
#276 = CARTESIAN_POINT ( 'NONE',  ( -6.385011918952461200, 6.426175680068537200, 0.1982216390499225200 ) ) ;
#277 = APPLICATION_CONTEXT ( 'configuration controlled 3d designs of mechanical parts and assemblies' ) ;
#278 = FACE_OUTER_BOUND ( 'NONE', #198, .T. ) ;
#279 = COORDINATED_UNIVERSAL_TIME_OFFSET ( 2, 0, .AHEAD. ) ;
#280 = ORIENTED_EDGE ( 'NONE', *, *, #58, .T. ) ;
#281 = EDGE_CURVE ( 'NONE', #182, #229, #30, .T. ) ;
#282 = ORIENTED_EDGE ( 'NONE', *, *, #281, .T. ) ;
#283 = CARTESIAN_POINT ( 'NONE',  ( 6.385011918952260500, 6.426175680068533700, 0.1982216390499100500 ) ) ;
#284 = PRODUCT_DEFINITION ( 'UNKNOWN', '', #63, #292 ) ;
#285 = DIRECTION ( 'NONE',  ( 0.0000000000000000000, 0.0000000000000000000, 1.000000000000000000 ) ) ;
#286 = CARTESIAN_POINT ( 'NONE',  ( 6.389113620500446600, 2.142746418491274300, 1.934691087716471800 ) ) ;
#287 = CARTESIAN_POINT ( 'NONE',  ( -4.257265486244556000, 6.426175680068535500, 1.867440852790281500 ) ) ;
#288 = FACE_OUTER_BOUND ( 'NONE', #258, .T. ) ;
#289 = CARTESIAN_POINT ( 'NONE',  ( -6.385011918952260500, 6.426175680068533700, 1.801778360950091700 ) ) ;
#290 = CARTESIAN_POINT ( 'NONE',  ( -6.389113620500241500, -2.142746418491241500, 1.934691087716485800 ) ) ;
#291 = DIRECTION ( 'NONE',  ( 1.000000000000000000, 1.776356839400250500E-015, 0.0000000000000000000 ) ) ;
#292 = DESIGN_CONTEXT ( 'detailed design', #277, 'design' ) ;
#293 = DATE_AND_TIME ( #55, #263 ) ;
#294 = VERTEX_POINT ( 'NONE', #107 ) ;
#295 = DIRECTION ( 'NONE',  ( 0.0000000000000000000, 0.0000000000000000000, 1.000000000000000000 ) ) ;
ENDSEC;
END-ISO-10303-21;
