ISO-10303-21;
HEADER;
FILE_DESCRIPTION (( 'STEP AP203' ),
    '1' );
FILE_NAME ('111-0132E BK7 bi-cx 12.7 F150.STEP',
    '2019-01-09T08:27:35',
    ( '' ),
    ( '' ),
    'SwSTEP 2.0',
    'SolidWorks 2017',
    '' );
FILE_SCHEMA (( 'CONFIG_CONTROL_DESIGN' ));
ENDSEC;

DATA;
#1 = APPLICATION_CONTEXT ( 'configuration controlled 3d designs of mechanical parts and assemblies' ) ;
#2 = PRODUCT_RELATED_PRODUCT_CATEGORY ( 'detail', '', ( #27 ) ) ;
#3 = CIRCLE ( 'NONE', #244, 6.349999999999999600 ) ;
#4 = AXIS2_PLACEMENT_3D ( 'NONE', #162, #19, #72 ) ;
#5 = PERSON_AND_ORGANIZATION ( #53, #208 ) ;
#6 = CARTESIAN_POINT ( 'NONE',  ( 2.130719191223116000, 2.143276023855575900, -0.04436229340058027400 ) ) ;
#7 = CARTESIAN_POINT ( 'NONE',  ( 6.389903350893043000, -2.143276023855538200, 0.08711383551450259400 ) ) ;
#8 = CIRCLE ( 'NONE', #213, 6.349999999999999600 ) ;
#9 = CARTESIAN_POINT ( 'NONE',  ( 6.389903350893043800, 2.143276023855575500, 0.08711383551447614300 ) ) ;
#10 = DIRECTION ( 'NONE',  ( -0.0000000000000000000, -0.0000000000000000000, -1.000000000000000000 ) ) ;
#11 = CARTESIAN_POINT ( 'NONE',  ( 2.498001805406600200E-016, 1.221245327087670000E-015, 0.1298756203372770100 ) ) ;
#12 = CARTESIAN_POINT ( 'NONE',  ( -4.256122277039812800, -6.426156738010307700, 0.1767924022591338700 ) ) ;
#13 = CARTESIAN_POINT ( 'NONE',  ( 2.128286322469424200, 6.426156738010346800, 0.1330108896273052300 ) ) ;
#14 = CARTESIAN_POINT ( 'NONE',  ( -5.030698080332741200E-014, -2.143276023855538200, -0.04436229340056642400 ) ) ;
#15 = CARTESIAN_POINT ( 'NONE',  ( -2.130719191223135600, 2.143276023855576800, 2.044362293400582100 ) ) ;
#16 = CARTESIAN_POINT ( 'NONE',  ( -6.389903350893122900, 2.143276023855575500, 0.08711383551446658100 ) ) ;
#17 = FACE_OUTER_BOUND ( 'NONE', #237, .T. ) ;
#18 = CARTESIAN_POINT ( 'NONE',  ( 2.498001805406600200E-016, 1.221245327087670000E-015, 0.1298756203372770100 ) ) ;
#19 = DIRECTION ( 'NONE',  ( -0.0000000000000000000, -0.0000000000000000000, -1.000000000000000000 ) ) ;
#20 = DIRECTION ( 'NONE',  ( 0.0000000000000000000, 0.0000000000000000000, 1.000000000000000000 ) ) ;
#21 =( LENGTH_UNIT ( ) NAMED_UNIT ( * ) SI_UNIT ( .MILLI., .METRE. ) );
#22 = VERTEX_POINT ( 'NONE', #31 ) ;
#23 = MECHANICAL_CONTEXT ( 'NONE', #144, 'mechanical' ) ;
#24 = AXIS2_PLACEMENT_3D ( 'NONE', #185, #206, #249 ) ;
#25 = LOCAL_TIME ( 10, 27, 35.00000000000000000, #49 ) ;
#26 = ORIENTED_EDGE ( 'NONE', *, *, #211, .F. ) ;
#27 = PRODUCT ( '111-0132E BK7 bi-cx 12.7 F150', '111-0132E BK7 bi-cx 12.7 F150', '', ( #23 ) ) ;
#28 = CIRCLE ( 'NONE', #112, 6.349999999999999600 ) ;
#29 = CC_DESIGN_APPROVAL ( #233, ( #292 ) ) ;
#30 = FACE_OUTER_BOUND ( 'NONE', #251, .T. ) ;
#31 = CARTESIAN_POINT ( 'NONE',  ( 6.349999999999999600, 1.221245327087670000E-015, 0.1298756203372770100 ) ) ;
#32 = CARTESIAN_POINT ( 'NONE',  ( 4.260987499726359900, 2.143276023855575900, -0.0005307336144237900900 ) ) ;
#33 = ADVANCED_BREP_SHAPE_REPRESENTATION ( '111-0132E BK7 bi-cx 12.7 F150', ( #46, #58 ), #189 ) ;
#34 = DIRECTION ( 'NONE',  ( -0.0000000000000000000, -0.0000000000000000000, -1.000000000000000000 ) ) ;
#35 = ORIENTED_EDGE ( 'NONE', *, *, #69, .T. ) ;
#36 = CARTESIAN_POINT ( 'NONE',  ( -2.128286322469493500, 6.426156738010346800, 0.1330108896272930200 ) ) ;
#37 = AXIS2_PLACEMENT_3D ( 'NONE', #45, #230, #203 ) ;
#38 = CC_DESIGN_APPROVAL ( #145, ( #209 ) ) ;
#39 = CARTESIAN_POINT ( 'NONE',  ( 4.256122277039785300, 6.426156738010347700, 1.823207597740895700 ) ) ;
#40 = CALENDAR_DATE ( 2019, 9, 1 ) ;
#41 = CARTESIAN_POINT ( 'NONE',  ( -4.260987499726368800, -2.143276023855535900, 2.000530733614399400 ) ) ;
#42 = CARTESIAN_POINT ( 'NONE',  ( -4.256122277039748000, -6.426156738010306000, 1.823207597740856600 ) ) ;
#43 = CARTESIAN_POINT ( 'NONE',  ( -6.349999999999999600, 1.998896044546239400E-015, 1.870124379662720000 ) ) ;
#44 = EDGE_LOOP ( 'NONE', ( #163, #178, #35 ) ) ;
#45 = CARTESIAN_POINT ( 'NONE',  ( 2.498001805406600200E-016, 1.221245327087670000E-015, 1.870124379662720000 ) ) ;
#46 = MANIFOLD_SOLID_BREP ( 'Imported1', #228 ) ;
#47 = CARTESIAN_POINT ( 'NONE',  ( 6.349999999999999600, 1.221245327087670000E-015, 1.870124379662720000 ) ) ;
#48 = PERSON_AND_ORGANIZATION_ROLE ( 'creator' ) ;
#49 = COORDINATED_UNIVERSAL_TIME_OFFSET ( 2, 0, .AHEAD. ) ;
#50 = ORIENTED_EDGE ( 'NONE', *, *, #69, .F. ) ;
#51 = APPROVAL_DATE_TIME ( #117, #233 ) ;
#52 = EDGE_CURVE ( 'NONE', #116, #108, #269, .T. ) ;
#53 = PERSON ( 'UNSPECIFIED', 'UNSPECIFIED', 'UNSPECIFIED', ('UNSPECIFIED'), ('UNSPECIFIED'), ('UNSPECIFIED') ) ;
#54 = PERSON_AND_ORGANIZATION_ROLE ( 'creator' ) ;
#55 = UNCERTAINTY_MEASURE_WITH_UNIT (LENGTH_MEASURE( 1.000000000000000100E-005 ), #21, 'distance_accuracy_value', 'NONE');
#56 = COORDINATED_UNIVERSAL_TIME_OFFSET ( 2, 0, .AHEAD. ) ;
#57 = PERSON_AND_ORGANIZATION_ROLE ( 'design_supplier' ) ;
#58 = AXIS2_PLACEMENT_3D ( 'NONE', #73, #250, #232 ) ;
#59 = DATE_AND_TIME ( #239, #246 ) ;
#60 = ADVANCED_FACE ( 'NONE', ( #194 ), #195, .T. ) ;
#61 = DIRECTION ( 'NONE',  ( 1.000000000000000000, 8.881784197001252300E-016, 0.0000000000000000000 ) ) ;
#62 = ORIENTED_EDGE ( 'NONE', *, *, #169, .F. ) ;
#63 = CARTESIAN_POINT ( 'NONE',  ( -5.117434254131580900E-014, -6.426156738010306800, 0.1330108896273203600 ) ) ;
#64 = CARTESIAN_POINT ( 'NONE',  ( -6.389903350893043000, -2.143276023855536400, 1.912886164485499800 ) ) ;
#65 = CARTESIAN_POINT ( 'NONE',  ( 6.389903350893093600, -2.143276023855536400, 1.912886164485509100 ) ) ;
#66 = CARTESIAN_POINT ( 'NONE',  ( -2.128286322469443700, 6.426156738010347700, 1.866989110372696300 ) ) ;
#67 = CARTESIAN_POINT ( 'NONE',  ( 6.349999999999999600, 1.221245327087670000E-015, 0.1298756203372770100 ) ) ;
#68 = PERSON_AND_ORGANIZATION ( #53, #208 ) ;
#69 = EDGE_CURVE ( 'NONE', #260, #22, #8, .T. ) ;
#70 = ORIENTED_EDGE ( 'NONE', *, *, #255, .F. ) ;
#71 = DIRECTION ( 'NONE',  ( 1.000000000000000000, -8.881784197001252300E-016, 0.0000000000000000000 ) ) ;
#72 = DIRECTION ( 'NONE',  ( 1.000000000000000000, 8.881784197001252300E-016, 0.0000000000000000000 ) ) ;
#73 = CARTESIAN_POINT ( 'NONE',  ( 0.0000000000000000000, 0.0000000000000000000, 0.0000000000000000000 ) ) ;
#74 = CC_DESIGN_APPROVAL ( #83, ( #259 ) ) ;
#75 = CIRCLE ( 'NONE', #226, 6.349999999999999600 ) ;
#76 = EDGE_CURVE ( 'NONE', #97, #128, #212, .T. ) ;
#77 = PERSON_AND_ORGANIZATION ( #53, #208 ) ;
#78 = DATE_AND_TIME ( #40, #25 ) ;
#79 = FACE_OUTER_BOUND ( 'NONE', #126, .T. ) ;
#80 = COORDINATED_UNIVERSAL_TIME_OFFSET ( 2, 0, .AHEAD. ) ;
#81 = EDGE_CURVE ( 'NONE', #22, #116, #28, .T. ) ;
#82 =( BOUNDED_SURFACE ( )  B_SPLINE_SURFACE ( 3, 3, ( 
 ( #140, #221, #42, #157 ),
 ( #245, #135, #41, #64 ),
 ( #199, #15, #93, #198 ),
 ( #158, #66, #247, #268 ) ),
 .UNSPECIFIED., .F., .F., .F. ) 
 B_SPLINE_SURFACE_WITH_KNOTS ( ( 4, 4 ),
 ( 4, 4 ),
 ( 0.0000000000000000000, 1.000000000000000000 ),
 ( 0.0000000000000000000, 1.000000000000000000 ),
 .UNSPECIFIED. ) 
 GEOMETRIC_REPRESENTATION_ITEM ( )  RATIONAL_B_SPLINE_SURFACE ( (
 ( 1.000000000000000000, 0.9998589262812464000, 0.9998589262812464000, 1.000000000000000000),
 ( 0.9994290152838494200, 0.9992880221160330700, 0.9992880221160330700, 0.9994290152838494200),
 ( 0.9994290152838494200, 0.9992880221160330700, 0.9992880221160330700, 0.9994290152838494200),
 ( 1.000000000000000000, 0.9998589262812464000, 0.9998589262812464000, 1.000000000000000000) ) ) 
 REPRESENTATION_ITEM ( '' )  SURFACE ( )  );
#83 = APPROVAL ( #273, 'UNSPECIFIED' ) ;
#84 = ORIENTED_EDGE ( 'NONE', *, *, #81, .F. ) ;
#85 = ORIENTED_EDGE ( 'NONE', *, *, #127, .T. ) ;
#86 = CARTESIAN_POINT ( 'NONE',  ( 2.498001805406600200E-016, 1.221245327087670000E-015, 0.1298756203372770100 ) ) ;
#87 =( BOUNDED_SURFACE ( )  B_SPLINE_SURFACE ( 3, 3, ( 
 ( #287, #179, #175, #196 ),
 ( #65, #267, #155, #172 ),
 ( #264, #222, #94, #131 ),
 ( #137, #39, #248, #132 ) ),
 .UNSPECIFIED., .F., .F., .F. ) 
 B_SPLINE_SURFACE_WITH_KNOTS ( ( 4, 4 ),
 ( 4, 4 ),
 ( 0.0000000000000000000, 1.000000000000000000 ),
 ( 0.0000000000000000000, 1.000000000000000000 ),
 .UNSPECIFIED. ) 
 GEOMETRIC_REPRESENTATION_ITEM ( )  RATIONAL_B_SPLINE_SURFACE ( (
 ( 1.000000000000000000, 0.9998589262812464000, 0.9998589262812464000, 1.000000000000000000),
 ( 0.9994290152838494200, 0.9992880221160330700, 0.9992880221160330700, 0.9994290152838494200),
 ( 0.9994290152838494200, 0.9992880221160330700, 0.9992880221160330700, 0.9994290152838494200),
 ( 1.000000000000000000, 0.9998589262812464000, 0.9998589262812464000, 1.000000000000000000) ) ) 
 REPRESENTATION_ITEM ( '' )  SURFACE ( )  );
#88 = CARTESIAN_POINT ( 'NONE',  ( -1.421085471520200700E-014, -2.143276023855538200, -0.04436229340055379600 ) ) ;
#89 = CARTESIAN_POINT ( 'NONE',  ( -2.130719191223186600, 2.143276023855575900, -0.04436229340059250100 ) ) ;
#90 = CARTESIAN_POINT ( 'NONE',  ( -2.130719191223186200, -2.143276023855537700, -0.04436229340056593200 ) ) ;
#91 = EDGE_LOOP ( 'NONE', ( #156, #197, #26 ) ) ;
#92 = CC_DESIGN_SECURITY_CLASSIFICATION ( #292, ( #259 ) ) ;
#93 = CARTESIAN_POINT ( 'NONE',  ( -4.260987499726368800, 2.143276023855576800, 2.000530733614425600 ) ) ;
#94 = CARTESIAN_POINT ( 'NONE',  ( 2.130719191223159100, 2.143276023855576800, 2.044362293400594900 ) ) ;
#95 = CARTESIAN_POINT ( 'NONE',  ( -6.382607318517978400, -6.426156738010306800, 0.2643368982603588900 ) ) ;
#96 = FACE_OUTER_BOUND ( 'NONE', #110, .T. ) ;
#97 = VERTEX_POINT ( 'NONE', #265 ) ;
#98 = DIRECTION ( 'NONE',  ( 0.0000000000000000000, -1.000000000000000000, 7.148892624759540400E-016 ) ) ;
#99 = DIRECTION ( 'NONE',  ( 1.000000000000000000, 0.0000000000000000000, 0.0000000000000000000 ) ) ;
#100 = CYLINDRICAL_SURFACE ( 'NONE', #192, 6.349999999999999600 ) ;
#101 = CC_DESIGN_DATE_AND_TIME_ASSIGNMENT ( #59, #210, ( #292 ) ) ;
#102 = DATE_TIME_ROLE ( 'creation_date' ) ;
#103 =( NAMED_UNIT ( * ) PLANE_ANGLE_UNIT ( ) SI_UNIT ( $, .RADIAN. ) );
#104 = ORIENTED_EDGE ( 'NONE', *, *, #184, .T. ) ;
#105 = SECURITY_CLASSIFICATION_LEVEL ( 'unclassified' ) ;
#106 = ORIENTED_EDGE ( 'NONE', *, *, #186, .T. ) ;
#107 = APPROVAL_STATUS ( 'not_yet_approved' ) ;
#108 = VERTEX_POINT ( 'NONE', #139 ) ;
#109 = LOCAL_TIME ( 10, 27, 35.00000000000000000, #215 ) ;
#110 = EDGE_LOOP ( 'NONE', ( #130, #282, #62 ) ) ;
#111 = ADVANCED_FACE ( 'NONE', ( #136 ), #82, .T. ) ;
#112 = AXIS2_PLACEMENT_3D ( 'NONE', #18, #119, #114 ) ;
#113 = CARTESIAN_POINT ( 'NONE',  ( 4.256122277039738200, -6.426156738010307700, 0.1767924022591442500 ) ) ;
#114 = DIRECTION ( 'NONE',  ( 1.000000000000000000, 0.0000000000000000000, 0.0000000000000000000 ) ) ;
#115 = CARTESIAN_POINT ( 'NONE',  ( -6.389903350893122000, -2.143276023855538200, 0.08711383551449306000 ) ) ;
#116 = VERTEX_POINT ( 'NONE', #118 ) ;
#117 = DATE_AND_TIME ( #170, #234 ) ;
#118 = CARTESIAN_POINT ( 'NONE',  ( -1.421085471520200100E-014, -6.349999999999788300, 0.1298756203372800300 ) ) ;
#119 = DIRECTION ( 'NONE',  ( -0.0000000000000000000, -0.0000000000000000000, -1.000000000000000000 ) ) ;
#120 = CARTESIAN_POINT ( 'NONE',  ( -6.349999999999999600, 1.998896044546239400E-015, 0.1298756203372770100 ) ) ;
#121 = ORIENTED_EDGE ( 'NONE', *, *, #52, .F. ) ;
#122 = DIRECTION ( 'NONE',  ( -0.0000000000000000000, -0.0000000000000000000, -1.000000000000000000 ) ) ;
#123 = COORDINATED_UNIVERSAL_TIME_OFFSET ( 2, 0, .AHEAD. ) ;
#124 = APPLICATION_PROTOCOL_DEFINITION ( 'international standard', 'config_control_design', 1994, #1 ) ;
#125 = SHAPE_DEFINITION_REPRESENTATION ( #258, #33 ) ;
#126 = EDGE_LOOP ( 'NONE', ( #70, #121, #84, #85, #104, #257 ) ) ;
#127 = EDGE_CURVE ( 'NONE', #22, #187, #152, .T. ) ;
#128 = VERTEX_POINT ( 'NONE', #182 ) ;
#129 = CIRCLE ( 'NONE', #4, 6.349999999999999600 ) ;
#130 = ORIENTED_EDGE ( 'NONE', *, *, #76, .F. ) ;
#131 = CARTESIAN_POINT ( 'NONE',  ( 2.255140518769849900E-014, 2.143276023855576400, 2.044362293400594500 ) ) ;
#132 = CARTESIAN_POINT ( 'NONE',  ( 2.255140518769849200E-014, 6.426156738010346800, 1.866989110372709600 ) ) ;
#133 = CARTESIAN_POINT ( 'NONE',  ( 4.256122277039740000, 6.426156738010346800, 0.1767924022591166000 ) ) ;
#134 = CARTESIAN_POINT ( 'NONE',  ( -6.382607318517979200, 6.426156738010345900, 0.2643368982603311300 ) ) ;
#135 = CARTESIAN_POINT ( 'NONE',  ( -2.130719191223135100, -2.143276023855535900, 2.044362293400556800 ) ) ;
#136 = FACE_OUTER_BOUND ( 'NONE', #91, .T. ) ;
#137 = CARTESIAN_POINT ( 'NONE',  ( 6.382607318517951700, 6.426156738010346800, 1.735663101739670600 ) ) ;
#138 = LOCAL_TIME ( 10, 27, 35.00000000000000000, #80 ) ;
#139 = CARTESIAN_POINT ( 'NONE',  ( -6.349999999999999600, 1.998896044546239400E-015, 0.1298756203372770100 ) ) ;
#140 = CARTESIAN_POINT ( 'NONE',  ( -1.421085471520200100E-014, -6.426156738010305100, 1.866989110372668800 ) ) ;
#141 = CC_DESIGN_DATE_AND_TIME_ASSIGNMENT ( #183, #102, ( #209 ) ) ;
#142 = APPROVAL_DATE_TIME ( #147, #83 ) ;
#143 = CARTESIAN_POINT ( 'NONE',  ( 2.498001805406600200E-016, 1.221245327087670000E-015, 0.1298756203372770100 ) ) ;
#144 = APPLICATION_CONTEXT ( 'configuration controlled 3d designs of mechanical parts and assemblies' ) ;
#145 = APPROVAL ( #167, 'UNSPECIFIED' ) ;
#146 = CIRCLE ( 'NONE', #240, 6.349999999999999600 ) ;
#147 = DATE_AND_TIME ( #202, #138 ) ;
#148 = CC_DESIGN_PERSON_AND_ORGANIZATION_ASSIGNMENT ( #68, #57, ( #259 ) ) ;
#149 = CYLINDRICAL_SURFACE ( 'NONE', #235, 6.349999999999999600 ) ;
#150 = ORIENTED_EDGE ( 'NONE', *, *, #169, .T. ) ;
#151 = PERSON_AND_ORGANIZATION ( #53, #208 ) ;
#152 = LINE ( 'NONE', #67, #256 ) ;
#153 = ADVANCED_FACE ( 'NONE', ( #30 ), #149, .T. ) ;
#154 = CARTESIAN_POINT ( 'NONE',  ( 4.260987499726359000, -2.143276023855537700, -0.0005307336143973220000 ) ) ;
#155 = CARTESIAN_POINT ( 'NONE',  ( 2.130719191223158700, -2.143276023855535900, 2.044362293400568700 ) ) ;
#156 = ORIENTED_EDGE ( 'NONE', *, *, #285, .F. ) ;
#157 = CARTESIAN_POINT ( 'NONE',  ( -6.382607318517900200, -6.426156738010305100, 1.735663101739633300 ) ) ;
#158 = CARTESIAN_POINT ( 'NONE',  ( -1.421085471520200100E-014, 6.426156738010346800, 1.866989110372696500 ) ) ;
#159 = DIRECTION ( 'NONE',  ( 0.0000000000000000000, 0.0000000000000000000, 1.000000000000000000 ) ) ;
#160 = CALENDAR_DATE ( 2019, 9, 1 ) ;
#161 = DIRECTION ( 'NONE',  ( 0.0000000000000000000, 0.0000000000000000000, 1.000000000000000000 ) ) ;
#162 = CARTESIAN_POINT ( 'NONE',  ( 2.498001805406600200E-016, 1.221245327087670000E-015, 0.1298756203372770100 ) ) ;
#163 = ORIENTED_EDGE ( 'NONE', *, *, #81, .T. ) ;
#164 = DIRECTION ( 'NONE',  ( 1.000000000000000000, 0.0000000000000000000, 0.0000000000000000000 ) ) ;
#165 = AXIS2_PLACEMENT_3D ( 'NONE', #86, #34, #61 ) ;
#166 = PERSON_AND_ORGANIZATION ( #53, #208 ) ;
#167 = APPROVAL_STATUS ( 'not_yet_approved' ) ;
#168 = ORIENTED_EDGE ( 'NONE', *, *, #211, .T. ) ;
#169 = EDGE_CURVE ( 'NONE', #128, #187, #3, .T. ) ;
#170 = CALENDAR_DATE ( 2019, 9, 1 ) ;
#171 = ADVANCED_FACE ( 'NONE', ( #79 ), #100, .T. ) ;
#172 = CARTESIAN_POINT ( 'NONE',  ( 2.255140518769849900E-014, -2.143276023855536400, 2.044362293400569200 ) ) ;
#173 = DIRECTION ( 'NONE',  ( -0.0000000000000000000, -0.0000000000000000000, -1.000000000000000000 ) ) ;
#174 = CARTESIAN_POINT ( 'NONE',  ( -2.128286322469493900, -6.426156738010307700, 0.1330108896273208600 ) ) ;
#175 = CARTESIAN_POINT ( 'NONE',  ( 2.128286322469465500, -6.426156738010306000, 1.866989110372681000 ) ) ;
#176 = DIRECTION ( 'NONE',  ( -1.000000000000000000, 0.0000000000000000000, 0.0000000000000000000 ) ) ;
#177 = CARTESIAN_POINT ( 'NONE',  ( -5.030698080332741200E-014, 2.143276023855575500, -0.04436229340059298600 ) ) ;
#178 = ORIENTED_EDGE ( 'NONE', *, *, #201, .T. ) ;
#179 = CARTESIAN_POINT ( 'NONE',  ( 4.256122277039784400, -6.426156738010306000, 1.823207597740867900 ) ) ;
#180 = PERSON_AND_ORGANIZATION ( #53, #208 ) ;
#181 = CARTESIAN_POINT ( 'NONE',  ( -1.421085471520200100E-014, 5.684341886080800200E-014, -153.3000000000000100 ) ) ;
#182 = CARTESIAN_POINT ( 'NONE',  ( -1.421085471520200100E-014, 6.349999999999838000, 1.870124379662719400 ) ) ;
#183 = DATE_AND_TIME ( #160, #109 ) ;
#184 = EDGE_CURVE ( 'NONE', #187, #97, #75, .T. ) ;
#185 = CARTESIAN_POINT ( 'NONE',  ( -1.421085471520200100E-014, 4.263256414560599900E-014, 155.3000000000000100 ) ) ;
#186 = EDGE_CURVE ( 'NONE', #108, #260, #129, .T. ) ;
#187 = VERTEX_POINT ( 'NONE', #47 ) ;
#188 = APPROVAL_ROLE ( '' ) ;
#189 =( GEOMETRIC_REPRESENTATION_CONTEXT ( 3 ) GLOBAL_UNCERTAINTY_ASSIGNED_CONTEXT ( ( #55 ) ) GLOBAL_UNIT_ASSIGNED_CONTEXT ( ( #21, #103, #294 ) ) REPRESENTATION_CONTEXT ( 'NONE', 'WORKASPACE' ) );
#190 = ORIENTED_EDGE ( 'NONE', *, *, #186, .F. ) ;
#191 = PERSON_AND_ORGANIZATION_ROLE ( 'classification_officer' ) ;
#192 = AXIS2_PLACEMENT_3D ( 'NONE', #143, #20, #164 ) ;
#193 = APPROVAL_PERSON_ORGANIZATION ( #151, #145, #207 ) ;
#194 = FACE_OUTER_BOUND ( 'NONE', #44, .T. ) ;
#195 =( BOUNDED_SURFACE ( )  B_SPLINE_SURFACE ( 3, 3, ( 
 ( #262, #278, #113, #279 ),
 ( #88, #217, #154, #7 ),
 ( #219, #6, #32, #9 ),
 ( #263, #13, #133, #283 ) ),
 .UNSPECIFIED., .F., .F., .T. ) 
 B_SPLINE_SURFACE_WITH_KNOTS ( ( 4, 4 ),
 ( 4, 4 ),
 ( 0.0000000000000000000, 1.000000000000000000 ),
 ( 0.0000000000000000000, 1.000000000000000000 ),
 .UNSPECIFIED. ) 
 GEOMETRIC_REPRESENTATION_ITEM ( )  RATIONAL_B_SPLINE_SURFACE ( (
 ( 1.000000000000000000, 0.9998589262812464000, 0.9998589262812464000, 1.000000000000000000),
 ( 0.9994290152838494200, 0.9992880221160330700, 0.9992880221160330700, 0.9994290152838494200),
 ( 0.9994290152838494200, 0.9992880221160330700, 0.9992880221160330700, 0.9994290152838494200),
 ( 1.000000000000000000, 0.9998589262812464000, 0.9998589262812464000, 1.000000000000000000) ) ) 
 REPRESENTATION_ITEM ( '' )  SURFACE ( )  );
#196 = CARTESIAN_POINT ( 'NONE',  ( 2.255140518769849200E-014, -6.426156738010305100, 1.866989110372681900 ) ) ;
#197 = ORIENTED_EDGE ( 'NONE', *, *, #76, .T. ) ;
#198 = CARTESIAN_POINT ( 'NONE',  ( -6.389903350893043800, 2.143276023855576400, 1.912886164485525500 ) ) ;
#199 = CARTESIAN_POINT ( 'NONE',  ( -1.421085471520200700E-014, 2.143276023855576400, 2.044362293400582500 ) ) ;
#200 = VECTOR ( 'NONE', #161, 1000.000000000000000 ) ;
#201 = EDGE_CURVE ( 'NONE', #116, #260, #271, .T. ) ;
#202 = CALENDAR_DATE ( 2019, 9, 1 ) ;
#203 = DIRECTION ( 'NONE',  ( 1.000000000000000000, 8.881784197001252300E-016, 0.0000000000000000000 ) ) ;
#204 = DIRECTION ( 'NONE',  ( 0.0000000000000000000, 0.0000000000000000000, 1.000000000000000000 ) ) ;
#205 = DIRECTION ( 'NONE',  ( 1.000000000000000000, 0.0000000000000000000, 0.0000000000000000000 ) ) ;
#206 = DIRECTION ( 'NONE',  ( 1.000000000000000000, 0.0000000000000000000, 0.0000000000000000000 ) ) ;
#207 = APPROVAL_ROLE ( '' ) ;
#208 = ORGANIZATION ( 'UNSPECIFIED', 'UNSPECIFIED', '' ) ;
#209 = PRODUCT_DEFINITION ( 'UNKNOWN', '', #259, #253 ) ;
#210 = DATE_TIME_ROLE ( 'classification_date' ) ;
#211 = EDGE_CURVE ( 'NONE', #229, #128, #274, .T. ) ;
#212 = CIRCLE ( 'NONE', #231, 155.2999999999999800 ) ;
#213 = AXIS2_PLACEMENT_3D ( 'NONE', #11, #173, #242 ) ;
#214 = CC_DESIGN_PERSON_AND_ORGANIZATION_ASSIGNMENT ( #254, #191, ( #292 ) ) ;
#215 = COORDINATED_UNIVERSAL_TIME_OFFSET ( 2, 0, .AHEAD. ) ;
#216 = ORIENTED_EDGE ( 'NONE', *, *, #127, .F. ) ;
#217 = CARTESIAN_POINT ( 'NONE',  ( 2.130719191223116000, -2.143276023855537700, -0.04436229340055378900 ) ) ;
#218 = CARTESIAN_POINT ( 'NONE',  ( -4.260987499726433600, 2.143276023855575900, -0.0005307336144342934000 ) ) ;
#219 = CARTESIAN_POINT ( 'NONE',  ( -1.421085471520200700E-014, 2.143276023855575500, -0.04436229340058027400 ) ) ;
#220 = DIRECTION ( 'NONE',  ( 1.000000000000000000, 8.881784197001252300E-016, 0.0000000000000000000 ) ) ;
#221 = CARTESIAN_POINT ( 'NONE',  ( -2.128286322469443300, -6.426156738010306000, 1.866989110372668600 ) ) ;
#222 = CARTESIAN_POINT ( 'NONE',  ( 4.260987499726406100, 2.143276023855576800, 2.000530733614436200 ) ) ;
#223 =( BOUNDED_SURFACE ( )  B_SPLINE_SURFACE ( 3, 3, ( 
 ( #95, #12, #174, #63 ),
 ( #115, #281, #90, #14 ),
 ( #16, #218, #89, #177 ),
 ( #134, #241, #36, #284 ) ),
 .UNSPECIFIED., .F., .F., .T. ) 
 B_SPLINE_SURFACE_WITH_KNOTS ( ( 4, 4 ),
 ( 4, 4 ),
 ( 0.0000000000000000000, 1.000000000000000000 ),
 ( 0.0000000000000000000, 1.000000000000000000 ),
 .UNSPECIFIED. ) 
 GEOMETRIC_REPRESENTATION_ITEM ( )  RATIONAL_B_SPLINE_SURFACE ( (
 ( 1.000000000000000000, 0.9998589262812464000, 0.9998589262812464000, 1.000000000000000000),
 ( 0.9994290152838494200, 0.9992880221160330700, 0.9992880221160330700, 0.9994290152838494200),
 ( 0.9994290152838494200, 0.9992880221160330700, 0.9992880221160330700, 0.9994290152838494200),
 ( 1.000000000000000000, 0.9998589262812464000, 0.9998589262812464000, 1.000000000000000000) ) ) 
 REPRESENTATION_ITEM ( '' )  SURFACE ( )  );
#224 = APPROVAL_DATE_TIME ( #78, #145 ) ;
#225 = ORIENTED_EDGE ( 'NONE', *, *, #52, .T. ) ;
#226 = AXIS2_PLACEMENT_3D ( 'NONE', #272, #227, #205 ) ;
#227 = DIRECTION ( 'NONE',  ( -0.0000000000000000000, -0.0000000000000000000, -1.000000000000000000 ) ) ;
#228 = CLOSED_SHELL ( 'NONE', ( #60, #111, #153, #289, #171, #261 ) ) ;
#229 = VERTEX_POINT ( 'NONE', #43 ) ;
#230 = DIRECTION ( 'NONE',  ( -0.0000000000000000000, -0.0000000000000000000, -1.000000000000000000 ) ) ;
#231 = AXIS2_PLACEMENT_3D ( 'NONE', #181, #176, #98 ) ;
#232 = DIRECTION ( 'NONE',  ( 1.000000000000000000, 0.0000000000000000000, 0.0000000000000000000 ) ) ;
#233 = APPROVAL ( #107, 'UNSPECIFIED' ) ;
#234 = LOCAL_TIME ( 10, 27, 35.00000000000000000, #56 ) ;
#235 = AXIS2_PLACEMENT_3D ( 'NONE', #291, #204, #99 ) ;
#236 = APPROVAL_ROLE ( '' ) ;
#237 = EDGE_LOOP ( 'NONE', ( #238, #225, #106 ) ) ;
#238 = ORIENTED_EDGE ( 'NONE', *, *, #201, .F. ) ;
#239 = CALENDAR_DATE ( 2019, 9, 1 ) ;
#240 = AXIS2_PLACEMENT_3D ( 'NONE', #243, #10, #220 ) ;
#241 = CARTESIAN_POINT ( 'NONE',  ( -4.256122277039813700, 6.426156738010346800, 0.1767924022591060600 ) ) ;
#242 = DIRECTION ( 'NONE',  ( 1.000000000000000000, -8.881784197001252300E-016, 0.0000000000000000000 ) ) ;
#243 = CARTESIAN_POINT ( 'NONE',  ( 2.498001805406600200E-016, 1.221245327087670000E-015, 1.870124379662720000 ) ) ;
#244 = AXIS2_PLACEMENT_3D ( 'NONE', #290, #122, #71 ) ;
#245 = CARTESIAN_POINT ( 'NONE',  ( -1.421085471520200700E-014, -2.143276023855536400, 2.044362293400556800 ) ) ;
#246 = LOCAL_TIME ( 10, 27, 35.00000000000000000, #123 ) ;
#247 = CARTESIAN_POINT ( 'NONE',  ( -4.256122277039748000, 6.426156738010347700, 1.823207597740884400 ) ) ;
#248 = CARTESIAN_POINT ( 'NONE',  ( 2.128286322469465900, 6.426156738010347700, 1.866989110372708800 ) ) ;
#249 = DIRECTION ( 'NONE',  ( 0.0000000000000000000, -1.000000000000000000, -3.574446312379770200E-016 ) ) ;
#250 = DIRECTION ( 'NONE',  ( 0.0000000000000000000, 0.0000000000000000000, 1.000000000000000000 ) ) ;
#251 = EDGE_LOOP ( 'NONE', ( #190, #277, #168, #150, #216, #50 ) ) ;
#252 = PERSON_AND_ORGANIZATION_ROLE ( 'design_owner' ) ;
#253 = DESIGN_CONTEXT ( 'detailed design', #1, 'design' ) ;
#254 = PERSON_AND_ORGANIZATION ( #53, #208 ) ;
#255 = EDGE_CURVE ( 'NONE', #108, #229, #286, .T. ) ;
#256 = VECTOR ( 'NONE', #159, 1000.000000000000000 ) ;
#257 = ORIENTED_EDGE ( 'NONE', *, *, #285, .T. ) ;
#258 = PRODUCT_DEFINITION_SHAPE ( 'NONE', 'NONE',  #209 ) ;
#259 = PRODUCT_DEFINITION_FORMATION_WITH_SPECIFIED_SOURCE ( 'ANY', '', #27, .NOT_KNOWN. ) ;
#260 = VERTEX_POINT ( 'NONE', #270 ) ;
#261 = ADVANCED_FACE ( 'NONE', ( #96 ), #87, .T. ) ;
#262 = CARTESIAN_POINT ( 'NONE',  ( -1.421085471520200100E-014, -6.426156738010306800, 0.1330108896273329800 ) ) ;
#263 = CARTESIAN_POINT ( 'NONE',  ( -1.421085471520200100E-014, 6.426156738010345900, 0.1330108896273052300 ) ) ;
#264 = CARTESIAN_POINT ( 'NONE',  ( 6.389903350893094500, 2.143276023855576400, 1.912886164485535100 ) ) ;
#265 = CARTESIAN_POINT ( 'NONE',  ( -1.421085471520200100E-014, -6.349999999999779400, 1.870124379662719400 ) ) ;
#266 = CC_DESIGN_PERSON_AND_ORGANIZATION_ASSIGNMENT ( #293, #252, ( #27 ) ) ;
#267 = CARTESIAN_POINT ( 'NONE',  ( 4.260987499726405200, -2.143276023855535900, 2.000530733614410900 ) ) ;
#268 = CARTESIAN_POINT ( 'NONE',  ( -6.382607318517900200, 6.426156738010346800, 1.735663101739661100 ) ) ;
#269 = CIRCLE ( 'NONE', #165, 6.349999999999999600 ) ;
#270 = CARTESIAN_POINT ( 'NONE',  ( -1.421085471520200100E-014, 6.349999999999830900, 0.1298756203372800300 ) ) ;
#271 = CIRCLE ( 'NONE', #24, 155.2999999999999800 ) ;
#272 = CARTESIAN_POINT ( 'NONE',  ( 2.498001805406600200E-016, 1.221245327087670000E-015, 1.870124379662720000 ) ) ;
#273 = APPROVAL_STATUS ( 'not_yet_approved' ) ;
#274 = CIRCLE ( 'NONE', #37, 6.349999999999999600 ) ;
#275 = APPLICATION_PROTOCOL_DEFINITION ( 'international standard', 'config_control_design', 1994, #144 ) ;
#276 = CC_DESIGN_PERSON_AND_ORGANIZATION_ASSIGNMENT ( #77, #54, ( #259 ) ) ;
#277 = ORIENTED_EDGE ( 'NONE', *, *, #255, .T. ) ;
#278 = CARTESIAN_POINT ( 'NONE',  ( 2.128286322469423700, -6.426156738010307700, 0.1330108896273329800 ) ) ;
#279 = CARTESIAN_POINT ( 'NONE',  ( 6.382607318517899300, -6.426156738010306800, 0.2643368982603684400 ) ) ;
#280 = CC_DESIGN_PERSON_AND_ORGANIZATION_ASSIGNMENT ( #166, #48, ( #209 ) ) ;
#281 = CARTESIAN_POINT ( 'NONE',  ( -4.260987499726432800, -2.143276023855537700, -0.0005307336144077710000 ) ) ;
#282 = ORIENTED_EDGE ( 'NONE', *, *, #184, .F. ) ;
#283 = CARTESIAN_POINT ( 'NONE',  ( 6.382607318517900200, 6.426156738010345900, 0.2643368982603407400 ) ) ;
#284 = CARTESIAN_POINT ( 'NONE',  ( -5.030698080332740600E-014, 6.426156738010345900, 0.1330108896272925400 ) ) ;
#285 = EDGE_CURVE ( 'NONE', #97, #229, #146, .T. ) ;
#286 = LINE ( 'NONE', #120, #200 ) ;
#287 = CARTESIAN_POINT ( 'NONE',  ( 6.382607318517950800, -6.426156738010305100, 1.735663101739642900 ) ) ;
#288 = APPROVAL_PERSON_ORGANIZATION ( #180, #233, #236 ) ;
#289 = ADVANCED_FACE ( 'NONE', ( #17 ), #223, .T. ) ;
#290 = CARTESIAN_POINT ( 'NONE',  ( 2.498001805406600200E-016, 1.221245327087670000E-015, 1.870124379662720000 ) ) ;
#291 = CARTESIAN_POINT ( 'NONE',  ( 2.498001805406600200E-016, 1.221245327087670000E-015, 0.1298756203372770100 ) ) ;
#292 = SECURITY_CLASSIFICATION ( '', '', #105 ) ;
#293 = PERSON_AND_ORGANIZATION ( #53, #208 ) ;
#294 =( NAMED_UNIT ( * ) SI_UNIT ( $, .STERADIAN. ) SOLID_ANGLE_UNIT ( ) );
#295 = APPROVAL_PERSON_ORGANIZATION ( #5, #83, #188 ) ;
ENDSEC;
END-ISO-10303-21;
