ISO-10303-21;
HEADER;
FILE_DESCRIPTION (( 'STEP AP203' ),
    '1' );
FILE_NAME ('111-0120E BK7 bi-cx 12.7 F75.STEP',
    '2019-01-09T07:21:43',
    ( '' ),
    ( '' ),
    'SwSTEP 2.0',
    'SolidWorks 2017',
    '' );
FILE_SCHEMA (( 'CONFIG_CONTROL_DESIGN' ));
ENDSEC;

DATA;
#1 = ADVANCED_FACE ( 'NONE', ( #129 ), #68, .T. ) ;
#2 = DIRECTION ( 'NONE',  ( 1.000000000000000000, 0.0000000000000000000, 0.0000000000000000000 ) ) ;
#3 = ADVANCED_FACE ( 'NONE', ( #205 ), #177, .T. ) ;
#4 = PERSON_AND_ORGANIZATION ( #237, #62 ) ;
#5 = VERTEX_POINT ( 'NONE', #57 ) ;
#6 = DIRECTION ( 'NONE',  ( -1.000000000000000000, 1.425280118127450000E-031, 3.795374404681199900E-016 ) ) ;
#7 = DATE_AND_TIME ( #222, #124 ) ;
#8 = ORIENTED_EDGE ( 'NONE', *, *, #29, .F. ) ;
#9 = CC_DESIGN_PERSON_AND_ORGANIZATION_ASSIGNMENT ( #279, #200, ( #122 ) ) ;
#10 = CARTESIAN_POINT ( 'NONE',  ( 2.125005192330111200, 6.426025389052644400, 0.2672864068495441900 ) ) ;
#11 = ORIENTED_EDGE ( 'NONE', *, *, #101, .T. ) ;
#12 = CARTESIAN_POINT ( 'NONE',  ( -6.395385617225882900, 2.146952472771346300, 2.324868095010662800 ) ) ;
#13 = CARTESIAN_POINT ( 'NONE',  ( -2.125005192330125400, 6.426025389052628400, 2.232713593150443400 ) ) ;
#14 = CARTESIAN_POINT ( 'NONE',  ( 2.498001805406600200E-016, 1.221245327087670000E-015, 0.2609887252176970000 ) ) ;
#15 = CARTESIAN_POINT ( 'NONE',  ( 2.216412479306195800E-014, 6.349999999999987200, 2.239011274782296600 ) ) ;
#16 = DIRECTION ( 'NONE',  ( 1.000000000000000000, 0.0000000000000000000, 0.0000000000000000000 ) ) ;
#17 = CARTESIAN_POINT ( 'NONE',  ( 2.125005192330175200, 6.426025389052628400, 2.232713593150448300 ) ) ;
#18 = CIRCLE ( 'NONE', #40, 6.349999999999999600 ) ;
#19 = DIRECTION ( 'NONE',  ( -0.0000000000000000000, -0.0000000000000000000, -1.000000000000000000 ) ) ;
#20 = CARTESIAN_POINT ( 'NONE',  ( 2.498001805406600200E-016, 1.221245327087670000E-015, 2.239011274782300100 ) ) ;
#21 = DIRECTION ( 'NONE',  ( 1.000000000000000000, 0.0000000000000000000, 0.0000000000000000000 ) ) ;
#22 = DIRECTION ( 'NONE',  ( -0.0000000000000000000, -0.0000000000000000000, -1.000000000000000000 ) ) ;
#23 = PERSON_AND_ORGANIZATION ( #237, #62 ) ;
#24 = DIRECTION ( 'NONE',  ( 1.000000000000000000, 0.0000000000000000000, 0.0000000000000000000 ) ) ;
#25 = CARTESIAN_POINT ( 'NONE',  ( -6.395385617225868700, -2.146952472771333400, 0.1751319049893196300 ) ) ;
#26 = CIRCLE ( 'NONE', #55, 6.349999999999999600 ) ;
#27 = ORIENTED_EDGE ( 'NONE', *, *, #218, .F. ) ;
#28 = CC_DESIGN_DATE_AND_TIME_ASSIGNMENT ( #284, #145, ( #287 ) ) ;
#29 = EDGE_CURVE ( 'NONE', #60, #280, #183, .T. ) ;
#30 = ORIENTED_EDGE ( 'NONE', *, *, #108, .T. ) ;
#31 = CARTESIAN_POINT ( 'NONE',  ( 6.365947960557409900, 6.426025389052640900, 0.5305022510704602300 ) ) ;
#32 = LOCAL_TIME ( 9, 21, 43.00000000000000000, #104 ) ;
#33 = CIRCLE ( 'NONE', #99, 77.37999999999999500 ) ;
#34 = DIRECTION ( 'NONE',  ( -0.0000000000000000000, -0.0000000000000000000, -1.000000000000000000 ) ) ;
#35 = AXIS2_PLACEMENT_3D ( 'NONE', #151, #134, #109 ) ;
#36 = CARTESIAN_POINT ( 'NONE',  ( 6.349999999999999600, 1.221245327087670000E-015, 2.239011274782300100 ) ) ;
#37 = AXIS2_PLACEMENT_3D ( 'NONE', #292, #92, #2 ) ;
#38 = MANIFOLD_SOLID_BREP ( 'Imported1', #236 ) ;
#39 = ORIENTED_EDGE ( 'NONE', *, *, #204, .F. ) ;
#40 = AXIS2_PLACEMENT_3D ( 'NONE', #114, #64, #154 ) ;
#41 = CARTESIAN_POINT ( 'NONE',  ( 3.903127820947816000E-014, 6.426025389052626700, 2.232713593150449600 ) ) ;
#42 = DIRECTION ( 'NONE',  ( -3.755308346837952700E-016, -1.000000000000000000, -3.586918533940154500E-016 ) ) ;
#43 = LOCAL_TIME ( 9, 21, 43.00000000000000000, #78 ) ;
#44 = ADVANCED_FACE ( 'NONE', ( #273 ), #192, .T. ) ;
#45 = EDGE_CURVE ( 'NONE', #143, #76, #47, .T. ) ;
#46 = APPLICATION_CONTEXT ( 'configuration controlled 3d designs of mechanical parts and assemblies' ) ;
#47 = CIRCLE ( 'NONE', #97, 6.349999999999999600 ) ;
#48 = ORIENTED_EDGE ( 'NONE', *, *, #218, .T. ) ;
#49 = EDGE_CURVE ( 'NONE', #184, #143, #18, .T. ) ;
#50 = APPROVAL_DATE_TIME ( #141, #262 ) ;
#51 = APPROVAL_STATUS ( 'not_yet_approved' ) ;
#52 = PERSON_AND_ORGANIZATION_ROLE ( 'design_supplier' ) ;
#53 = APPROVAL_PERSON_ORGANIZATION ( #121, #262, #230 ) ;
#54 = EDGE_LOOP ( 'NONE', ( #294, #167, #8, #164, #224, #110 ) ) ;
#55 = AXIS2_PLACEMENT_3D ( 'NONE', #152, #19, #137 ) ;
#56 = CARTESIAN_POINT ( 'NONE',  ( 4.248196241871351500, -6.426025389052624000, 0.3550749857084791700 ) ) ;
#57 = CARTESIAN_POINT ( 'NONE',  ( -6.349999999999999600, 1.998896044546239400E-015, 0.2609887252176970000 ) ) ;
#58 = PERSON_AND_ORGANIZATION ( #237, #62 ) ;
#59 = CARTESIAN_POINT ( 'NONE',  ( 6.349999999999999600, 1.221245327087670000E-015, 0.2609887252176970000 ) ) ;
#60 = VERTEX_POINT ( 'NONE', #59 ) ;
#61 = CARTESIAN_POINT ( 'NONE',  ( 2.216173458709452300E-014, 6.426025389052626700, 2.232713593150442900 ) ) ;
#62 = ORGANIZATION ( 'UNSPECIFIED', 'UNSPECIFIED', '' ) ;
#63 = ORIENTED_EDGE ( 'NONE', *, *, #248, .T. ) ;
#64 = DIRECTION ( 'NONE',  ( -0.0000000000000000000, -0.0000000000000000000, -1.000000000000000000 ) ) ;
#65 = CARTESIAN_POINT ( 'NONE',  ( 2.498001805406600200E-016, 1.221245327087670000E-015, 2.239011274782300100 ) ) ;
#66 = COORDINATED_UNIVERSAL_TIME_OFFSET ( 2, 0, .AHEAD. ) ;
#67 = CARTESIAN_POINT ( 'NONE',  ( -6.365947960557395600, -6.426025389052618700, 0.5305022510704582300 ) ) ;
#68 =( BOUNDED_SURFACE ( )  B_SPLINE_SURFACE ( 3, 3, ( 
 ( #188, #211, #56, #169 ),
 ( #288, #189, #286, #245 ),
 ( #266, #106, #244, #267 ),
 ( #102, #10, #285, #31 ) ),
 .UNSPECIFIED., .F., .F., .F. ) 
 B_SPLINE_SURFACE_WITH_KNOTS ( ( 4, 4 ),
 ( 4, 4 ),
 ( 0.0000000000000000000, 1.000000000000000000 ),
 ( 0.0000000000000000000, 1.000000000000000000 ),
 .UNSPECIFIED. ) 
 GEOMETRIC_REPRESENTATION_ITEM ( )  RATIONAL_B_SPLINE_SURFACE ( (
 ( 1.000000000000000000, 0.9994308585549314100, 0.9994308585549314100, 1.000000000000000000),
 ( 0.9976971964603296200, 0.9971293656361952500, 0.9971293656361952500, 0.9976971964603296200),
 ( 0.9976971964603296200, 0.9971293656361952500, 0.9971293656361952500, 0.9976971964603296200),
 ( 1.000000000000000000, 0.9994308585549314100, 0.9994308585549314100, 1.000000000000000000) ) ) 
 REPRESENTATION_ITEM ( '' )  SURFACE ( )  );
#69 = PERSON_AND_ORGANIZATION_ROLE ( 'design_owner' ) ;
#70 = PRODUCT_DEFINITION_FORMATION_WITH_SPECIFIED_SOURCE ( 'ANY', '', #232, .NOT_KNOWN. ) ;
#71 = MECHANICAL_CONTEXT ( 'NONE', #46, 'mechanical' ) ;
#72 = CARTESIAN_POINT ( 'NONE',  ( -6.395385617225867800, 2.146952472771360000, 0.1751319049893199600 ) ) ;
#73 = AXIS2_PLACEMENT_3D ( 'NONE', #269, #103, #212 ) ;
#74 = PERSON_AND_ORGANIZATION_ROLE ( 'creator' ) ;
#75 = FACE_OUTER_BOUND ( 'NONE', #259, .T. ) ;
#76 = VERTEX_POINT ( 'NONE', #249 ) ;
#77 = EDGE_CURVE ( 'NONE', #176, #60, #26, .T. ) ;
#78 = COORDINATED_UNIVERSAL_TIME_OFFSET ( 2, 0, .AHEAD. ) ;
#79 = ADVANCED_BREP_SHAPE_REPRESENTATION ( '111-0120E BK7 bi-cx 12.7 F75', ( #38, #173 ), #239 ) ;
#80 = EDGE_LOOP ( 'NONE', ( #206, #126, #105 ) ) ;
#81 = CARTESIAN_POINT ( 'NONE',  ( 2.229707290125083400E-014, -2.146952472771340900, 2.589301111866337400 ) ) ;
#82 = DATE_AND_TIME ( #202, #32 ) ;
#83 = CARTESIAN_POINT ( 'NONE',  ( -6.365947960557407200, -6.426025389052621300, 1.969497748929526200 ) ) ;
#84 = CIRCLE ( 'NONE', #35, 6.349999999999999600 ) ;
#85 = DIRECTION ( 'NONE',  ( -0.0000000000000000000, -0.0000000000000000000, -1.000000000000000000 ) ) ;
#86 = CARTESIAN_POINT ( 'NONE',  ( 3.903127820947814700E-014, -2.146952472771340900, 2.589301111866344000 ) ) ;
#87 = CARTESIAN_POINT ( 'NONE',  ( 4.248196241871402100, -6.426025389052622200, 2.144925014291510800 ) ) ;
#88 = CARTESIAN_POINT ( 'NONE',  ( -4.480732760187201300E-014, 6.349999999999987200, 0.2609887252176961200 ) ) ;
#89 = CARTESIAN_POINT ( 'NONE',  ( -6.938893903907228400E-014, -6.426025389052621300, 0.2672864068495395300 ) ) ;
#90 = APPLICATION_CONTEXT ( 'configuration controlled 3d designs of mechanical parts and assemblies' ) ;
#91 = LOCAL_TIME ( 9, 21, 43.00000000000000000, #293 ) ;
#92 = DIRECTION ( 'NONE',  ( 0.0000000000000000000, 0.0000000000000000000, 1.000000000000000000 ) ) ;
#93 = CARTESIAN_POINT ( 'NONE',  ( -2.134831721490979100, -2.146952472771334700, -0.08930111186635411600 ) ) ;
#94 = VERTEX_POINT ( 'NONE', #291 ) ;
#95 = AXIS2_PLACEMENT_3D ( 'NONE', #227, #6, #253 ) ;
#96 = DATE_TIME_ROLE ( 'creation_date' ) ;
#97 = AXIS2_PLACEMENT_3D ( 'NONE', #65, #85, #174 ) ;
#98 = APPROVAL_DATE_TIME ( #166, #113 ) ;
#99 = AXIS2_PLACEMENT_3D ( 'NONE', #278, #155, #42 ) ;
#100 = EDGE_LOOP ( 'NONE', ( #27, #215, #195 ) ) ;
#101 = EDGE_CURVE ( 'NONE', #94, #184, #265, .T. ) ;
#102 = CARTESIAN_POINT ( 'NONE',  ( -4.477434369955650100E-014, 6.426025389052643500, 0.2672864068495456300 ) ) ;
#103 = DIRECTION ( 'NONE',  ( 0.0000000000000000000, 0.0000000000000000000, 1.000000000000000000 ) ) ;
#104 = COORDINATED_UNIVERSAL_TIME_OFFSET ( 2, 0, .AHEAD. ) ;
#105 = ORIENTED_EDGE ( 'NONE', *, *, #77, .T. ) ;
#106 = CARTESIAN_POINT ( 'NONE',  ( 2.134831721490907600, 2.146952472771357400, -0.08930111186635129900 ) ) ;
#107 = EDGE_CURVE ( 'NONE', #280, #5, #84, .T. ) ;
#108 = EDGE_CURVE ( 'NONE', #5, #94, #132, .T. ) ;
#109 = DIRECTION ( 'NONE',  ( 1.000000000000000000, 0.0000000000000000000, 0.0000000000000000000 ) ) ;
#110 = ORIENTED_EDGE ( 'NONE', *, *, #201, .T. ) ;
#111 = CARTESIAN_POINT ( 'NONE',  ( 6.395385617225909600, 2.146952472771346300, 2.324868095010666800 ) ) ;
#112 = CARTESIAN_POINT ( 'NONE',  ( 6.365947960557434700, -6.426025389052621300, 1.969497748929530000 ) ) ;
#113 = APPROVAL ( #234, 'UNSPECIFIED' ) ;
#114 = CARTESIAN_POINT ( 'NONE',  ( 2.498001805406600200E-016, 1.221245327087670000E-015, 2.239011274782300100 ) ) ;
#115 = CALENDAR_DATE ( 2019, 9, 1 ) ;
#116 = ADVANCED_FACE ( 'NONE', ( #264 ), #223, .T. ) ;
#117 = ORIENTED_EDGE ( 'NONE', *, *, #201, .F. ) ;
#118 = CARTESIAN_POINT ( 'NONE',  ( -2.125005192330176900, 6.426025389052646200, 0.2672864068495415800 ) ) ;
#119 = CARTESIAN_POINT ( 'NONE',  ( -6.765421556309546400E-014, -2.146952472771335600, -0.08930111186635614200 ) ) ;
#120 = CARTESIAN_POINT ( 'NONE',  ( -4.248196241871379000, 6.426025389052647100, 0.3550749857084807800 ) ) ;
#121 = PERSON_AND_ORGANIZATION ( #237, #62 ) ;
#122 = PRODUCT_DEFINITION ( 'UNKNOWN', '', #70, #260 ) ;
#123 = PERSON_AND_ORGANIZATION_ROLE ( 'classification_officer' ) ;
#124 = LOCAL_TIME ( 9, 21, 43.00000000000000000, #66 ) ;
#125 = ORIENTED_EDGE ( 'NONE', *, *, #49, .T. ) ;
#126 = ORIENTED_EDGE ( 'NONE', *, *, #241, .T. ) ;
#127 = FACE_OUTER_BOUND ( 'NONE', #251, .T. ) ;
#128 = CARTESIAN_POINT ( 'NONE',  ( -2.134831721490924500, 2.146952472771346700, 2.589301111866337800 ) ) ;
#129 = FACE_OUTER_BOUND ( 'NONE', #80, .T. ) ;
#130 = DIRECTION ( 'NONE',  ( 1.000000000000000000, 0.0000000000000000000, 0.0000000000000000000 ) ) ;
#131 =( BOUNDED_SURFACE ( )  B_SPLINE_SURFACE ( 3, 3, ( 
 ( #67, #254, #255, #89 ),
 ( #25, #198, #93, #119 ),
 ( #72, #181, #277, #256 ),
 ( #161, #120, #118, #142 ) ),
 .UNSPECIFIED., .F., .F., .F. ) 
 B_SPLINE_SURFACE_WITH_KNOTS ( ( 4, 4 ),
 ( 4, 4 ),
 ( 0.0000000000000000000, 1.000000000000000000 ),
 ( 0.0000000000000000000, 1.000000000000000000 ),
 .UNSPECIFIED. ) 
 GEOMETRIC_REPRESENTATION_ITEM ( )  RATIONAL_B_SPLINE_SURFACE ( (
 ( 1.000000000000000000, 0.9994308585549314100, 0.9994308585549314100, 1.000000000000000000),
 ( 0.9976971964603296200, 0.9971293656361952500, 0.9971293656361952500, 0.9976971964603296200),
 ( 0.9976971964603296200, 0.9971293656361952500, 0.9971293656361952500, 0.9976971964603296200),
 ( 1.000000000000000000, 0.9994308585549314100, 0.9994308585549314100, 1.000000000000000000) ) ) 
 REPRESENTATION_ITEM ( '' )  SURFACE ( )  );
#132 = LINE ( 'NONE', #219, #247 ) ;
#133 = DIRECTION ( 'NONE',  ( 0.0000000000000000000, 0.0000000000000000000, 1.000000000000000000 ) ) ;
#134 = DIRECTION ( 'NONE',  ( -0.0000000000000000000, -0.0000000000000000000, -1.000000000000000000 ) ) ;
#135 = AXIS2_PLACEMENT_3D ( 'NONE', #172, #250, #16 ) ;
#136 = CARTESIAN_POINT ( 'NONE',  ( 2.134831721490972900, 2.146952472771346700, 2.589301111866342300 ) ) ;
#137 = DIRECTION ( 'NONE',  ( 1.000000000000000000, 0.0000000000000000000, 0.0000000000000000000 ) ) ;
#138 = ORIENTED_EDGE ( 'NONE', *, *, #101, .F. ) ;
#139 = CC_DESIGN_PERSON_AND_ORGANIZATION_ASSIGNMENT ( #190, #52, ( #70 ) ) ;
#140 = APPROVAL_STATUS ( 'not_yet_approved' ) ;
#141 = DATE_AND_TIME ( #115, #43 ) ;
#142 = CARTESIAN_POINT ( 'NONE',  ( -6.418476861114186200E-014, 6.426025389052643500, 0.2672864068495395300 ) ) ;
#143 = VERTEX_POINT ( 'NONE', #36 ) ;
#144 = CC_DESIGN_APPROVAL ( #113, ( #70 ) ) ;
#145 = DATE_TIME_ROLE ( 'classification_date' ) ;
#146 = AXIS2_PLACEMENT_3D ( 'NONE', #20, #221, #24 ) ;
#147 = CARTESIAN_POINT ( 'NONE',  ( 2.216173458709452300E-014, -6.426025389052621300, 2.232713593150442900 ) ) ;
#148 = CARTESIAN_POINT ( 'NONE',  ( -4.267840911165448500, 2.146952472771346700, 2.501106577749852900 ) ) ;
#149 = APPROVAL_DATE_TIME ( #82, #233 ) ;
#150 = CARTESIAN_POINT ( 'NONE',  ( -4.267840911165448500, -2.146952472771340900, 2.501106577749853800 ) ) ;
#151 = CARTESIAN_POINT ( 'NONE',  ( 2.498001805406600200E-016, 1.221245327087670000E-015, 0.2609887252176970000 ) ) ;
#152 = CARTESIAN_POINT ( 'NONE',  ( 2.498001805406600200E-016, 1.221245327087670000E-015, 0.2609887252176970000 ) ) ;
#153 = CARTESIAN_POINT ( 'NONE',  ( 2.134831721490972900, -2.146952472771340900, 2.589301111866343200 ) ) ;
#154 = DIRECTION ( 'NONE',  ( 1.000000000000000000, 0.0000000000000000000, 0.0000000000000000000 ) ) ;
#155 = DIRECTION ( 'NONE',  ( 1.000000000000000000, -3.755308346837950200E-016, -7.040725089984420400E-016 ) ) ;
#156 = CALENDAR_DATE ( 2019, 9, 1 ) ;
#157 = ORIENTED_EDGE ( 'NONE', *, *, #77, .F. ) ;
#158 = CARTESIAN_POINT ( 'NONE',  ( 2.498001805406600200E-016, 1.221245327087670000E-015, 0.2609887252176970000 ) ) ;
#159 =( LENGTH_UNIT ( ) NAMED_UNIT ( * ) SI_UNIT ( .MILLI., .METRE. ) );
#160 = CARTESIAN_POINT ( 'NONE',  ( -4.957656920235619600E-014, -6.349999999999972100, 0.2609887252176961200 ) ) ;
#161 = CARTESIAN_POINT ( 'NONE',  ( -6.365947960557391200, 6.426025389052646200, 0.5305022510704582300 ) ) ;
#162 = EDGE_LOOP ( 'NONE', ( #117, #48, #138 ) ) ;
#163 = APPROVAL_PERSON_ORGANIZATION ( #243, #233, #182 ) ;
#164 = ORIENTED_EDGE ( 'NONE', *, *, #204, .T. ) ;
#165 = ORIENTED_EDGE ( 'NONE', *, *, #248, .F. ) ;
#166 = DATE_AND_TIME ( #156, #275 ) ;
#167 = ORIENTED_EDGE ( 'NONE', *, *, #107, .F. ) ;
#168 = CARTESIAN_POINT ( 'NONE',  ( -6.365947960557408100, 6.426025389052626700, 1.969497748929526200 ) ) ;
#169 = CARTESIAN_POINT ( 'NONE',  ( 6.365947960557404500, -6.426025389052624000, 0.5305022510704602300 ) ) ;
#170 = CARTESIAN_POINT ( 'NONE',  ( 6.349999999999999600, 1.221245327087670000E-015, 0.2609887252176970000 ) ) ;
#171 = ORIENTED_EDGE ( 'NONE', *, *, #241, .F. ) ;
#172 = CARTESIAN_POINT ( 'NONE',  ( 2.498001805406600200E-016, 1.221245327087670000E-015, 2.239011274782300100 ) ) ;
#173 = AXIS2_PLACEMENT_3D ( 'NONE', #178, #225, #197 ) ;
#174 = DIRECTION ( 'NONE',  ( 1.000000000000000000, 0.0000000000000000000, 0.0000000000000000000 ) ) ;
#175 = CARTESIAN_POINT ( 'NONE',  ( 6.365947960557434700, 6.426025389052626700, 1.969497748929530000 ) ) ;
#176 = VERTEX_POINT ( 'NONE', #88 ) ;
#177 = CYLINDRICAL_SURFACE ( 'NONE', #73, 6.349999999999999600 ) ;
#178 = CARTESIAN_POINT ( 'NONE',  ( 0.0000000000000000000, 0.0000000000000000000, 0.0000000000000000000 ) ) ;
#179 =( NAMED_UNIT ( * ) SI_UNIT ( $, .STERADIAN. ) SOLID_ANGLE_UNIT ( ) );
#180 = SHAPE_DEFINITION_REPRESENTATION ( #217, #79 ) ;
#181 = CARTESIAN_POINT ( 'NONE',  ( -4.267840911165467200, 2.146952472771360000, -0.001106577749867003600 ) ) ;
#182 = APPROVAL_ROLE ( '' ) ;
#183 = CIRCLE ( 'NONE', #282, 6.349999999999999600 ) ;
#184 = VERTEX_POINT ( 'NONE', #15 ) ;
#185 = CC_DESIGN_DATE_AND_TIME_ASSIGNMENT ( #7, #96, ( #122 ) ) ;
#186 = CARTESIAN_POINT ( 'NONE',  ( -4.248196241871362100, -6.426025389052622200, 2.144925014291507300 ) ) ;
#187 = ORIENTED_EDGE ( 'NONE', *, *, #107, .T. ) ;
#188 = CARTESIAN_POINT ( 'NONE',  ( -4.960068505565688900E-014, -6.426025389052621300, 0.2672864068495456300 ) ) ;
#189 = CARTESIAN_POINT ( 'NONE',  ( 2.134831721490906300, -2.146952472771336500, -0.08930111186635157600 ) ) ;
#190 = PERSON_AND_ORGANIZATION ( #237, #62 ) ;
#191 = CYLINDRICAL_SURFACE ( 'NONE', #37, 6.349999999999999600 ) ;
#192 =( BOUNDED_SURFACE ( )  B_SPLINE_SURFACE ( 3, 3, ( 
 ( #147, #207, #186, #83 ),
 ( #81, #242, #150, #209 ),
 ( #240, #128, #148, #12 ),
 ( #61, #13, #283, #168 ) ),
 .UNSPECIFIED., .F., .F., .F. ) 
 B_SPLINE_SURFACE_WITH_KNOTS ( ( 4, 4 ),
 ( 4, 4 ),
 ( 0.0000000000000000000, 1.000000000000000000 ),
 ( 0.0000000000000000000, 1.000000000000000000 ),
 .UNSPECIFIED. ) 
 GEOMETRIC_REPRESENTATION_ITEM ( )  RATIONAL_B_SPLINE_SURFACE ( (
 ( 1.000000000000000000, 0.9994308585549314100, 0.9994308585549314100, 1.000000000000000000),
 ( 0.9976971964603296200, 0.9971293656361952500, 0.9971293656361952500, 0.9976971964603296200),
 ( 0.9976971964603296200, 0.9971293656361952500, 0.9971293656361952500, 0.9976971964603296200),
 ( 1.000000000000000000, 0.9994308585549314100, 0.9994308585549314100, 1.000000000000000000) ) ) 
 REPRESENTATION_ITEM ( '' )  SURFACE ( )  );
#193 = CARTESIAN_POINT ( 'NONE',  ( 4.267840911165487600, -2.146952472771340900, 2.501106577749857800 ) ) ;
#194 = CIRCLE ( 'NONE', #146, 6.349999999999999600 ) ;
#195 = ORIENTED_EDGE ( 'NONE', *, *, #49, .F. ) ;
#196 = APPLICATION_PROTOCOL_DEFINITION ( 'international standard', 'config_control_design', 1994, #46 ) ;
#197 = DIRECTION ( 'NONE',  ( 1.000000000000000000, 0.0000000000000000000, 0.0000000000000000000 ) ) ;
#198 = CARTESIAN_POINT ( 'NONE',  ( -4.267840911165468900, -2.146952472771333800, -0.001106577749867328900 ) ) ;
#199 = CC_DESIGN_PERSON_AND_ORGANIZATION_ASSIGNMENT ( #23, #74, ( #70 ) ) ;
#200 = PERSON_AND_ORGANIZATION_ROLE ( 'creator' ) ;
#201 = EDGE_CURVE ( 'NONE', #76, #94, #194, .T. ) ;
#202 = CALENDAR_DATE ( 2019, 9, 1 ) ;
#203 = CIRCLE ( 'NONE', #208, 6.349999999999999600 ) ;
#204 = EDGE_CURVE ( 'NONE', #60, #143, #238, .T. ) ;
#205 = FACE_OUTER_BOUND ( 'NONE', #54, .T. ) ;
#206 = ORIENTED_EDGE ( 'NONE', *, *, #29, .T. ) ;
#207 = CARTESIAN_POINT ( 'NONE',  ( -2.125005192330125400, -6.426025389052622200, 2.232713593150443400 ) ) ;
#208 = AXIS2_PLACEMENT_3D ( 'NONE', #158, #22, #21 ) ;
#209 = CARTESIAN_POINT ( 'NONE',  ( -6.395385617225882900, -2.146952472771340900, 2.324868095010663700 ) ) ;
#210 = APPROVAL_PERSON_ORGANIZATION ( #58, #113, #261 ) ;
#211 = CARTESIAN_POINT ( 'NONE',  ( 2.125005192330106300, -6.426025389052623100, 0.2672864068495441900 ) ) ;
#212 = DIRECTION ( 'NONE',  ( 1.000000000000000000, 0.0000000000000000000, 0.0000000000000000000 ) ) ;
#213 = CARTESIAN_POINT ( 'NONE',  ( 3.903127820947814700E-014, 2.146952472771346300, 2.589301111866343200 ) ) ;
#214 = ADVANCED_FACE ( 'NONE', ( #127 ), #191, .T. ) ;
#215 = ORIENTED_EDGE ( 'NONE', *, *, #45, .F. ) ;
#216 = CC_DESIGN_PERSON_AND_ORGANIZATION_ASSIGNMENT ( #268, #123, ( #287 ) ) ;
#217 = PRODUCT_DEFINITION_SHAPE ( 'NONE', 'NONE',  #122 ) ;
#218 = EDGE_CURVE ( 'NONE', #76, #184, #257, .T. ) ;
#219 = CARTESIAN_POINT ( 'NONE',  ( -6.349999999999999600, 1.998896044546239400E-015, 0.2609887252176970000 ) ) ;
#220 = ADVANCED_FACE ( 'NONE', ( #75 ), #131, .T. ) ;
#221 = DIRECTION ( 'NONE',  ( -0.0000000000000000000, -0.0000000000000000000, -1.000000000000000000 ) ) ;
#222 = CALENDAR_DATE ( 2019, 9, 1 ) ;
#223 =( BOUNDED_SURFACE ( )  B_SPLINE_SURFACE ( 3, 3, ( 
 ( #112, #87, #290, #246 ),
 ( #289, #193, #153, #86 ),
 ( #111, #272, #136, #213 ),
 ( #175, #270, #17, #41 ) ),
 .UNSPECIFIED., .F., .F., .F. ) 
 B_SPLINE_SURFACE_WITH_KNOTS ( ( 4, 4 ),
 ( 4, 4 ),
 ( 0.0000000000000000000, 1.000000000000000000 ),
 ( 0.0000000000000000000, 1.000000000000000000 ),
 .UNSPECIFIED. ) 
 GEOMETRIC_REPRESENTATION_ITEM ( )  RATIONAL_B_SPLINE_SURFACE ( (
 ( 1.000000000000000000, 0.9994308585549314100, 0.9994308585549314100, 1.000000000000000000),
 ( 0.9976971964603296200, 0.9971293656361952500, 0.9971293656361952500, 0.9976971964603296200),
 ( 0.9976971964603296200, 0.9971293656361952500, 0.9971293656361952500, 0.9976971964603296200),
 ( 1.000000000000000000, 0.9994308585549314100, 0.9994308585549314100, 1.000000000000000000) ) ) 
 REPRESENTATION_ITEM ( '' )  SURFACE ( )  );
#224 = ORIENTED_EDGE ( 'NONE', *, *, #45, .T. ) ;
#225 = DIRECTION ( 'NONE',  ( 0.0000000000000000000, 0.0000000000000000000, 1.000000000000000000 ) ) ;
#226 = CC_DESIGN_SECURITY_CLASSIFICATION ( #287, ( #70 ) ) ;
#227 = CARTESIAN_POINT ( 'NONE',  ( -7.105427357601000300E-015, 1.421085471520200100E-014, -74.87999999999999500 ) ) ;
#228 = APPLICATION_PROTOCOL_DEFINITION ( 'international standard', 'config_control_design', 1994, #90 ) ;
#229 = VECTOR ( 'NONE', #271, 1000.000000000000000 ) ;
#230 = APPROVAL_ROLE ( '' ) ;
#231 = UNCERTAINTY_MEASURE_WITH_UNIT (LENGTH_MEASURE( 1.000000000000000100E-005 ), #159, 'distance_accuracy_value', 'NONE');
#232 = PRODUCT ( '111-0120E BK7 bi-cx 12.7 F75', '111-0120E BK7 bi-cx 12.7 F75', '', ( #71 ) ) ;
#233 = APPROVAL ( #51, 'UNSPECIFIED' ) ;
#234 = APPROVAL_STATUS ( 'not_yet_approved' ) ;
#235 = CALENDAR_DATE ( 2019, 9, 1 ) ;
#236 = CLOSED_SHELL ( 'NONE', ( #1, #44, #214, #220, #3, #116 ) ) ;
#237 = PERSON ( 'UNSPECIFIED', 'UNSPECIFIED', 'UNSPECIFIED', ('UNSPECIFIED'), ('UNSPECIFIED'), ('UNSPECIFIED') ) ;
#238 = LINE ( 'NONE', #170, #229 ) ;
#239 =( GEOMETRIC_REPRESENTATION_CONTEXT ( 3 ) GLOBAL_UNCERTAINTY_ASSIGNED_CONTEXT ( ( #231 ) ) GLOBAL_UNIT_ASSIGNED_CONTEXT ( ( #159, #295, #179 ) ) REPRESENTATION_CONTEXT ( 'NONE', 'WORKASPACE' ) );
#240 = CARTESIAN_POINT ( 'NONE',  ( 2.229707290125083400E-014, 2.146952472771346300, 2.589301111866336500 ) ) ;
#241 = EDGE_CURVE ( 'NONE', #280, #176, #33, .T. ) ;
#242 = CARTESIAN_POINT ( 'NONE',  ( -2.134831721490924500, -2.146952472771340900, 2.589301111866338700 ) ) ;
#243 = PERSON_AND_ORGANIZATION ( #237, #62 ) ;
#244 = CARTESIAN_POINT ( 'NONE',  ( 4.267840911165439600, 2.146952472771356500, -0.001106577749868629900 ) ) ;
#245 = CARTESIAN_POINT ( 'NONE',  ( 6.395385617225881200, -2.146952472771338300, 0.1751319049893215500 ) ) ;
#246 = CARTESIAN_POINT ( 'NONE',  ( 3.903127820947816000E-014, -6.426025389052621300, 2.232713593150449600 ) ) ;
#247 = VECTOR ( 'NONE', #133, 1000.000000000000000 ) ;
#248 = EDGE_CURVE ( 'NONE', #5, #176, #203, .T. ) ;
#249 = CARTESIAN_POINT ( 'NONE',  ( 2.216412479306195800E-014, -6.349999999999972100, 2.239011274782296600 ) ) ;
#250 = DIRECTION ( 'NONE',  ( -0.0000000000000000000, -0.0000000000000000000, -1.000000000000000000 ) ) ;
#251 = EDGE_LOOP ( 'NONE', ( #165, #30, #11, #125, #39, #157 ) ) ;
#252 = CC_DESIGN_PERSON_AND_ORGANIZATION_ASSIGNMENT ( #4, #69, ( #232 ) ) ;
#253 = DIRECTION ( 'NONE',  ( 0.0000000000000000000, -1.000000000000000000, 3.586918533940154500E-016 ) ) ;
#254 = CARTESIAN_POINT ( 'NONE',  ( -4.248196241871384300, -6.426025389052620400, 0.3550749857084807800 ) ) ;
#255 = CARTESIAN_POINT ( 'NONE',  ( -2.125005192330182300, -6.426025389052621300, 0.2672864068495416400 ) ) ;
#256 = CARTESIAN_POINT ( 'NONE',  ( -6.591949208711865700E-014, 2.146952472771357400, -0.08930111186635592000 ) ) ;
#257 = CIRCLE ( 'NONE', #95, 77.37999999999999500 ) ;
#258 = SECURITY_CLASSIFICATION_LEVEL ( 'unclassified' ) ;
#259 = EDGE_LOOP ( 'NONE', ( #171, #187, #63 ) ) ;
#260 = DESIGN_CONTEXT ( 'detailed design', #90, 'design' ) ;
#261 = APPROVAL_ROLE ( '' ) ;
#262 = APPROVAL ( #140, 'UNSPECIFIED' ) ;
#263 = COORDINATED_UNIVERSAL_TIME_OFFSET ( 2, 0, .AHEAD. ) ;
#264 = FACE_OUTER_BOUND ( 'NONE', #100, .T. ) ;
#265 = CIRCLE ( 'NONE', #135, 6.349999999999999600 ) ;
#266 = CARTESIAN_POINT ( 'NONE',  ( -4.663233099246025900E-014, 2.146952472771357400, -0.08930111186634978600 ) ) ;
#267 = CARTESIAN_POINT ( 'NONE',  ( 6.395385617225882900, 2.146952472771354700, 0.1751319049893218200 ) ) ;
#268 = PERSON_AND_ORGANIZATION ( #237, #62 ) ;
#269 = CARTESIAN_POINT ( 'NONE',  ( 2.498001805406600200E-016, 1.221245327087670000E-015, 0.2609887252176970000 ) ) ;
#270 = CARTESIAN_POINT ( 'NONE',  ( 4.248196241871402100, 6.426025389052628400, 2.144925014291510800 ) ) ;
#271 = DIRECTION ( 'NONE',  ( 0.0000000000000000000, 0.0000000000000000000, 1.000000000000000000 ) ) ;
#272 = CARTESIAN_POINT ( 'NONE',  ( 4.267840911165487600, 2.146952472771346700, 2.501106577749856900 ) ) ;
#273 = FACE_OUTER_BOUND ( 'NONE', #162, .T. ) ;
#274 = CC_DESIGN_APPROVAL ( #233, ( #287 ) ) ;
#275 = LOCAL_TIME ( 9, 21, 43.00000000000000000, #263 ) ;
#276 = CC_DESIGN_APPROVAL ( #262, ( #122 ) ) ;
#277 = CARTESIAN_POINT ( 'NONE',  ( -2.134831721490977800, 2.146952472771359100, -0.08930111186635390800 ) ) ;
#278 = CARTESIAN_POINT ( 'NONE',  ( 7.105427357601000300E-015, 1.421085471520200100E-014, 77.37999999999999500 ) ) ;
#279 = PERSON_AND_ORGANIZATION ( #237, #62 ) ;
#280 = VERTEX_POINT ( 'NONE', #160 ) ;
#281 = PRODUCT_RELATED_PRODUCT_CATEGORY ( 'detail', '', ( #232 ) ) ;
#282 = AXIS2_PLACEMENT_3D ( 'NONE', #14, #34, #130 ) ;
#283 = CARTESIAN_POINT ( 'NONE',  ( -4.248196241871363000, 6.426025389052628400, 2.144925014291507300 ) ) ;
#284 = DATE_AND_TIME ( #235, #91 ) ;
#285 = CARTESIAN_POINT ( 'NONE',  ( 4.248196241871356800, 6.426025389052643500, 0.3550749857084791700 ) ) ;
#286 = CARTESIAN_POINT ( 'NONE',  ( 4.267840911165437800, -2.146952472771337400, -0.001106577749868901400 ) ) ;
#287 = SECURITY_CLASSIFICATION ( '', '', #258 ) ;
#288 = CARTESIAN_POINT ( 'NONE',  ( -4.824482470071277400E-014, -2.146952472771335600, -0.08930111186635006400 ) ) ;
#289 = CARTESIAN_POINT ( 'NONE',  ( 6.395385617225909600, -2.146952472771340900, 2.324868095010667700 ) ) ;
#290 = CARTESIAN_POINT ( 'NONE',  ( 2.125005192330175200, -6.426025389052622200, 2.232713593150448300 ) ) ;
#291 = CARTESIAN_POINT ( 'NONE',  ( -6.349999999999999600, 1.998896044546239400E-015, 2.239011274782300100 ) ) ;
#292 = CARTESIAN_POINT ( 'NONE',  ( 2.498001805406600200E-016, 1.221245327087670000E-015, 0.2609887252176970000 ) ) ;
#293 = COORDINATED_UNIVERSAL_TIME_OFFSET ( 2, 0, .AHEAD. ) ;
#294 = ORIENTED_EDGE ( 'NONE', *, *, #108, .F. ) ;
#295 =( NAMED_UNIT ( * ) PLANE_ANGLE_UNIT ( ) SI_UNIT ( $, .RADIAN. ) );
ENDSEC;
END-ISO-10303-21;
