ISO-10303-21;
HEADER;
FILE_DESCRIPTION (( 'STEP AP203' ),
    '1' );
FILE_NAME ('111-0118E BK7 bi-cx 12.7 F60.STEP',
    '2019-01-09T07:10:20',
    ( '' ),
    ( '' ),
    'SwSTEP 2.0',
    'SolidWorks 2017',
    '' );
FILE_SCHEMA (( 'CONFIG_CONTROL_DESIGN' ));
ENDSEC;

DATA;
#1 = CARTESIAN_POINT ( 'NONE',  ( -4.273035761809061300, -2.149738804403266800, -0.001424472639232173200 ) ) ;
#2 = EDGE_CURVE ( 'NONE', #251, #157, #121, .T. ) ;
#3 = COORDINATED_UNIVERSAL_TIME_OFFSET ( 2, 0, .AHEAD. ) ;
#4 = CARTESIAN_POINT ( 'NONE',  ( 0.0000000000000000000, 0.0000000000000000000, 0.0000000000000000000 ) ) ;
#5 = CARTESIAN_POINT ( 'NONE',  ( -7.605487426598425600E-015, 2.149738804403274400, -0.1120315408873928700 ) ) ;
#6 = CARTESIAN_POINT ( 'NONE',  ( -7.499330884181344800E-015, 6.425926009055081600, 0.3348808659676683100 ) ) ;
#7 = APPROVAL_STATUS ( 'not_yet_approved' ) ;
#8 = ORIENTED_EDGE ( 'NONE', *, *, #233, .T. ) ;
#9 = CARTESIAN_POINT ( 'NONE',  ( 2.137949406900141900, -2.149738804403266800, -0.1120315408873938700 ) ) ;
#10 = CARTESIAN_POINT ( 'NONE',  ( 2.498001805406600200E-016, 1.221245327087670000E-015, 0.3269930805136169700 ) ) ;
#11 = EDGE_CURVE ( 'NONE', #66, #144, #56, .T. ) ;
#12 = LOCAL_TIME ( 9, 10, 20.00000000000000000, #3 ) ;
#13 = FACE_OUTER_BOUND ( 'NONE', #156, .T. ) ;
#14 = CARTESIAN_POINT ( 'NONE',  ( -4.242200785959310500, -6.425926009055073600, 2.055310225796938900 ) ) ;
#15 = PERSON_AND_ORGANIZATION ( #75, #223 ) ;
#16 = CIRCLE ( 'NONE', #22, 6.349999999999999600 ) ;
#17 = EDGE_CURVE ( 'NONE', #210, #66, #236, .T. ) ;
#18 = CARTESIAN_POINT ( 'NONE',  ( 2.498001805406600200E-016, 1.221245327087670000E-015, 0.3269930805136169700 ) ) ;
#19 = DATE_AND_TIME ( #106, #173 ) ;
#20 = VERTEX_POINT ( 'NONE', #289 ) ;
#21 = DIRECTION ( 'NONE',  ( 0.0000000000000000000, 0.0000000000000000000, 1.000000000000000000 ) ) ;
#22 = AXIS2_PLACEMENT_3D ( 'NONE', #197, #128, #290 ) ;
#23 = CARTESIAN_POINT ( 'NONE',  ( 6.349999999999999600, 1.221245327087670000E-015, 0.3269930805136169700 ) ) ;
#24 = FACE_OUTER_BOUND ( 'NONE', #226, .T. ) ;
#25 = CARTESIAN_POINT ( 'NONE',  ( 7.806255641895631900E-015, -2.149738804403267700, 2.612031540887391800 ) ) ;
#26 = CYLINDRICAL_SURFACE ( 'NONE', #242, 6.349999999999999600 ) ;
#27 = DIRECTION ( 'NONE',  ( 1.000000000000000000, 0.0000000000000000000, 0.0000000000000000000 ) ) ;
#28 = ORIENTED_EDGE ( 'NONE', *, *, #52, .F. ) ;
#29 = CARTESIAN_POINT ( 'NONE',  ( -6.353360420792126800, 6.425926009055081600, 0.6640134877241854500 ) ) ;
#30 = ADVANCED_FACE ( 'NONE', ( #89 ), #204, .T. ) ;
#31 = PERSON_AND_ORGANIZATION_ROLE ( 'design_supplier' ) ;
#32 = LOCAL_TIME ( 9, 10, 20.00000000000000000, #143 ) ;
#33 = ORIENTED_EDGE ( 'NONE', *, *, #95, .T. ) ;
#34 = APPROVAL_ROLE ( '' ) ;
#35 = DATE_TIME_ROLE ( 'creation_date' ) ;
#36 = ORIENTED_EDGE ( 'NONE', *, *, #181, .T. ) ;
#37 = CARTESIAN_POINT ( 'NONE',  ( -3.496228618265090000E-015, 6.349999999999949000, 2.173006919486383900 ) ) ;
#38 = CARTESIAN_POINT ( 'NONE',  ( -2.137949406900135200, 2.149738804403274400, 2.612031540887388600 ) ) ;
#39 = PERSON_AND_ORGANIZATION ( #75, #223 ) ;
#40 = ORIENTED_EDGE ( 'NONE', *, *, #186, .F. ) ;
#41 = CIRCLE ( 'NONE', #254, 6.349999999999999600 ) ;
#42 = ORIENTED_EDGE ( 'NONE', *, *, #270, .T. ) ;
#43 = CARTESIAN_POINT ( 'NONE',  ( -3.478655578555133400E-015, 6.425926009055081600, 2.165119134032326800 ) ) ;
#44 = PERSON_AND_ORGANIZATION ( #75, #223 ) ;
#45 = DIRECTION ( 'NONE',  ( 1.000000000000000000, 0.0000000000000000000, 0.0000000000000000000 ) ) ;
#46 = CARTESIAN_POINT ( 'NONE',  ( -6.349999999999999600, 1.998896044546239400E-015, 2.173006919486380400 ) ) ;
#47 = AXIS2_PLACEMENT_3D ( 'NONE', #224, #222, #86 ) ;
#48 = ORIENTED_EDGE ( 'NONE', *, *, #170, .F. ) ;
#49 = CARTESIAN_POINT ( 'NONE',  ( -7.501204495247599400E-015, 6.349999999999949000, 0.3269930805136121400 ) ) ;
#50 = CARTESIAN_POINT ( 'NONE',  ( 6.353360420792138400, 6.425926009055081600, 0.6640134877241927700 ) ) ;
#51 = PRODUCT_DEFINITION ( 'UNKNOWN', '', #103, #189 ) ;
#52 = EDGE_CURVE ( 'NONE', #277, #210, #262, .T. ) ;
#53 = CC_DESIGN_APPROVAL ( #282, ( #51 ) ) ;
#54 = CARTESIAN_POINT ( 'NONE',  ( -2.122521588832499100, -6.425926009055073600, 2.165119134032327300 ) ) ;
#55 = CARTESIAN_POINT ( 'NONE',  ( -4.468285263816277900E-015, 2.149738804403274400, 2.612031540887388200 ) ) ;
#56 = CIRCLE ( 'NONE', #193, 6.349999999999999600 ) ;
#57 = AXIS2_PLACEMENT_3D ( 'NONE', #4, #211, #119 ) ;
#58 = CARTESIAN_POINT ( 'NONE',  ( 2.137949406900143700, -2.149738804403267700, 2.612031540887391800 ) ) ;
#59 = CARTESIAN_POINT ( 'NONE',  ( 4.242200785959323800, 6.425926009055080700, 2.055310225796942400 ) ) ;
#60 = CIRCLE ( 'NONE', #122, 61.81999999999999300 ) ;
#61 = CARTESIAN_POINT ( 'NONE',  ( -6.353360420792094800, 6.425926009055083400, 1.835986512275808100 ) ) ;
#62 = CARTESIAN_POINT ( 'NONE',  ( 6.399540628902050400, 2.149738804403272600, 2.280506576817227200 ) ) ;
#63 = CC_DESIGN_PERSON_AND_ORGANIZATION_ASSIGNMENT ( #15, #94, ( #51 ) ) ;
#64 = DIRECTION ( 'NONE',  ( -1.000000000000000000, 2.350256873813660000E-016, 3.442319266052129800E-017 ) ) ;
#65 = SHAPE_DEFINITION_REPRESENTATION ( #84, #127 ) ;
#66 = VERTEX_POINT ( 'NONE', #37 ) ;
#67 = CARTESIAN_POINT ( 'NONE',  ( -2.137949406900157400, -2.149738804403266800, -0.1120315408873972700 ) ) ;
#68 = CARTESIAN_POINT ( 'NONE',  ( -2.122521588832519500, -6.425926009055074500, 0.3348808659676644800 ) ) ;
#69 = AXIS2_PLACEMENT_3D ( 'NONE', #275, #194, #151 ) ;
#70 =( BOUNDED_SURFACE ( )  B_SPLINE_SURFACE ( 3, 3, ( 
 ( #172, #154, #85, #293 ),
 ( #267, #248, #58, #25 ),
 ( #62, #171, #196, #131 ),
 ( #112, #59, #88, #271 ) ),
 .UNSPECIFIED., .F., .F., .T. ) 
 B_SPLINE_SURFACE_WITH_KNOTS ( ( 4, 4 ),
 ( 4, 4 ),
 ( 0.0000000000000000000, 1.000000000000000000 ),
 ( 0.0000000000000000000, 1.000000000000000000 ),
 .UNSPECIFIED. ) 
 GEOMETRIC_REPRESENTATION_ITEM ( )  RATIONAL_B_SPLINE_SURFACE ( (
 ( 1.000000000000000000, 0.9991072280189007300, 0.9991072280189007300, 1.000000000000000000),
 ( 0.9963886458970379100, 0.9954990980316955600, 0.9954990980316955600, 0.9963886458970379100),
 ( 0.9963886458970379100, 0.9954990980316955600, 0.9954990980316955600, 0.9963886458970379100),
 ( 1.000000000000000000, 0.9991072280189007300, 0.9991072280189007300, 1.000000000000000000) ) ) 
 REPRESENTATION_ITEM ( '' )  SURFACE ( )  );
#71 = CARTESIAN_POINT ( 'NONE',  ( -7.499330884181344800E-015, -6.425926009055074500, 0.3348808659676683100 ) ) ;
#72 = DATE_AND_TIME ( #153, #202 ) ;
#73 = ORIENTED_EDGE ( 'NONE', *, *, #181, .F. ) ;
#74 = CARTESIAN_POINT ( 'NONE',  ( 4.242200785959333600, -6.425926009055074500, 0.4446897742030587700 ) ) ;
#75 = PERSON ( 'UNSPECIFIED', 'UNSPECIFIED', 'UNSPECIFIED', ('UNSPECIFIED'), ('UNSPECIFIED'), ('UNSPECIFIED') ) ;
#76 = APPROVAL_ROLE ( '' ) ;
#77 = DATE_AND_TIME ( #111, #32 ) ;
#78 = EDGE_CURVE ( 'NONE', #277, #251, #16, .T. ) ;
#79 = CC_DESIGN_APPROVAL ( #207, ( #82 ) ) ;
#80 = ORIENTED_EDGE ( 'NONE', *, *, #17, .F. ) ;
#81 = PERSON_AND_ORGANIZATION ( #75, #223 ) ;
#82 = SECURITY_CLASSIFICATION ( '', '', #229 ) ;
#83 = CIRCLE ( 'NONE', #69, 6.349999999999999600 ) ;
#84 = PRODUCT_DEFINITION_SHAPE ( 'NONE', 'NONE',  #51 ) ;
#85 = CARTESIAN_POINT ( 'NONE',  ( 2.122521588832504000, -6.425926009055075400, 2.165119134032330400 ) ) ;
#86 = DIRECTION ( 'NONE',  ( 0.0000000000000000000, -1.000000000000000000, -2.244870237433590900E-016 ) ) ;
#87 = DATE_AND_TIME ( #230, #12 ) ;
#88 = CARTESIAN_POINT ( 'NONE',  ( 2.122521588832507100, 6.425926009055080700, 2.165119134032330400 ) ) ;
#89 = FACE_OUTER_BOUND ( 'NONE', #195, .T. ) ;
#90 = CARTESIAN_POINT ( 'NONE',  ( -2.168404344971008600E-014, 2.149738804403274400, -0.1120315408873977000 ) ) ;
#91 = DIRECTION ( 'NONE',  ( 1.000000000000000000, 0.0000000000000000000, 0.0000000000000000000 ) ) ;
#92 = CARTESIAN_POINT ( 'NONE',  ( -2.168404344971008900E-014, -6.425926009055074500, 0.3348808659676634800 ) ) ;
#93 = CC_DESIGN_PERSON_AND_ORGANIZATION_ASSIGNMENT ( #120, #205, ( #253 ) ) ;
#94 = PERSON_AND_ORGANIZATION_ROLE ( 'creator' ) ;
#95 = EDGE_CURVE ( 'NONE', #20, #251, #265, .T. ) ;
#96 = APPROVAL_STATUS ( 'not_yet_approved' ) ;
#97 = CYLINDRICAL_SURFACE ( 'NONE', #247, 6.349999999999999600 ) ;
#98 = EDGE_LOOP ( 'NONE', ( #177, #285, #164 ) ) ;
#99 = CARTESIAN_POINT ( 'NONE',  ( 2.122521588832504000, 6.425926009055081600, 0.3348808659676678600 ) ) ;
#100 = CC_DESIGN_PERSON_AND_ORGANIZATION_ASSIGNMENT ( #81, #31, ( #103 ) ) ;
#101 = DIRECTION ( 'NONE',  ( -0.0000000000000000000, -0.0000000000000000000, -1.000000000000000000 ) ) ;
#102 = AXIS2_PLACEMENT_3D ( 'NONE', #179, #101, #281 ) ;
#103 = PRODUCT_DEFINITION_FORMATION_WITH_SPECIFIED_SOURCE ( 'ANY', '', #253, .NOT_KNOWN. ) ;
#104 = PRODUCT_RELATED_PRODUCT_CATEGORY ( 'detail', '', ( #253 ) ) ;
#105 = DIRECTION ( 'NONE',  ( -0.0000000000000000000, -0.0000000000000000000, -1.000000000000000000 ) ) ;
#106 = CALENDAR_DATE ( 2019, 9, 1 ) ;
#107 = AXIS2_PLACEMENT_3D ( 'NONE', #273, #269, #169 ) ;
#108 = CARTESIAN_POINT ( 'NONE',  ( -6.349999999999999600, 1.998896044546239400E-015, 0.3269930805136169700 ) ) ;
#109 = CARTESIAN_POINT ( 'NONE',  ( -4.242200785959308700, 6.425926009055082500, 2.055310225796938900 ) ) ;
#110 = CARTESIAN_POINT ( 'NONE',  ( 6.349999999999999600, 1.221245327087670000E-015, 2.173006919486380400 ) ) ;
#111 = CALENDAR_DATE ( 2019, 9, 1 ) ;
#112 = CARTESIAN_POINT ( 'NONE',  ( 6.353360420792115300, 6.425926009055079800, 1.835986512275809900 ) ) ;
#113 = CARTESIAN_POINT ( 'NONE',  ( -2.137949406900157400, 2.149738804403273900, -0.1120315408873967100 ) ) ;
#114 = DIRECTION ( 'NONE',  ( 0.0000000000000000000, 0.0000000000000000000, 1.000000000000000000 ) ) ;
#115 =( GEOMETRIC_REPRESENTATION_CONTEXT ( 3 ) GLOBAL_UNCERTAINTY_ASSIGNED_CONTEXT ( ( #234 ) ) GLOBAL_UNIT_ASSIGNED_CONTEXT ( ( #163, #117, #257 ) ) REPRESENTATION_CONTEXT ( 'NONE', 'WORKASPACE' ) );
#116 = CC_DESIGN_PERSON_AND_ORGANIZATION_ASSIGNMENT ( #39, #255, ( #82 ) ) ;
#117 =( NAMED_UNIT ( * ) PLANE_ANGLE_UNIT ( ) SI_UNIT ( $, .RADIAN. ) );
#118 = CARTESIAN_POINT ( 'NONE',  ( 6.399540628902074400, 2.149738804403274400, 0.2194934231827745700 ) ) ;
#119 = DIRECTION ( 'NONE',  ( 1.000000000000000000, 0.0000000000000000000, 0.0000000000000000000 ) ) ;
#120 = PERSON_AND_ORGANIZATION ( #75, #223 ) ;
#121 = CIRCLE ( 'NONE', #217, 6.349999999999999600 ) ;
#122 = AXIS2_PLACEMENT_3D ( 'NONE', #136, #64, #227 ) ;
#123 = APPROVAL_ROLE ( '' ) ;
#124 = DIRECTION ( 'NONE',  ( -0.0000000000000000000, -0.0000000000000000000, -1.000000000000000000 ) ) ;
#125 = LINE ( 'NONE', #175, #216 ) ;
#126 = VERTEX_POINT ( 'NONE', #219 ) ;
#127 = ADVANCED_BREP_SHAPE_REPRESENTATION ( '111-0118E BK7 bi-cx 12.7 F60', ( #199, #57 ), #115 ) ;
#128 = DIRECTION ( 'NONE',  ( -0.0000000000000000000, -0.0000000000000000000, -1.000000000000000000 ) ) ;
#129 = VECTOR ( 'NONE', #152, 1000.000000000000000 ) ;
#130 = CARTESIAN_POINT ( 'NONE',  ( 2.498001805406600200E-016, 1.221245327087670000E-015, 0.3269930805136169700 ) ) ;
#131 = CARTESIAN_POINT ( 'NONE',  ( 8.673617379884033900E-015, 2.149738804403273900, 2.612031540887391800 ) ) ;
#132 = APPROVAL_DATE_TIME ( #77, #207 ) ;
#133 = CC_DESIGN_DATE_AND_TIME_ASSIGNMENT ( #19, #35, ( #51 ) ) ;
#134 = CARTESIAN_POINT ( 'NONE',  ( -6.399540628902062900, -2.149738804403267300, 0.2194934231827666600 ) ) ;
#135 = ORIENTED_EDGE ( 'NONE', *, *, #17, .T. ) ;
#136 = CARTESIAN_POINT ( 'NONE',  ( -7.105427357601000300E-015, 7.105427357601000300E-015, -59.32000000000000700 ) ) ;
#137 = PERSON_AND_ORGANIZATION ( #75, #223 ) ;
#138 = CARTESIAN_POINT ( 'NONE',  ( 2.122521588832504000, -6.425926009055074500, 0.3348808659676678600 ) ) ;
#139 = CIRCLE ( 'NONE', #107, 6.349999999999999600 ) ;
#140 = DATE_TIME_ROLE ( 'classification_date' ) ;
#141 = CARTESIAN_POINT ( 'NONE',  ( 6.353360420792137500, -6.425926009055074500, 0.6640134877241927700 ) ) ;
#142 = DIRECTION ( 'NONE',  ( 1.000000000000000000, -1.776356839400250500E-015, 0.0000000000000000000 ) ) ;
#143 = COORDINATED_UNIVERSAL_TIME_OFFSET ( 2, 0, .AHEAD. ) ;
#144 = VERTEX_POINT ( 'NONE', #110 ) ;
#145 = CARTESIAN_POINT ( 'NONE',  ( -4.273035761809036400, -2.149738804403265900, 2.501424472639223900 ) ) ;
#146 = CARTESIAN_POINT ( 'NONE',  ( 2.498001805406600200E-016, 1.221245327087670000E-015, 2.173006919486380400 ) ) ;
#147 = PERSON_AND_ORGANIZATION ( #75, #223 ) ;
#148 = ORIENTED_EDGE ( 'NONE', *, *, #2, .F. ) ;
#149 = DIRECTION ( 'NONE',  ( 1.000000000000000000, -8.881784197001252300E-016, 0.0000000000000000000 ) ) ;
#150 = ORIENTED_EDGE ( 'NONE', *, *, #233, .F. ) ;
#151 = DIRECTION ( 'NONE',  ( 1.000000000000000000, 0.0000000000000000000, 0.0000000000000000000 ) ) ;
#152 = DIRECTION ( 'NONE',  ( 0.0000000000000000000, 0.0000000000000000000, 1.000000000000000000 ) ) ;
#153 = CALENDAR_DATE ( 2019, 9, 1 ) ;
#154 = CARTESIAN_POINT ( 'NONE',  ( 4.242200785959320300, -6.425926009055075400, 2.055310225796942400 ) ) ;
#155 = FACE_OUTER_BOUND ( 'NONE', #98, .T. ) ;
#156 = EDGE_LOOP ( 'NONE', ( #268, #288, #135, #274, #150, #148 ) ) ;
#157 = VERTEX_POINT ( 'NONE', #23 ) ;
#158 = CARTESIAN_POINT ( 'NONE',  ( -6.353360420792126800, -6.425926009055074500, 0.6640134877241854500 ) ) ;
#159 = CARTESIAN_POINT ( 'NONE',  ( -2.168404344971008600E-014, -2.149738804403267300, -0.1120315408873982500 ) ) ;
#160 = CARTESIAN_POINT ( 'NONE',  ( -4.273035761809061300, 2.149738804403273900, -0.001424472639231685400 ) ) ;
#161 = APPROVAL_DATE_TIME ( #72, #282 ) ;
#162 = CARTESIAN_POINT ( 'NONE',  ( 6.399540628902074400, -2.149738804403267300, 0.2194934231827740900 ) ) ;
#163 =( LENGTH_UNIT ( ) NAMED_UNIT ( * ) SI_UNIT ( .MILLI., .METRE. ) );
#164 = ORIENTED_EDGE ( 'NONE', *, *, #78, .T. ) ;
#165 = ADVANCED_FACE ( 'NONE', ( #13 ), #26, .T. ) ;
#166 =( BOUNDED_SURFACE ( )  B_SPLINE_SURFACE ( 3, 3, ( 
 ( #158, #200, #68, #92 ),
 ( #134, #1, #67, #159 ),
 ( #178, #160, #113, #90 ),
 ( #29, #225, #249, #252 ) ),
 .UNSPECIFIED., .F., .F., .F. ) 
 B_SPLINE_SURFACE_WITH_KNOTS ( ( 4, 4 ),
 ( 4, 4 ),
 ( 0.0000000000000000000, 1.000000000000000000 ),
 ( 0.0000000000000000000, 1.000000000000000000 ),
 .UNSPECIFIED. ) 
 GEOMETRIC_REPRESENTATION_ITEM ( )  RATIONAL_B_SPLINE_SURFACE ( (
 ( 1.000000000000000000, 0.9991072280189007300, 0.9991072280189007300, 1.000000000000000000),
 ( 0.9963886458970379100, 0.9954990980316955600, 0.9954990980316955600, 0.9963886458970379100),
 ( 0.9963886458970379100, 0.9954990980316955600, 0.9954990980316955600, 0.9963886458970379100),
 ( 1.000000000000000000, 0.9991072280189007300, 0.9991072280189007300, 1.000000000000000000) ) ) 
 REPRESENTATION_ITEM ( '' )  SURFACE ( )  );
#167 = CARTESIAN_POINT ( 'NONE',  ( -6.399540628902031800, -2.149738804403265900, 2.280506576817226300 ) ) ;
#168 = EDGE_CURVE ( 'NONE', #20, #277, #139, .T. ) ;
#169 = DIRECTION ( 'NONE',  ( 1.000000000000000000, 0.0000000000000000000, 0.0000000000000000000 ) ) ;
#170 = EDGE_CURVE ( 'NONE', #126, #210, #83, .T. ) ;
#171 = CARTESIAN_POINT ( 'NONE',  ( 4.273035761809049800, 2.149738804403272600, 2.501424472639226500 ) ) ;
#172 = CARTESIAN_POINT ( 'NONE',  ( 6.353360420792111700, -6.425926009055076300, 1.835986512275809900 ) ) ;
#173 = LOCAL_TIME ( 9, 10, 20.00000000000000000, #292 ) ;
#174 = EDGE_LOOP ( 'NONE', ( #40, #73, #183 ) ) ;
#175 = CARTESIAN_POINT ( 'NONE',  ( 6.349999999999999600, 1.221245327087670000E-015, 0.3269930805136169700 ) ) ;
#176 = ADVANCED_FACE ( 'NONE', ( #246 ), #70, .T. ) ;
#177 = ORIENTED_EDGE ( 'NONE', *, *, #95, .F. ) ;
#178 = CARTESIAN_POINT ( 'NONE',  ( -6.399540628902062900, 2.149738804403274400, 0.2194934231827671800 ) ) ;
#179 = CARTESIAN_POINT ( 'NONE',  ( 2.498001805406600200E-016, 1.221245327087670000E-015, 0.3269930805136169700 ) ) ;
#180 = APPLICATION_CONTEXT ( 'configuration controlled 3d designs of mechanical parts and assemblies' ) ;
#181 = EDGE_CURVE ( 'NONE', #144, #126, #41, .T. ) ;
#182 = CIRCLE ( 'NONE', #102, 6.349999999999999600 ) ;
#183 = ORIENTED_EDGE ( 'NONE', *, *, #11, .F. ) ;
#184 = CARTESIAN_POINT ( 'NONE',  ( 4.273035761809059500, 2.149738804403273900, -0.001424472639225641100 ) ) ;
#185 = CARTESIAN_POINT ( 'NONE',  ( 2.498001805406600200E-016, 1.221245327087670000E-015, 2.173006919486380400 ) ) ;
#186 = EDGE_CURVE ( 'NONE', #126, #66, #60, .T. ) ;
#187 = APPROVAL_DATE_TIME ( #264, #250 ) ;
#188 = ORIENTED_EDGE ( 'NONE', *, *, #186, .T. ) ;
#189 = DESIGN_CONTEXT ( 'detailed design', #235, 'design' ) ;
#190 = CC_DESIGN_PERSON_AND_ORGANIZATION_ASSIGNMENT ( #137, #279, ( #103 ) ) ;
#191 = CALENDAR_DATE ( 2019, 9, 1 ) ;
#192 = ORIENTED_EDGE ( 'NONE', *, *, #170, .T. ) ;
#193 = AXIS2_PLACEMENT_3D ( 'NONE', #185, #239, #149 ) ;
#194 = DIRECTION ( 'NONE',  ( -0.0000000000000000000, -0.0000000000000000000, -1.000000000000000000 ) ) ;
#195 = EDGE_LOOP ( 'NONE', ( #48, #188, #80 ) ) ;
#196 = CARTESIAN_POINT ( 'NONE',  ( 2.137949406900144600, 2.149738804403273000, 2.612031540887391800 ) ) ;
#197 = CARTESIAN_POINT ( 'NONE',  ( 2.498001805406600200E-016, 1.221245327087670000E-015, 0.3269930805136169700 ) ) ;
#198 = APPROVAL_PERSON_ORGANIZATION ( #240, #282, #34 ) ;
#199 = MANIFOLD_SOLID_BREP ( 'Imported1', #241 ) ;
#200 = CARTESIAN_POINT ( 'NONE',  ( -4.242200785959335400, -6.425926009055074500, 0.4446897742030526700 ) ) ;
#201 = CARTESIAN_POINT ( 'NONE',  ( 2.498001805406600200E-016, 1.221245327087670000E-015, 2.173006919486380400 ) ) ;
#202 = LOCAL_TIME ( 9, 10, 20.00000000000000000, #266 ) ;
#203 = ORIENTED_EDGE ( 'NONE', *, *, #168, .F. ) ;
#204 =( BOUNDED_SURFACE ( )  B_SPLINE_SURFACE ( 3, 3, ( 
 ( #286, #54, #14, #213 ),
 ( #215, #237, #145, #167 ),
 ( #55, #38, #243, #291 ),
 ( #43, #220, #109, #61 ) ),
 .UNSPECIFIED., .F., .F., .F. ) 
 B_SPLINE_SURFACE_WITH_KNOTS ( ( 4, 4 ),
 ( 4, 4 ),
 ( 0.0000000000000000000, 1.000000000000000000 ),
 ( 0.0000000000000000000, 1.000000000000000000 ),
 .UNSPECIFIED. ) 
 GEOMETRIC_REPRESENTATION_ITEM ( )  RATIONAL_B_SPLINE_SURFACE ( (
 ( 1.000000000000000000, 0.9991072280189007300, 0.9991072280189007300, 1.000000000000000000),
 ( 0.9963886458970379100, 0.9954990980316955600, 0.9954990980316955600, 0.9963886458970379100),
 ( 0.9963886458970379100, 0.9954990980316955600, 0.9954990980316955600, 0.9963886458970379100),
 ( 1.000000000000000000, 0.9991072280189007300, 0.9991072280189007300, 1.000000000000000000) ) ) 
 REPRESENTATION_ITEM ( '' )  SURFACE ( )  );
#205 = PERSON_AND_ORGANIZATION_ROLE ( 'design_owner' ) ;
#206 = APPLICATION_PROTOCOL_DEFINITION ( 'international standard', 'config_control_design', 1994, #235 ) ;
#207 = APPROVAL ( #7, 'UNSPECIFIED' ) ;
#208 = COORDINATED_UNIVERSAL_TIME_OFFSET ( 2, 0, .AHEAD. ) ;
#209 = APPLICATION_PROTOCOL_DEFINITION ( 'international standard', 'config_control_design', 1994, #180 ) ;
#210 = VERTEX_POINT ( 'NONE', #46 ) ;
#211 = DIRECTION ( 'NONE',  ( 0.0000000000000000000, 0.0000000000000000000, 1.000000000000000000 ) ) ;
#212 = CC_DESIGN_DATE_AND_TIME_ASSIGNMENT ( #87, #140, ( #82 ) ) ;
#213 = CARTESIAN_POINT ( 'NONE',  ( -6.353360420792097500, -6.425926009055072700, 1.835986512275808100 ) ) ;
#214 = ADVANCED_FACE ( 'NONE', ( #280 ), #97, .T. ) ;
#215 = CARTESIAN_POINT ( 'NONE',  ( -5.478772944206826300E-015, -2.149738804403267300, 2.612031540887388600 ) ) ;
#216 = VECTOR ( 'NONE', #114, 1000.000000000000000 ) ;
#217 = AXIS2_PLACEMENT_3D ( 'NONE', #18, #124, #142 ) ;
#218 = EDGE_LOOP ( 'NONE', ( #28, #203, #258, #8, #36, #192 ) ) ;
#219 = CARTESIAN_POINT ( 'NONE',  ( -6.481054848008413100E-015, -6.349999999999942800, 2.173006919486383900 ) ) ;
#220 = CARTESIAN_POINT ( 'NONE',  ( -2.122521588832496000, 6.425926009055082500, 2.165119134032327300 ) ) ;
#221 = AXIS2_PLACEMENT_3D ( 'NONE', #146, #105, #261 ) ;
#222 = DIRECTION ( 'NONE',  ( 1.000000000000000000, 5.582640796923589800E-032, -2.375332185653770100E-016 ) ) ;
#223 = ORGANIZATION ( 'UNSPECIFIED', 'UNSPECIFIED', '' ) ;
#224 = CARTESIAN_POINT ( 'NONE',  ( 7.105427357601000300E-015, 7.105427357601000300E-015, 61.82000000000000000 ) ) ;
#225 = CARTESIAN_POINT ( 'NONE',  ( -4.242200785959335400, 6.425926009055081600, 0.4446897742030526700 ) ) ;
#226 = EDGE_LOOP ( 'NONE', ( #42, #33, #294 ) ) ;
#227 = DIRECTION ( 'NONE',  ( -2.350256873813660500E-016, -1.000000000000000000, 2.244870237433590900E-016 ) ) ;
#228 = CC_DESIGN_SECURITY_CLASSIFICATION ( #82, ( #103 ) ) ;
#229 = SECURITY_CLASSIFICATION_LEVEL ( 'unclassified' ) ;
#230 = CALENDAR_DATE ( 2019, 9, 1 ) ;
#231 = CARTESIAN_POINT ( 'NONE',  ( 2.137949406900141900, 2.149738804403273900, -0.1120315408873933700 ) ) ;
#232 = CARTESIAN_POINT ( 'NONE',  ( -7.605487426598425600E-015, -2.149738804403267300, -0.1120315408873933500 ) ) ;
#233 = EDGE_CURVE ( 'NONE', #157, #144, #125, .T. ) ;
#234 = UNCERTAINTY_MEASURE_WITH_UNIT (LENGTH_MEASURE( 1.000000000000000100E-005 ), #163, 'distance_accuracy_value', 'NONE');
#235 = APPLICATION_CONTEXT ( 'configuration controlled 3d designs of mechanical parts and assemblies' ) ;
#236 = CIRCLE ( 'NONE', #221, 6.349999999999999600 ) ;
#237 = CARTESIAN_POINT ( 'NONE',  ( -2.137949406900136600, -2.149738804403266400, 2.612031540887389100 ) ) ;
#238 = APPROVAL_PERSON_ORGANIZATION ( #44, #207, #76 ) ;
#239 = DIRECTION ( 'NONE',  ( -0.0000000000000000000, -0.0000000000000000000, -1.000000000000000000 ) ) ;
#240 = PERSON_AND_ORGANIZATION ( #75, #223 ) ;
#241 = CLOSED_SHELL ( 'NONE', ( #278, #30, #165, #263, #214, #176 ) ) ;
#242 = AXIS2_PLACEMENT_3D ( 'NONE', #10, #244, #45 ) ;
#243 = CARTESIAN_POINT ( 'NONE',  ( -4.273035761809035500, 2.149738804403274800, 2.501424472639223400 ) ) ;
#244 = DIRECTION ( 'NONE',  ( 0.0000000000000000000, 0.0000000000000000000, 1.000000000000000000 ) ) ;
#245 = APPROVAL_PERSON_ORGANIZATION ( #147, #250, #123 ) ;
#246 = FACE_OUTER_BOUND ( 'NONE', #174, .T. ) ;
#247 = AXIS2_PLACEMENT_3D ( 'NONE', #130, #21, #91 ) ;
#248 = CARTESIAN_POINT ( 'NONE',  ( 4.273035761809048000, -2.149738804403268100, 2.501424472639227000 ) ) ;
#249 = CARTESIAN_POINT ( 'NONE',  ( -2.122521588832519500, 6.425926009055081600, 0.3348808659676644800 ) ) ;
#250 = APPROVAL ( #283, 'UNSPECIFIED' ) ;
#251 = VERTEX_POINT ( 'NONE', #49 ) ;
#252 = CARTESIAN_POINT ( 'NONE',  ( -2.168404344971008900E-014, 6.425926009055081600, 0.3348808659676634800 ) ) ;
#253 = PRODUCT ( '111-0118E BK7 bi-cx 12.7 F60', '111-0118E BK7 bi-cx 12.7 F60', '', ( #259 ) ) ;
#254 = AXIS2_PLACEMENT_3D ( 'NONE', #201, #276, #27 ) ;
#255 = PERSON_AND_ORGANIZATION_ROLE ( 'classification_officer' ) ;
#256 = CARTESIAN_POINT ( 'NONE',  ( 4.242200785959333600, 6.425926009055081600, 0.4446897742030587200 ) ) ;
#257 =( NAMED_UNIT ( * ) SI_UNIT ( $, .STERADIAN. ) SOLID_ANGLE_UNIT ( ) );
#258 = ORIENTED_EDGE ( 'NONE', *, *, #270, .F. ) ;
#259 = MECHANICAL_CONTEXT ( 'NONE', #180, 'mechanical' ) ;
#260 = CARTESIAN_POINT ( 'NONE',  ( 4.273035761809059500, -2.149738804403266800, -0.001424472639226101700 ) ) ;
#261 = DIRECTION ( 'NONE',  ( 1.000000000000000000, 8.881784197001252300E-016, 0.0000000000000000000 ) ) ;
#262 = LINE ( 'NONE', #108, #129 ) ;
#263 = ADVANCED_FACE ( 'NONE', ( #155 ), #166, .T. ) ;
#264 = DATE_AND_TIME ( #191, #287 ) ;
#265 = CIRCLE ( 'NONE', #47, 61.81999999999999300 ) ;
#266 = COORDINATED_UNIVERSAL_TIME_OFFSET ( 2, 0, .AHEAD. ) ;
#267 = CARTESIAN_POINT ( 'NONE',  ( 6.399540628902048700, -2.149738804403269000, 2.280506576817227700 ) ) ;
#268 = ORIENTED_EDGE ( 'NONE', *, *, #78, .F. ) ;
#269 = DIRECTION ( 'NONE',  ( -0.0000000000000000000, -0.0000000000000000000, -1.000000000000000000 ) ) ;
#270 = EDGE_CURVE ( 'NONE', #157, #20, #182, .T. ) ;
#271 = CARTESIAN_POINT ( 'NONE',  ( 9.540979117872439000E-015, 6.425926009055081600, 2.165119134032330400 ) ) ;
#272 =( BOUNDED_SURFACE ( )  B_SPLINE_SURFACE ( 3, 3, ( 
 ( #71, #138, #74, #141 ),
 ( #232, #9, #260, #162 ),
 ( #5, #231, #184, #118 ),
 ( #6, #99, #256, #50 ) ),
 .UNSPECIFIED., .F., .F., .T. ) 
 B_SPLINE_SURFACE_WITH_KNOTS ( ( 4, 4 ),
 ( 4, 4 ),
 ( 0.0000000000000000000, 1.000000000000000000 ),
 ( 0.0000000000000000000, 1.000000000000000000 ),
 .UNSPECIFIED. ) 
 GEOMETRIC_REPRESENTATION_ITEM ( )  RATIONAL_B_SPLINE_SURFACE ( (
 ( 1.000000000000000000, 0.9991072280189007300, 0.9991072280189007300, 1.000000000000000000),
 ( 0.9963886458970379100, 0.9954990980316955600, 0.9954990980316955600, 0.9963886458970379100),
 ( 0.9963886458970379100, 0.9954990980316955600, 0.9954990980316955600, 0.9963886458970379100),
 ( 1.000000000000000000, 0.9991072280189007300, 0.9991072280189007300, 1.000000000000000000) ) ) 
 REPRESENTATION_ITEM ( '' )  SURFACE ( )  );
#273 = CARTESIAN_POINT ( 'NONE',  ( 2.498001805406600200E-016, 1.221245327087670000E-015, 0.3269930805136169700 ) ) ;
#274 = ORIENTED_EDGE ( 'NONE', *, *, #11, .T. ) ;
#275 = CARTESIAN_POINT ( 'NONE',  ( 2.498001805406600200E-016, 1.221245327087670000E-015, 2.173006919486380400 ) ) ;
#276 = DIRECTION ( 'NONE',  ( -0.0000000000000000000, -0.0000000000000000000, -1.000000000000000000 ) ) ;
#277 = VERTEX_POINT ( 'NONE', #295 ) ;
#278 = ADVANCED_FACE ( 'NONE', ( #24 ), #272, .T. ) ;
#279 = PERSON_AND_ORGANIZATION_ROLE ( 'creator' ) ;
#280 = FACE_OUTER_BOUND ( 'NONE', #218, .T. ) ;
#281 = DIRECTION ( 'NONE',  ( 1.000000000000000000, 0.0000000000000000000, 0.0000000000000000000 ) ) ;
#282 = APPROVAL ( #96, 'UNSPECIFIED' ) ;
#283 = APPROVAL_STATUS ( 'not_yet_approved' ) ;
#284 = CC_DESIGN_APPROVAL ( #250, ( #103 ) ) ;
#285 = ORIENTED_EDGE ( 'NONE', *, *, #168, .T. ) ;
#286 = CARTESIAN_POINT ( 'NONE',  ( -6.499170933235069000E-015, -6.425926009055074500, 2.165119134032326800 ) ) ;
#287 = LOCAL_TIME ( 9, 10, 20.00000000000000000, #208 ) ;
#288 = ORIENTED_EDGE ( 'NONE', *, *, #52, .T. ) ;
#289 = CARTESIAN_POINT ( 'NONE',  ( -7.501204495247599400E-015, -6.349999999999942800, 0.3269930805136121400 ) ) ;
#290 = DIRECTION ( 'NONE',  ( 1.000000000000000000, 8.881784197001252300E-016, 0.0000000000000000000 ) ) ;
#291 = CARTESIAN_POINT ( 'NONE',  ( -6.399540628902031800, 2.149738804403275200, 2.280506576817225900 ) ) ;
#292 = COORDINATED_UNIVERSAL_TIME_OFFSET ( 2, 0, .AHEAD. ) ;
#293 = CARTESIAN_POINT ( 'NONE',  ( 6.071532165918824800E-015, -6.425926009055074500, 2.165119134032330400 ) ) ;
#294 = ORIENTED_EDGE ( 'NONE', *, *, #2, .T. ) ;
#295 = CARTESIAN_POINT ( 'NONE',  ( -6.349999999999999600, 1.998896044546239400E-015, 0.3269930805136169700 ) ) ;
ENDSEC;
END-ISO-10303-21;
