ISO-10303-21;
HEADER;
FILE_DESCRIPTION (( 'STEP AP203' ),
    '1' );
FILE_NAME ('111-0116E BK7 bi-cx 12.7 F50.STEP',
    '2019-01-09T06:45:30',
    ( '' ),
    ( '' ),
    'SwSTEP 2.0',
    'SolidWorks 2017',
    '' );
FILE_SCHEMA (( 'CONFIG_CONTROL_DESIGN' ));
ENDSEC;

DATA;
#1 = EDGE_CURVE ( 'NONE', #213, #245, #49, .T. ) ;
#2 = ORIENTED_EDGE ( 'NONE', *, *, #246, .F. ) ;
#3 = CARTESIAN_POINT ( 'NONE',  ( 2.119459415071445600, 6.425803528442627600, 0.4029286791076349700 ) ) ;
#4 = CARTESIAN_POINT ( 'NONE',  ( -2.119459415071438500, -6.425803528442612500, 0.4029286791076310800 ) ) ;
#5 = CARTESIAN_POINT ( 'NONE',  ( -4.279449411651832200, 2.153178383534283500, -0.001770452703528369500 ) ) ;
#6 =( GEOMETRIC_REPRESENTATION_CONTEXT ( 3 ) GLOBAL_UNCERTAINTY_ASSIGNED_CONTEXT ( ( #173 ) ) GLOBAL_UNIT_ASSIGNED_CONTEXT ( ( #180, #243, #263 ) ) REPRESENTATION_CONTEXT ( 'NONE', 'WORKASPACE' ) );
#7 = DIRECTION ( 'NONE',  ( 1.000000000000000000, 8.881784197001252300E-016, 0.0000000000000000000 ) ) ;
#8 = ORIENTED_EDGE ( 'NONE', *, *, #203, .T. ) ;
#9 = CARTESIAN_POINT ( 'NONE',  ( 3.469446951953614200E-015, 2.153178383534280800, 2.635014604495828500 ) ) ;
#10 = CARTESIAN_POINT ( 'NONE',  ( -2.602085213965210600E-015, 6.425803528442627600, 0.4029286791076306400 ) ) ;
#11 = ORIENTED_EDGE ( 'NONE', *, *, #203, .F. ) ;
#12 = CC_DESIGN_APPROVAL ( #80, ( #29 ) ) ;
#13 = DIRECTION ( 'NONE',  ( 1.000000000000000000, 0.0000000000000000000, 0.0000000000000000000 ) ) ;
#14 = PRODUCT_DEFINITION_FORMATION_WITH_SPECIFIED_SOURCE ( 'ANY', '', #161, .NOT_KNOWN. ) ;
#15 = CARTESIAN_POINT ( 'NONE',  ( 4.279449411651832200, -2.153178383534271500, 2.501770452703531200 ) ) ;
#16 = CARTESIAN_POINT ( 'NONE',  ( -6.337867181474283700, -6.425803528442615200, 1.702019002048543100 ) ) ;
#17 = EDGE_LOOP ( 'NONE', ( #11, #191, #269 ) ) ;
#18 = AXIS2_PLACEMENT_3D ( 'NONE', #276, #227, #86 ) ;
#19 = PERSON_AND_ORGANIZATION ( #274, #159 ) ;
#20 = CARTESIAN_POINT ( 'NONE',  ( -6.349999999999999600, 1.998896044546239400E-015, 2.106558160173730000 ) ) ;
#21 = ADVANCED_FACE ( 'NONE', ( #74 ), #65, .T. ) ;
#22 = CARTESIAN_POINT ( 'NONE',  ( -4.234813436535348300, -6.425803528442615200, 1.965216946632582600 ) ) ;
#23 = CARTESIAN_POINT ( 'NONE',  ( 2.498001805406600200E-016, 1.221245327087670000E-015, 2.106558160173730000 ) ) ;
#24 = CLOSED_SHELL ( 'NONE', ( #21, #290, #127, #40, #70, #93 ) ) ;
#25 = EDGE_CURVE ( 'NONE', #106, #213, #135, .T. ) ;
#26 =( BOUNDED_SURFACE ( )  B_SPLINE_SURFACE ( 3, 3, ( 
 ( #87, #214, #88, #123 ),
 ( #63, #15, #193, #170 ),
 ( #192, #105, #239, #9 ),
 ( #85, #210, #282, #238 ) ),
 .UNSPECIFIED., .F., .F., .F. ) 
 B_SPLINE_SURFACE_WITH_KNOTS ( ( 4, 4 ),
 ( 4, 4 ),
 ( 0.0000000000000000000, 1.000000000000000000 ),
 ( 0.0000000000000000000, 1.000000000000000000 ),
 .UNSPECIFIED. ) 
 GEOMETRIC_REPRESENTATION_ITEM ( )  RATIONAL_B_SPLINE_SURFACE ( (
 ( 1.000000000000000000, 0.9987086664400246500, 0.9987086664400246500, 1.000000000000000000),
 ( 0.9947780108980348600, 0.9934934206678367500, 0.9934934206678367500, 0.9947780108980348600),
 ( 0.9947780108980348600, 0.9934934206678367500, 0.9934934206678367500, 0.9947780108980348600),
 ( 1.000000000000000000, 0.9987086664400246500, 0.9987086664400246500, 1.000000000000000000) ) ) 
 REPRESENTATION_ITEM ( '' )  SURFACE ( )  );
#27 = SHAPE_DEFINITION_REPRESENTATION ( #258, #256 ) ;
#28 = CARTESIAN_POINT ( 'NONE',  ( 6.337867181474283700, 6.425803528442627600, 0.7979809979514590500 ) ) ;
#29 = SECURITY_CLASSIFICATION ( '', '', #295 ) ;
#30 = CARTESIAN_POINT ( 'NONE',  ( 2.141799038558835000, 2.153178383534283500, -0.1350146044958223700 ) ) ;
#31 = ORIENTED_EDGE ( 'NONE', *, *, #246, .T. ) ;
#32 = CARTESIAN_POINT ( 'NONE',  ( 6.404669860280213500, 2.153178383534283900, 0.2642016629464200000 ) ) ;
#33 = CARTESIAN_POINT ( 'NONE',  ( -6.349999999999999600, 1.998896044546239400E-015, 0.3934418398262700100 ) ) ;
#34 = LINE ( 'NONE', #171, #42 ) ;
#35 = COORDINATED_UNIVERSAL_TIME_OFFSET ( 2, 0, .AHEAD. ) ;
#36 = CARTESIAN_POINT ( 'NONE',  ( -1.065814103640150000E-014, 6.350000000000020100, 2.106558160173730000 ) ) ;
#37 = ORIENTED_EDGE ( 'NONE', *, *, #99, .T. ) ;
#38 = CC_DESIGN_DATE_AND_TIME_ASSIGNMENT ( #44, #48, ( #47 ) ) ;
#39 = MECHANICAL_CONTEXT ( 'NONE', #45, 'mechanical' ) ;
#40 = ADVANCED_FACE ( 'NONE', ( #89 ), #78, .T. ) ;
#41 = DIRECTION ( 'NONE',  ( -0.0000000000000000000, -0.0000000000000000000, -1.000000000000000000 ) ) ;
#42 = VECTOR ( 'NONE', #72, 1000.000000000000000 ) ;
#43 = EDGE_CURVE ( 'NONE', #245, #81, #98, .T. ) ;
#44 = DATE_AND_TIME ( #265, #291 ) ;
#45 = APPLICATION_CONTEXT ( 'configuration controlled 3d designs of mechanical parts and assemblies' ) ;
#46 = DIRECTION ( 'NONE',  ( 1.000000000000000000, 0.0000000000000000000, 0.0000000000000000000 ) ) ;
#47 = PRODUCT_DEFINITION ( 'UNKNOWN', '', #14, #262 ) ;
#48 = DATE_TIME_ROLE ( 'creation_date' ) ;
#49 = CIRCLE ( 'NONE', #79, 6.349999999999999600 ) ;
#50 = CC_DESIGN_PERSON_AND_ORGANIZATION_ASSIGNMENT ( #248, #267, ( #29 ) ) ;
#51 = APPROVAL_PERSON_ORGANIZATION ( #253, #281, #195 ) ;
#52 = CARTESIAN_POINT ( 'NONE',  ( 1.065814103640150000E-014, 2.153178383534283900, -0.1350146044958223100 ) ) ;
#53 = CARTESIAN_POINT ( 'NONE',  ( -6.404669860280208100, -2.153178383534269300, 0.2642016629464217200 ) ) ;
#54 = CARTESIAN_POINT ( 'NONE',  ( -2.141799038558827900, 2.153178383534283500, -0.1350146044958262500 ) ) ;
#55 = CC_DESIGN_PERSON_AND_ORGANIZATION_ASSIGNMENT ( #169, #157, ( #14 ) ) ;
#56 = CARTESIAN_POINT ( 'NONE',  ( 2.498001805406600200E-016, 1.221245327087670000E-015, 0.3934418398262700100 ) ) ;
#57 = ORIENTED_EDGE ( 'NONE', *, *, #25, .F. ) ;
#58 = APPROVAL_DATE_TIME ( #187, #281 ) ;
#59 = CARTESIAN_POINT ( 'NONE',  ( 4.234813436535348300, 6.425803528442627600, 0.5347830533674194900 ) ) ;
#60 = CARTESIAN_POINT ( 'NONE',  ( 1.065814103640150000E-014, -6.350000000000008500, 0.3934418398262711800 ) ) ;
#61 = CARTESIAN_POINT ( 'NONE',  ( 6.349999999999999600, 1.221245327087670000E-015, 0.3934418398262700100 ) ) ;
#62 = VERTEX_POINT ( 'NONE', #211 ) ;
#63 = CARTESIAN_POINT ( 'NONE',  ( 6.404669860280208100, -2.153178383534271500, 2.235798337053580600 ) ) ;
#64 = CC_DESIGN_PERSON_AND_ORGANIZATION_ASSIGNMENT ( #136, #151, ( #161 ) ) ;
#65 =( BOUNDED_SURFACE ( )  B_SPLINE_SURFACE ( 3, 3, ( 
 ( #255, #118, #228, #165 ),
 ( #139, #162, #116, #83 ),
 ( #52, #30, #84, #32 ),
 ( #102, #3, #59, #28 ) ),
 .UNSPECIFIED., .F., .F., .T. ) 
 B_SPLINE_SURFACE_WITH_KNOTS ( ( 4, 4 ),
 ( 4, 4 ),
 ( 0.0000000000000000000, 1.000000000000000000 ),
 ( 0.0000000000000000000, 1.000000000000000000 ),
 .UNSPECIFIED. ) 
 GEOMETRIC_REPRESENTATION_ITEM ( )  RATIONAL_B_SPLINE_SURFACE ( (
 ( 1.000000000000000000, 0.9987086664400246500, 0.9987086664400246500, 1.000000000000000000),
 ( 0.9947780108980348600, 0.9934934206678367500, 0.9934934206678367500, 0.9947780108980348600),
 ( 0.9947780108980348600, 0.9934934206678367500, 0.9934934206678367500, 0.9947780108980348600),
 ( 1.000000000000000000, 0.9987086664400246500, 0.9987086664400246500, 1.000000000000000000) ) ) 
 REPRESENTATION_ITEM ( '' )  SURFACE ( )  );
#66 = CARTESIAN_POINT ( 'NONE',  ( -1.065814103640150000E-014, 2.153178383534281300, 2.635014604495824500 ) ) ;
#67 = EDGE_LOOP ( 'NONE', ( #177, #2, #119, #158, #37, #221 ) ) ;
#68 = CALENDAR_DATE ( 2019, 9, 1 ) ;
#69 = CARTESIAN_POINT ( 'NONE',  ( -2.119459415071445600, 6.425803528442624900, 2.097071320892367500 ) ) ;
#70 = ADVANCED_FACE ( 'NONE', ( #236 ), #141, .T. ) ;
#71 = CARTESIAN_POINT ( 'NONE',  ( 0.0000000000000000000, 0.0000000000000000000, 0.0000000000000000000 ) ) ;
#72 = DIRECTION ( 'NONE',  ( 0.0000000000000000000, 0.0000000000000000000, 1.000000000000000000 ) ) ;
#73 = AXIS2_PLACEMENT_3D ( 'NONE', #209, #237, #235 ) ;
#74 = FACE_OUTER_BOUND ( 'NONE', #133, .T. ) ;
#75 = DATE_TIME_ROLE ( 'classification_date' ) ;
#76 = ORIENTED_EDGE ( 'NONE', *, *, #1, .T. ) ;
#77 = CALENDAR_DATE ( 2019, 9, 1 ) ;
#78 =( BOUNDED_SURFACE ( )  B_SPLINE_SURFACE ( 3, 3, ( 
 ( #140, #233, #4, #183 ),
 ( #53, #251, #230, #117 ),
 ( #278, #5, #54, #207 ),
 ( #142, #167, #144, #10 ) ),
 .UNSPECIFIED., .F., .F., .T. ) 
 B_SPLINE_SURFACE_WITH_KNOTS ( ( 4, 4 ),
 ( 4, 4 ),
 ( 0.0000000000000000000, 1.000000000000000000 ),
 ( 0.0000000000000000000, 1.000000000000000000 ),
 .UNSPECIFIED. ) 
 GEOMETRIC_REPRESENTATION_ITEM ( )  RATIONAL_B_SPLINE_SURFACE ( (
 ( 1.000000000000000000, 0.9987086664400246500, 0.9987086664400246500, 1.000000000000000000),
 ( 0.9947780108980348600, 0.9934934206678367500, 0.9934934206678367500, 0.9947780108980348600),
 ( 0.9947780108980348600, 0.9934934206678367500, 0.9934934206678367500, 0.9947780108980348600),
 ( 1.000000000000000000, 0.9987086664400246500, 0.9987086664400246500, 1.000000000000000000) ) ) 
 REPRESENTATION_ITEM ( '' )  SURFACE ( )  );
#79 = AXIS2_PLACEMENT_3D ( 'NONE', #185, #103, #7 ) ;
#80 = APPROVAL ( #220, 'UNSPECIFIED' ) ;
#81 = VERTEX_POINT ( 'NONE', #60 ) ;
#82 = CALENDAR_DATE ( 2019, 9, 1 ) ;
#83 = CARTESIAN_POINT ( 'NONE',  ( 6.404669860280213500, -2.153178383534269300, 0.2642016629464195600 ) ) ;
#84 = CARTESIAN_POINT ( 'NONE',  ( 4.279449411651837600, 2.153178383534283500, -0.001770452703529887200 ) ) ;
#85 = CARTESIAN_POINT ( 'NONE',  ( 6.337867181474278400, 6.425803528442624900, 1.702019002048540800 ) ) ;
#86 = DIRECTION ( 'NONE',  ( 1.000000000000000000, 0.0000000000000000000, 0.0000000000000000000 ) ) ;
#87 = CARTESIAN_POINT ( 'NONE',  ( 6.337867181474278400, -6.425803528442615200, 1.702019002048540800 ) ) ;
#88 = CARTESIAN_POINT ( 'NONE',  ( 2.119459415071439400, -6.425803528442615200, 2.097071320892371000 ) ) ;
#89 = FACE_OUTER_BOUND ( 'NONE', #284, .T. ) ;
#90 = LOCAL_TIME ( 8, 45, 30.00000000000000000, #178 ) ;
#91 = CC_DESIGN_PERSON_AND_ORGANIZATION_ASSIGNMENT ( #285, #268, ( #14 ) ) ;
#92 = DIRECTION ( 'NONE',  ( 1.000000000000000000, 0.0000000000000000000, 0.0000000000000000000 ) ) ;
#93 = ADVANCED_FACE ( 'NONE', ( #115 ), #26, .T. ) ;
#94 = EDGE_CURVE ( 'NONE', #106, #288, #174, .T. ) ;
#95 = CIRCLE ( 'NONE', #109, 6.349999999999999600 ) ;
#96 = DIRECTION ( 'NONE',  ( -0.0000000000000000000, -0.0000000000000000000, -1.000000000000000000 ) ) ;
#97 = CC_DESIGN_APPROVAL ( #281, ( #47 ) ) ;
#98 = CIRCLE ( 'NONE', #73, 6.349999999999999600 ) ;
#99 = EDGE_CURVE ( 'NONE', #62, #250, #114, .T. ) ;
#100 = DIRECTION ( 'NONE',  ( 1.000000000000000000, 0.0000000000000000000, 0.0000000000000000000 ) ) ;
#101 = ORIENTED_EDGE ( 'NONE', *, *, #94, .T. ) ;
#102 = CARTESIAN_POINT ( 'NONE',  ( 1.065814103640150000E-014, 6.425803528442627600, 0.4029286791076350200 ) ) ;
#103 = DIRECTION ( 'NONE',  ( -0.0000000000000000000, -0.0000000000000000000, -1.000000000000000000 ) ) ;
#104 = AXIS2_PLACEMENT_3D ( 'NONE', #212, #259, #122 ) ;
#105 = CARTESIAN_POINT ( 'NONE',  ( 4.279449411651832200, 2.153178383534280800, 2.501770452703530300 ) ) ;
#106 = VERTEX_POINT ( 'NONE', #286 ) ;
#107 = APPROVAL_PERSON_ORGANIZATION ( #138, #80, #182 ) ;
#108 = PRODUCT_RELATED_PRODUCT_CATEGORY ( 'detail', '', ( #161 ) ) ;
#109 = AXIS2_PLACEMENT_3D ( 'NONE', #23, #150, #92 ) ;
#110 = ORIENTED_EDGE ( 'NONE', *, *, #229, .F. ) ;
#111 = CARTESIAN_POINT ( 'NONE',  ( -6.337867181474283700, 6.425803528442624900, 1.702019002048543100 ) ) ;
#112 = CC_DESIGN_SECURITY_CLASSIFICATION ( #29, ( #14 ) ) ;
#113 = APPROVAL_STATUS ( 'not_yet_approved' ) ;
#114 = CIRCLE ( 'NONE', #145, 6.349999999999999600 ) ;
#115 = FACE_OUTER_BOUND ( 'NONE', #17, .T. ) ;
#116 = CARTESIAN_POINT ( 'NONE',  ( 4.279449411651837600, -2.153178383534268800, -0.001770452703530320900 ) ) ;
#117 = CARTESIAN_POINT ( 'NONE',  ( -3.469446951953614200E-015, -2.153178383534269300, -0.1350146044958273600 ) ) ;
#118 = CARTESIAN_POINT ( 'NONE',  ( 2.119459415071445600, -6.425803528442612500, 0.4029286791076349700 ) ) ;
#119 = ORIENTED_EDGE ( 'NONE', *, *, #43, .F. ) ;
#120 = EDGE_CURVE ( 'NONE', #288, #128, #226, .T. ) ;
#121 = PERSON_AND_ORGANIZATION ( #274, #159 ) ;
#122 = DIRECTION ( 'NONE',  ( 1.000000000000000000, 0.0000000000000000000, 0.0000000000000000000 ) ) ;
#123 = CARTESIAN_POINT ( 'NONE',  ( 3.469446951953614200E-015, -6.425803528442615200, 2.097071320892371500 ) ) ;
#124 = ORIENTED_EDGE ( 'NONE', *, *, #43, .T. ) ;
#125 = AXIS2_PLACEMENT_3D ( 'NONE', #56, #143, #100 ) ;
#126 = DIRECTION ( 'NONE',  ( -1.000000000000000000, 0.0000000000000000000, 0.0000000000000000000 ) ) ;
#127 = ADVANCED_FACE ( 'NONE', ( #294 ), #279, .T. ) ;
#128 = VERTEX_POINT ( 'NONE', #36 ) ;
#129 = DIRECTION ( 'NONE',  ( 0.0000000000000000000, 0.0000000000000000000, 1.000000000000000000 ) ) ;
#130 = COORDINATED_UNIVERSAL_TIME_OFFSET ( 2, 0, .AHEAD. ) ;
#131 = DIRECTION ( 'NONE',  ( 0.0000000000000000000, -1.000000000000000000, 0.0000000000000000000 ) ) ;
#132 = APPLICATION_CONTEXT ( 'configuration controlled 3d designs of mechanical parts and assemblies' ) ;
#133 = EDGE_LOOP ( 'NONE', ( #124, #260, #76 ) ) ;
#134 = APPROVAL_STATUS ( 'not_yet_approved' ) ;
#135 = CIRCLE ( 'NONE', #125, 6.349999999999999600 ) ;
#136 = PERSON_AND_ORGANIZATION ( #274, #159 ) ;
#137 = AXIS2_PLACEMENT_3D ( 'NONE', #261, #234, #13 ) ;
#138 = PERSON_AND_ORGANIZATION ( #274, #159 ) ;
#139 = CARTESIAN_POINT ( 'NONE',  ( 1.065814103640150000E-014, -2.153178383534269300, -0.1350146044958227800 ) ) ;
#140 = CARTESIAN_POINT ( 'NONE',  ( -6.337867181474278400, -6.425803528442612500, 0.7979809979514612700 ) ) ;
#141 = CYLINDRICAL_SURFACE ( 'NONE', #18, 6.349999999999999600 ) ;
#142 = CARTESIAN_POINT ( 'NONE',  ( -6.337867181474278400, 6.425803528442627600, 0.7979809979514612700 ) ) ;
#143 = DIRECTION ( 'NONE',  ( -0.0000000000000000000, -0.0000000000000000000, -1.000000000000000000 ) ) ;
#144 = CARTESIAN_POINT ( 'NONE',  ( -2.119459415071438500, 6.425803528442627600, 0.4029286791076310800 ) ) ;
#145 = AXIS2_PLACEMENT_3D ( 'NONE', #175, #148, #146 ) ;
#146 = DIRECTION ( 'NONE',  ( 1.000000000000000000, 0.0000000000000000000, 0.0000000000000000000 ) ) ;
#147 = MANIFOLD_SOLID_BREP ( 'Imported1', #24 ) ;
#148 = DIRECTION ( 'NONE',  ( -0.0000000000000000000, -0.0000000000000000000, -1.000000000000000000 ) ) ;
#149 = VECTOR ( 'NONE', #189, 1000.000000000000000 ) ;
#150 = DIRECTION ( 'NONE',  ( -0.0000000000000000000, -0.0000000000000000000, -1.000000000000000000 ) ) ;
#151 = PERSON_AND_ORGANIZATION_ROLE ( 'design_owner' ) ;
#152 = AXIS2_PLACEMENT_3D ( 'NONE', #201, #41, #153 ) ;
#153 = DIRECTION ( 'NONE',  ( 1.000000000000000000, 0.0000000000000000000, 0.0000000000000000000 ) ) ;
#154 = CIRCLE ( 'NONE', #287, 51.43999999999999100 ) ;
#155 = APPROVAL_DATE_TIME ( #273, #80 ) ;
#156 = PERSON_AND_ORGANIZATION_ROLE ( 'creator' ) ;
#157 = PERSON_AND_ORGANIZATION_ROLE ( 'design_supplier' ) ;
#158 = ORIENTED_EDGE ( 'NONE', *, *, #224, .T. ) ;
#159 = ORGANIZATION ( 'UNSPECIFIED', 'UNSPECIFIED', '' ) ;
#160 = LOCAL_TIME ( 8, 45, 30.00000000000000000, #35 ) ;
#161 = PRODUCT ( '111-0116E BK7 bi-cx 12.7 F50', '111-0116E BK7 bi-cx 12.7 F50', '', ( #39 ) ) ;
#162 = CARTESIAN_POINT ( 'NONE',  ( 2.141799038558835000, -2.153178383534268800, -0.1350146044958227800 ) ) ;
#163 = ORIENTED_EDGE ( 'NONE', *, *, #25, .T. ) ;
#164 = COORDINATED_UNIVERSAL_TIME_OFFSET ( 2, 0, .AHEAD. ) ;
#165 = CARTESIAN_POINT ( 'NONE',  ( 6.337867181474283700, -6.425803528442612500, 0.7979809979514590500 ) ) ;
#166 = APPROVAL ( #134, 'UNSPECIFIED' ) ;
#167 = CARTESIAN_POINT ( 'NONE',  ( -4.234813436535341100, 6.425803528442627600, 0.5347830533674208200 ) ) ;
#168 = ORIENTED_EDGE ( 'NONE', *, *, #1, .F. ) ;
#169 = PERSON_AND_ORGANIZATION ( #274, #159 ) ;
#170 = CARTESIAN_POINT ( 'NONE',  ( 3.469446951953614200E-015, -2.153178383534271900, 2.635014604495829400 ) ) ;
#171 = CARTESIAN_POINT ( 'NONE',  ( 6.349999999999999600, 1.221245327087670000E-015, 0.3934418398262700100 ) ) ;
#172 = CARTESIAN_POINT ( 'NONE',  ( -1.065814103640150000E-014, 1.065814103640150000E-014, -48.93999999999999800 ) ) ;
#173 = UNCERTAINTY_MEASURE_WITH_UNIT (LENGTH_MEASURE( 1.000000000000000100E-005 ), #180, 'distance_accuracy_value', 'NONE');
#174 = LINE ( 'NONE', #33, #149 ) ;
#175 = CARTESIAN_POINT ( 'NONE',  ( 2.498001805406600200E-016, 1.221245327087670000E-015, 2.106558160173730000 ) ) ;
#176 = CARTESIAN_POINT ( 'NONE',  ( -2.141799038558835000, -2.153178383534271500, 2.635014604495824500 ) ) ;
#177 = ORIENTED_EDGE ( 'NONE', *, *, #94, .F. ) ;
#178 = COORDINATED_UNIVERSAL_TIME_OFFSET ( 2, 0, .AHEAD. ) ;
#179 = CARTESIAN_POINT ( 'NONE',  ( 2.498001805406600200E-016, 1.221245327087670000E-015, 2.106558160173730000 ) ) ;
#180 =( LENGTH_UNIT ( ) NAMED_UNIT ( * ) SI_UNIT ( .MILLI., .METRE. ) );
#181 = CARTESIAN_POINT ( 'NONE',  ( -4.279449411651837600, -2.153178383534271500, 2.501770452703532500 ) ) ;
#182 = APPROVAL_ROLE ( '' ) ;
#183 = CARTESIAN_POINT ( 'NONE',  ( -2.602085213965210600E-015, -6.425803528442612500, 0.4029286791076306400 ) ) ;
#184 = AXIS2_PLACEMENT_3D ( 'NONE', #172, #126, #283 ) ;
#185 = CARTESIAN_POINT ( 'NONE',  ( 2.498001805406600200E-016, 1.221245327087670000E-015, 0.3934418398262700100 ) ) ;
#186 = ORIENTED_EDGE ( 'NONE', *, *, #224, .F. ) ;
#187 = DATE_AND_TIME ( #82, #90 ) ;
#188 = CC_DESIGN_DATE_AND_TIME_ASSIGNMENT ( #206, #75, ( #29 ) ) ;
#189 = DIRECTION ( 'NONE',  ( 0.0000000000000000000, 0.0000000000000000000, 1.000000000000000000 ) ) ;
#190 = CARTESIAN_POINT ( 'NONE',  ( 1.065814103640150000E-014, 6.350000000000019200, 0.3934418398262711800 ) ) ;
#191 = ORIENTED_EDGE ( 'NONE', *, *, #99, .F. ) ;
#192 = CARTESIAN_POINT ( 'NONE',  ( 6.404669860280208100, 2.153178383534281300, 2.235798337053579700 ) ) ;
#193 = CARTESIAN_POINT ( 'NONE',  ( 2.141799038558827900, -2.153178383534271900, 2.635014604495828900 ) ) ;
#194 = CARTESIAN_POINT ( 'NONE',  ( -2.141799038558835000, 2.153178383534280800, 2.635014604495823600 ) ) ;
#195 = APPROVAL_ROLE ( '' ) ;
#196 = CARTESIAN_POINT ( 'NONE',  ( -1.065814103640150000E-014, 6.425803528442624900, 2.097071320892367000 ) ) ;
#197 = CARTESIAN_POINT ( 'NONE',  ( -6.404669860280212600, 2.153178383534281300, 2.235798337053581900 ) ) ;
#198 = CIRCLE ( 'NONE', #232, 6.349999999999999600 ) ;
#199 = APPROVAL_PERSON_ORGANIZATION ( #121, #166, #202 ) ;
#200 = CC_DESIGN_APPROVAL ( #166, ( #14 ) ) ;
#201 = CARTESIAN_POINT ( 'NONE',  ( 2.498001805406600200E-016, 1.221245327087670000E-015, 0.3934418398262700100 ) ) ;
#202 = APPROVAL_ROLE ( '' ) ;
#203 = EDGE_CURVE ( 'NONE', #250, #128, #205, .T. ) ;
#204 = ORIENTED_EDGE ( 'NONE', *, *, #249, .F. ) ;
#205 = CIRCLE ( 'NONE', #184, 51.43999999999999100 ) ;
#206 = DATE_AND_TIME ( #280, #271 ) ;
#207 = CARTESIAN_POINT ( 'NONE',  ( -3.469446951953614200E-015, 2.153178383534283900, -0.1350146044958268100 ) ) ;
#208 = LOCAL_TIME ( 8, 45, 30.00000000000000000, #130 ) ;
#209 = CARTESIAN_POINT ( 'NONE',  ( 2.498001805406600200E-016, 1.221245327087670000E-015, 0.3934418398262700100 ) ) ;
#210 = CARTESIAN_POINT ( 'NONE',  ( 4.234813436535341100, 6.425803528442624900, 1.965216946632581300 ) ) ;
#211 = CARTESIAN_POINT ( 'NONE',  ( 6.349999999999999600, 1.221245327087670000E-015, 2.106558160173730000 ) ) ;
#212 = CARTESIAN_POINT ( 'NONE',  ( 2.498001805406600200E-016, 1.221245327087670000E-015, 2.106558160173730000 ) ) ;
#213 = VERTEX_POINT ( 'NONE', #190 ) ;
#214 = CARTESIAN_POINT ( 'NONE',  ( 4.234813436535341100, -6.425803528442615200, 1.965216946632581300 ) ) ;
#215 = CARTESIAN_POINT ( 'NONE',  ( -4.279449411651836700, 2.153178383534280800, 2.501770452703531600 ) ) ;
#216 = DIRECTION ( 'NONE',  ( 1.000000000000000000, 0.0000000000000000000, 0.0000000000000000000 ) ) ;
#217 = FACE_OUTER_BOUND ( 'NONE', #223, .T. ) ;
#218 = APPLICATION_PROTOCOL_DEFINITION ( 'international standard', 'config_control_design', 1994, #45 ) ;
#219 = DIRECTION ( 'NONE',  ( 1.000000000000000000, 0.0000000000000000000, 0.0000000000000000000 ) ) ;
#220 = APPROVAL_STATUS ( 'not_yet_approved' ) ;
#221 = ORIENTED_EDGE ( 'NONE', *, *, #229, .T. ) ;
#222 = COORDINATED_UNIVERSAL_TIME_OFFSET ( 2, 0, .AHEAD. ) ;
#223 = EDGE_LOOP ( 'NONE', ( #110, #8, #241 ) ) ;
#224 = EDGE_CURVE ( 'NONE', #245, #62, #34, .T. ) ;
#225 = DATE_AND_TIME ( #68, #208 ) ;
#226 = CIRCLE ( 'NONE', #104, 6.349999999999999600 ) ;
#227 = DIRECTION ( 'NONE',  ( 0.0000000000000000000, 0.0000000000000000000, 1.000000000000000000 ) ) ;
#228 = CARTESIAN_POINT ( 'NONE',  ( 4.234813436535348300, -6.425803528442612500, 0.5347830533674194900 ) ) ;
#229 = EDGE_CURVE ( 'NONE', #250, #288, #95, .T. ) ;
#230 = CARTESIAN_POINT ( 'NONE',  ( -2.141799038558827900, -2.153178383534268800, -0.1350146044958268100 ) ) ;
#231 = ORIENTED_EDGE ( 'NONE', *, *, #257, .T. ) ;
#232 = AXIS2_PLACEMENT_3D ( 'NONE', #179, #96, #219 ) ;
#233 = CARTESIAN_POINT ( 'NONE',  ( -4.234813436535341100, -6.425803528442612500, 0.5347830533674208200 ) ) ;
#234 = DIRECTION ( 'NONE',  ( 0.0000000000000000000, 0.0000000000000000000, 1.000000000000000000 ) ) ;
#235 = DIRECTION ( 'NONE',  ( 1.000000000000000000, 0.0000000000000000000, 0.0000000000000000000 ) ) ;
#236 = FACE_OUTER_BOUND ( 'NONE', #67, .T. ) ;
#237 = DIRECTION ( 'NONE',  ( -0.0000000000000000000, -0.0000000000000000000, -1.000000000000000000 ) ) ;
#238 = CARTESIAN_POINT ( 'NONE',  ( 3.469446951953614200E-015, 6.425803528442624900, 2.097071320892371500 ) ) ;
#239 = CARTESIAN_POINT ( 'NONE',  ( 2.141799038558827900, 2.153178383534280400, 2.635014604495828000 ) ) ;
#240 = CARTESIAN_POINT ( 'NONE',  ( -4.234813436535348300, 6.425803528442624900, 1.965216946632582600 ) ) ;
#241 = ORIENTED_EDGE ( 'NONE', *, *, #120, .F. ) ;
#242 = CARTESIAN_POINT ( 'NONE',  ( -1.065814103640150000E-014, -6.425803528442615200, 2.097071320892367000 ) ) ;
#243 =( NAMED_UNIT ( * ) PLANE_ANGLE_UNIT ( ) SI_UNIT ( $, .RADIAN. ) );
#244 = CARTESIAN_POINT ( 'NONE',  ( -1.065814103640150000E-014, -6.350000000000008500, 2.106558160173730000 ) ) ;
#245 = VERTEX_POINT ( 'NONE', #61 ) ;
#246 = EDGE_CURVE ( 'NONE', #81, #106, #272, .T. ) ;
#247 = EDGE_LOOP ( 'NONE', ( #57, #101, #252, #231, #186, #168 ) ) ;
#248 = PERSON_AND_ORGANIZATION ( #274, #159 ) ;
#249 = EDGE_CURVE ( 'NONE', #81, #213, #154, .T. ) ;
#250 = VERTEX_POINT ( 'NONE', #244 ) ;
#251 = CARTESIAN_POINT ( 'NONE',  ( -4.279449411651832200, -2.153178383534268800, -0.001770452703528911400 ) ) ;
#252 = ORIENTED_EDGE ( 'NONE', *, *, #120, .T. ) ;
#253 = PERSON_AND_ORGANIZATION ( #274, #159 ) ;
#254 = CC_DESIGN_PERSON_AND_ORGANIZATION_ASSIGNMENT ( #19, #156, ( #47 ) ) ;
#255 = CARTESIAN_POINT ( 'NONE',  ( 1.065814103640150000E-014, -6.425803528442612500, 0.4029286791076350200 ) ) ;
#256 = ADVANCED_BREP_SHAPE_REPRESENTATION ( '111-0116E BK7 bi-cx 12.7 F50', ( #147, #275 ), #6 ) ;
#257 = EDGE_CURVE ( 'NONE', #128, #62, #198, .T. ) ;
#258 = PRODUCT_DEFINITION_SHAPE ( 'NONE', 'NONE',  #47 ) ;
#259 = DIRECTION ( 'NONE',  ( -0.0000000000000000000, -0.0000000000000000000, -1.000000000000000000 ) ) ;
#260 = ORIENTED_EDGE ( 'NONE', *, *, #249, .T. ) ;
#261 = CARTESIAN_POINT ( 'NONE',  ( 2.498001805406600200E-016, 1.221245327087670000E-015, 0.3934418398262700100 ) ) ;
#262 = DESIGN_CONTEXT ( 'detailed design', #132, 'design' ) ;
#263 =( NAMED_UNIT ( * ) SI_UNIT ( $, .STERADIAN. ) SOLID_ANGLE_UNIT ( ) );
#264 = CARTESIAN_POINT ( 'NONE',  ( 1.065814103640150000E-014, 1.065814103640150000E-014, 51.43999999999999800 ) ) ;
#265 = CALENDAR_DATE ( 2019, 9, 1 ) ;
#266 = CARTESIAN_POINT ( 'NONE',  ( -1.065814103640150000E-014, -2.153178383534271500, 2.635014604495824900 ) ) ;
#267 = PERSON_AND_ORGANIZATION_ROLE ( 'classification_officer' ) ;
#268 = PERSON_AND_ORGANIZATION_ROLE ( 'creator' ) ;
#269 = ORIENTED_EDGE ( 'NONE', *, *, #257, .F. ) ;
#270 =( BOUNDED_SURFACE ( )  B_SPLINE_SURFACE ( 3, 3, ( 
 ( #242, #292, #22, #16 ),
 ( #266, #176, #181, #289 ),
 ( #66, #194, #215, #197 ),
 ( #196, #69, #240, #111 ) ),
 .UNSPECIFIED., .F., .F., .T. ) 
 B_SPLINE_SURFACE_WITH_KNOTS ( ( 4, 4 ),
 ( 4, 4 ),
 ( 0.0000000000000000000, 1.000000000000000000 ),
 ( 0.0000000000000000000, 1.000000000000000000 ),
 .UNSPECIFIED. ) 
 GEOMETRIC_REPRESENTATION_ITEM ( )  RATIONAL_B_SPLINE_SURFACE ( (
 ( 1.000000000000000000, 0.9987086664400246500, 0.9987086664400246500, 1.000000000000000000),
 ( 0.9947780108980348600, 0.9934934206678367500, 0.9934934206678367500, 0.9947780108980348600),
 ( 0.9947780108980348600, 0.9934934206678367500, 0.9934934206678367500, 0.9947780108980348600),
 ( 1.000000000000000000, 0.9987086664400246500, 0.9987086664400246500, 1.000000000000000000) ) ) 
 REPRESENTATION_ITEM ( '' )  SURFACE ( )  );
#271 = LOCAL_TIME ( 8, 45, 30.00000000000000000, #164 ) ;
#272 = CIRCLE ( 'NONE', #152, 6.349999999999999600 ) ;
#273 = DATE_AND_TIME ( #77, #160 ) ;
#274 = PERSON ( 'UNSPECIFIED', 'UNSPECIFIED', 'UNSPECIFIED', ('UNSPECIFIED'), ('UNSPECIFIED'), ('UNSPECIFIED') ) ;
#275 = AXIS2_PLACEMENT_3D ( 'NONE', #71, #129, #46 ) ;
#276 = CARTESIAN_POINT ( 'NONE',  ( 2.498001805406600200E-016, 1.221245327087670000E-015, 0.3934418398262700100 ) ) ;
#277 = APPROVAL_DATE_TIME ( #225, #166 ) ;
#278 = CARTESIAN_POINT ( 'NONE',  ( -6.404669860280208100, 2.153178383534283900, 0.2642016629464222800 ) ) ;
#279 = CYLINDRICAL_SURFACE ( 'NONE', #137, 6.349999999999999600 ) ;
#280 = CALENDAR_DATE ( 2019, 9, 1 ) ;
#281 = APPROVAL ( #113, 'UNSPECIFIED' ) ;
#282 = CARTESIAN_POINT ( 'NONE',  ( 2.119459415071439400, 6.425803528442624900, 2.097071320892371000 ) ) ;
#283 = DIRECTION ( 'NONE',  ( 0.0000000000000000000, -1.000000000000000000, -2.697859216138113900E-016 ) ) ;
#284 = EDGE_LOOP ( 'NONE', ( #204, #31, #163 ) ) ;
#285 = PERSON_AND_ORGANIZATION ( #274, #159 ) ;
#286 = CARTESIAN_POINT ( 'NONE',  ( -6.349999999999999600, 1.998896044546239400E-015, 0.3934418398262700100 ) ) ;
#287 = AXIS2_PLACEMENT_3D ( 'NONE', #264, #216, #131 ) ;
#288 = VERTEX_POINT ( 'NONE', #20 ) ;
#289 = CARTESIAN_POINT ( 'NONE',  ( -6.404669860280213500, -2.153178383534271500, 2.235798337053582800 ) ) ;
#290 = ADVANCED_FACE ( 'NONE', ( #217 ), #270, .T. ) ;
#291 = LOCAL_TIME ( 8, 45, 30.00000000000000000, #222 ) ;
#292 = CARTESIAN_POINT ( 'NONE',  ( -2.119459415071445600, -6.425803528442615200, 2.097071320892367500 ) ) ;
#293 = APPLICATION_PROTOCOL_DEFINITION ( 'international standard', 'config_control_design', 1994, #132 ) ;
#294 = FACE_OUTER_BOUND ( 'NONE', #247, .T. ) ;
#295 = SECURITY_CLASSIFICATION_LEVEL ( 'unclassified' ) ;
ENDSEC;
END-ISO-10303-21;
