ISO-10303-21;
HEADER;
FILE_DESCRIPTION (( 'STEP AP203' ),
    '1' );
FILE_NAME ('111-0108E BK7 bi-cx 12.7 F25.STEP',
    '2019-01-08T14:56:47',
    ( '' ),
    ( '' ),
    'SwSTEP 2.0',
    'SolidWorks 2017',
    '' );
FILE_SCHEMA (( 'CONFIG_CONTROL_DESIGN' ));
ENDSEC;

DATA;
#1 = AXIS2_PLACEMENT_3D ( 'NONE', #203, #222, #225 ) ;
#2 = EDGE_LOOP ( 'NONE', ( #185, #183, #17 ) ) ;
#3 = ADVANCED_BREP_SHAPE_REPRESENTATION ( '111-0108E BK7 bi-cx 12.7 F25', ( #107, #224 ), #58 ) ;
#4 = AXIS2_PLACEMENT_3D ( 'NONE', #132, #155, #175 ) ;
#5 = FACE_OUTER_BOUND ( 'NONE', #294, .T. ) ;
#6 = ORIENTED_EDGE ( 'NONE', *, *, #69, .T. ) ;
#7 = CARTESIAN_POINT ( 'NONE',  ( 6.458503323210286400, -2.189274290513176800, 0.5456402589009865500 ) ) ;
#8 = ADVANCED_FACE ( 'NONE', ( #110 ), #33, .T. ) ;
#9 = DIRECTION ( 'NONE',  ( -0.0000000000000000000, -0.0000000000000000000, -1.000000000000000000 ) ) ;
#10 = CARTESIAN_POINT ( 'NONE',  ( 6.458503323210286400, -2.189274290513178100, 2.954359741099020100 ) ) ;
#11 = CARTESIAN_POINT ( 'NONE',  ( -2.087568551346116000, -6.424531258347422600, 2.671382119237717800 ) ) ;
#12 = ORIENTED_EDGE ( 'NONE', *, *, #263, .T. ) ;
#13 = CARTESIAN_POINT ( 'NONE',  ( 1.776356839400250100E-015, 1.243449787580180100E-014, 25.32000000000000400 ) ) ;
#14 = DIRECTION ( 'NONE',  ( -2.869132700220389600E-016, -1.000000000000000000, 0.0000000000000000000 ) ) ;
#15 = LOCAL_TIME ( 16, 56, 47.00000000000000000, #202 ) ;
#16 = CARTESIAN_POINT ( 'NONE',  ( -1.301042606982605300E-014, -6.424531258347406600, 0.8286178807622873700 ) ) ;
#17 = ORIENTED_EDGE ( 'NONE', *, *, #74, .F. ) ;
#18 = SECURITY_CLASSIFICATION ( '', '', #41 ) ;
#19 = CARTESIAN_POINT ( 'NONE',  ( -6.349999999999999600, 1.998896044546239400E-015, 0.8091880999425080700 ) ) ;
#20 = DESIGN_CONTEXT ( 'detailed design', #93, 'design' ) ;
#21 = PERSON_AND_ORGANIZATION ( #40, #100 ) ;
#22 = APPROVAL_ROLE ( '' ) ;
#23 = CIRCLE ( 'NONE', #158, 25.32000000000000400 ) ;
#24 = VERTEX_POINT ( 'NONE', #281 ) ;
#25 = SHAPE_DEFINITION_REPRESENTATION ( #96, #3 ) ;
#26 = CARTESIAN_POINT ( 'NONE',  ( 4.158189787217600600, -6.424531258347407500, 1.094080032730121000 ) ) ;
#27 = COORDINATED_UNIVERSAL_TIME_OFFSET ( 2, 0, .AHEAD. ) ;
#28 = DIRECTION ( 'NONE',  ( -0.0000000000000000000, -0.0000000000000000000, -1.000000000000000000 ) ) ;
#29 = CARTESIAN_POINT ( 'NONE',  ( 2.182265365667724200, 2.189274290513194600, 3.782366409324472200 ) ) ;
#30 = CC_DESIGN_DATE_AND_TIME_ASSIGNMENT ( #168, #246, ( #18 ) ) ;
#31 = ADVANCED_FACE ( 'NONE', ( #252 ), #186, .T. ) ;
#32 = DATE_AND_TIME ( #79, #251 ) ;
#33 =( BOUNDED_SURFACE ( )  B_SPLINE_SURFACE ( 3, 3, ( 
 ( #271, #191, #26, #141 ),
 ( #270, #232, #190, #7 ),
 ( #142, #54, #78, #99 ),
 ( #275, #51, #50, #208 ) ),
 .UNSPECIFIED., .F., .F., .F. ) 
 B_SPLINE_SURFACE_WITH_KNOTS ( ( 4, 4 ),
 ( 4, 4 ),
 ( 0.0000000000000000000, 1.000000000000000000 ),
 ( 0.0000000000000000000, 1.000000000000000000 ),
 .UNSPECIFIED. ) 
 GEOMETRIC_REPRESENTATION_ITEM ( )  RATIONAL_B_SPLINE_SURFACE ( (
 ( 1.000000000000000000, 0.9945878614098013800, 0.9945878614098013800, 1.000000000000000000),
 ( 0.9781827835502294700, 0.9728887227591093100, 0.9728887227591093100, 0.9781827835502294700),
 ( 0.9781827835502294700, 0.9728887227591093100, 0.9728887227591093100, 0.9781827835502294700),
 ( 1.000000000000000000, 0.9945878614098013800, 0.9945878614098013800, 1.000000000000000000) ) ) 
 REPRESENTATION_ITEM ( '' )  SURFACE ( )  );
#34 = CARTESIAN_POINT ( 'NONE',  ( -6.458503323210289100, 2.189274290513191900, 2.954359741099019700 ) ) ;
#35 = CYLINDRICAL_SURFACE ( 'NONE', #1, 6.349999999999999600 ) ;
#36 = ORIENTED_EDGE ( 'NONE', *, *, #117, .T. ) ;
#37 = DIRECTION ( 'NONE',  ( 1.000000000000000000, -2.869132700220390100E-016, -2.479514573743709900E-016 ) ) ;
#38 = PRODUCT ( '111-0108E BK7 bi-cx 12.7 F25', '111-0108E BK7 bi-cx 12.7 F25', '', ( #113 ) ) ;
#39 = CARTESIAN_POINT ( 'NONE',  ( -4.158189787217599700, -6.424531258347422600, 2.405919967269883200 ) ) ;
#40 = PERSON ( 'UNSPECIFIED', 'UNSPECIFIED', 'UNSPECIFIED', ('UNSPECIFIED'), ('UNSPECIFIED'), ('UNSPECIFIED') ) ;
#41 = SECURITY_CLASSIFICATION_LEVEL ( 'unclassified' ) ;
#42 = PERSON_AND_ORGANIZATION ( #40, #100 ) ;
#43 = APPROVAL_STATUS ( 'not_yet_approved' ) ;
#44 = CARTESIAN_POINT ( 'NONE',  ( 0.0000000000000000000, 0.0000000000000000000, 0.0000000000000000000 ) ) ;
#45 = AXIS2_PLACEMENT_3D ( 'NONE', #278, #9, #130 ) ;
#46 = APPROVAL_STATUS ( 'not_yet_approved' ) ;
#47 = CIRCLE ( 'NONE', #45, 6.349999999999999600 ) ;
#48 = CARTESIAN_POINT ( 'NONE',  ( -6.178244240325412300, 6.424531258347424300, 1.620694182795083600 ) ) ;
#49 = CC_DESIGN_APPROVAL ( #237, ( #18 ) ) ;
#50 = CARTESIAN_POINT ( 'NONE',  ( 4.158189787217605000, 6.424531258347421700, 1.094080032730117700 ) ) ;
#51 = CARTESIAN_POINT ( 'NONE',  ( 2.087568551346120000, 6.424531258347421700, 0.8286178807622821600 ) ) ;
#52 = PERSON_AND_ORGANIZATION ( #40, #100 ) ;
#53 = EDGE_LOOP ( 'NONE', ( #144, #131, #67 ) ) ;
#54 = CARTESIAN_POINT ( 'NONE',  ( 2.182265365667714000, 2.189274290513189200, -0.2823664093244701600 ) ) ;
#55 = DIRECTION ( 'NONE',  ( 1.000000000000000000, 1.776356839400250500E-015, 0.0000000000000000000 ) ) ;
#56 = CLOSED_SHELL ( 'NONE', ( #8, #101, #279, #192, #119, #31 ) ) ;
#57 = CARTESIAN_POINT ( 'NONE',  ( 2.182265365667723300, -2.189274290513179900, 3.782366409324474000 ) ) ;
#58 =( GEOMETRIC_REPRESENTATION_CONTEXT ( 3 ) GLOBAL_UNCERTAINTY_ASSIGNED_CONTEXT ( ( #295 ) ) GLOBAL_UNIT_ASSIGNED_CONTEXT ( ( #133, #92, #180 ) ) REPRESENTATION_CONTEXT ( 'NONE', 'WORKASPACE' ) );
#59 = CARTESIAN_POINT ( 'NONE',  ( 4.158189787217606800, -6.424531258347419900, 2.405919967269880100 ) ) ;
#60 = PERSON_AND_ORGANIZATION ( #40, #100 ) ;
#61 = CARTESIAN_POINT ( 'NONE',  ( -4.346814647436056900, -2.189274290513182100, 3.504862295861245400 ) ) ;
#62 = EDGE_CURVE ( 'NONE', #217, #274, #164, .T. ) ;
#63 = VERTEX_POINT ( 'NONE', #77 ) ;
#64 = CARTESIAN_POINT ( 'NONE',  ( 2.498001805406600200E-016, 1.221245327087670000E-015, 0.8091880999425080700 ) ) ;
#65 = CARTESIAN_POINT ( 'NONE',  ( -6.178244240325417600, 6.424531258347433200, 1.879305817204917300 ) ) ;
#66 = COORDINATED_UNIVERSAL_TIME_OFFSET ( 2, 0, .AHEAD. ) ;
#67 = ORIENTED_EDGE ( 'NONE', *, *, #111, .T. ) ;
#68 = CC_DESIGN_PERSON_AND_ORGANIZATION_ASSIGNMENT ( #106, #229, ( #157 ) ) ;
#69 = EDGE_CURVE ( 'NONE', #151, #253, #87, .T. ) ;
#70 = PERSON_AND_ORGANIZATION_ROLE ( 'creator' ) ;
#71 = CIRCLE ( 'NONE', #153, 6.349999999999999600 ) ;
#72 = APPROVAL_ROLE ( '' ) ;
#73 = ORIENTED_EDGE ( 'NONE', *, *, #82, .T. ) ;
#74 = EDGE_CURVE ( 'NONE', #253, #24, #47, .T. ) ;
#75 = PRODUCT_DEFINITION ( 'UNKNOWN', '', #157, #20 ) ;
#76 = LOCAL_TIME ( 16, 56, 47.00000000000000000, #136 ) ;
#77 = CARTESIAN_POINT ( 'NONE',  ( 6.123033957288033200E-015, -6.350000000000008500, 2.690811900057489000 ) ) ;
#78 = CARTESIAN_POINT ( 'NONE',  ( 4.346814647436058700, 2.189274290513188300, -0.004862295861239163300 ) ) ;
#79 = CALENDAR_DATE ( 2019, 8, 1 ) ;
#80 = CARTESIAN_POINT ( 'NONE',  ( 2.087568551346126200, 6.424531258347437700, 2.671382119237715200 ) ) ;
#81 = CC_DESIGN_PERSON_AND_ORGANIZATION_ASSIGNMENT ( #195, #94, ( #18 ) ) ;
#82 = EDGE_CURVE ( 'NONE', #210, #217, #23, .T. ) ;
#83 = CIRCLE ( 'NONE', #125, 25.32000000000000400 ) ;
#84 = CARTESIAN_POINT ( 'NONE',  ( 2.087568551346128000, -6.424531258347419900, 2.671382119237715200 ) ) ;
#85 = DIRECTION ( 'NONE',  ( -0.0000000000000000000, -0.0000000000000000000, -1.000000000000000000 ) ) ;
#86 = DIRECTION ( 'NONE',  ( -0.0000000000000000000, -0.0000000000000000000, -1.000000000000000000 ) ) ;
#87 = CIRCLE ( 'NONE', #194, 6.349999999999999600 ) ;
#88 = CARTESIAN_POINT ( 'NONE',  ( 2.498001805406600200E-016, 1.221245327087670000E-015, 2.690811900057489900 ) ) ;
#89 = CARTESIAN_POINT ( 'NONE',  ( -4.158189787217607700, -6.424531258347405700, 1.094080032730123900 ) ) ;
#90 = CARTESIAN_POINT ( 'NONE',  ( -4.346814647436061400, -2.189274290513173700, -0.004862295861234391100 ) ) ;
#91 = DIRECTION ( 'NONE',  ( -1.000000000000000000, -2.869132700220390100E-016, 2.479514573743709900E-016 ) ) ;
#92 =( NAMED_UNIT ( * ) PLANE_ANGLE_UNIT ( ) SI_UNIT ( $, .RADIAN. ) );
#93 = APPLICATION_CONTEXT ( 'configuration controlled 3d designs of mechanical parts and assemblies' ) ;
#94 = PERSON_AND_ORGANIZATION_ROLE ( 'classification_officer' ) ;
#95 = CYLINDRICAL_SURFACE ( 'NONE', #167, 6.349999999999999600 ) ;
#96 = PRODUCT_DEFINITION_SHAPE ( 'NONE', 'NONE',  #75 ) ;
#97 = ORIENTED_EDGE ( 'NONE', *, *, #178, .F. ) ;
#98 = AXIS2_PLACEMENT_3D ( 'NONE', #120, #28, #55 ) ;
#99 = CARTESIAN_POINT ( 'NONE',  ( 6.458503323210288200, 2.189274290513188800, 0.5456402589009846600 ) ) ;
#100 = ORGANIZATION ( 'UNSPECIFIED', 'UNSPECIFIED', '' ) ;
#101 = ADVANCED_FACE ( 'NONE', ( #213 ), #115, .T. ) ;
#102 = CARTESIAN_POINT ( 'NONE',  ( 1.214306433183765000E-014, -6.424531258347420800, 2.671382119237715600 ) ) ;
#103 = EDGE_CURVE ( 'NONE', #274, #210, #118, .T. ) ;
#104 = CARTESIAN_POINT ( 'NONE',  ( 1.127570259384924800E-014, 2.189274290513194600, 3.782366409324473100 ) ) ;
#105 = CARTESIAN_POINT ( 'NONE',  ( -4.158189787217605900, 6.424531258347435000, 2.405919967269882800 ) ) ;
#106 = PERSON_AND_ORGANIZATION ( #40, #100 ) ;
#107 = MANIFOLD_SOLID_BREP ( 'Imported1', #56 ) ;
#108 = DIRECTION ( 'NONE',  ( 1.000000000000000000, -8.881784197001252300E-016, 0.0000000000000000000 ) ) ;
#109 = DIRECTION ( 'NONE',  ( 1.000000000000000000, 0.0000000000000000000, 0.0000000000000000000 ) ) ;
#110 = FACE_OUTER_BOUND ( 'NONE', #261, .T. ) ;
#111 = EDGE_CURVE ( 'NONE', #288, #217, #71, .T. ) ;
#112 = APPLICATION_PROTOCOL_DEFINITION ( 'international standard', 'config_control_design', 1994, #93 ) ;
#113 = MECHANICAL_CONTEXT ( 'NONE', #249, 'mechanical' ) ;
#114 = CC_DESIGN_DATE_AND_TIME_ASSIGNMENT ( #255, #137, ( #75 ) ) ;
#115 =( BOUNDED_SURFACE ( )  B_SPLINE_SURFACE ( 3, 3, ( 
 ( #122, #11, #39, #150 ),
 ( #148, #129, #61, #262 ),
 ( #243, #240, #199, #34 ),
 ( #171, #215, #105, #65 ) ),
 .UNSPECIFIED., .F., .F., .F. ) 
 B_SPLINE_SURFACE_WITH_KNOTS ( ( 4, 4 ),
 ( 4, 4 ),
 ( 0.0000000000000000000, 1.000000000000000000 ),
 ( 0.0000000000000000000, 1.000000000000000000 ),
 .UNSPECIFIED. ) 
 GEOMETRIC_REPRESENTATION_ITEM ( )  RATIONAL_B_SPLINE_SURFACE ( (
 ( 1.000000000000000000, 0.9945878614098013800, 0.9945878614098013800, 1.000000000000000000),
 ( 0.9781827835502294700, 0.9728887227591093100, 0.9728887227591093100, 0.9781827835502294700),
 ( 0.9781827835502294700, 0.9728887227591093100, 0.9728887227591093100, 0.9781827835502294700),
 ( 1.000000000000000000, 0.9945878614098013800, 0.9945878614098013800, 1.000000000000000000) ) ) 
 REPRESENTATION_ITEM ( '' )  SURFACE ( )  );
#116 = CALENDAR_DATE ( 2019, 8, 1 ) ;
#117 = EDGE_CURVE ( 'NONE', #24, #63, #260, .T. ) ;
#118 = CIRCLE ( 'NONE', #170, 6.349999999999999600 ) ;
#119 = ADVANCED_FACE ( 'NONE', ( #5 ), #95, .T. ) ;
#120 = CARTESIAN_POINT ( 'NONE',  ( 2.498001805406600200E-016, 1.221245327087670000E-015, 0.8091880999425080700 ) ) ;
#121 = ORIENTED_EDGE ( 'NONE', *, *, #235, .F. ) ;
#122 = CARTESIAN_POINT ( 'NONE',  ( 6.139600321868621100E-015, -6.424531258347421700, 2.671382119237717000 ) ) ;
#123 = APPROVAL ( #43, 'UNSPECIFIED' ) ;
#124 = CARTESIAN_POINT ( 'NONE',  ( 6.178244240325412300, 6.424531258347436800, 1.879305817204916200 ) ) ;
#125 = AXIS2_PLACEMENT_3D ( 'NONE', #184, #91, #265 ) ;
#126 = APPROVAL_DATE_TIME ( #207, #237 ) ;
#127 = CARTESIAN_POINT ( 'NONE',  ( -2.182265365667724700, -2.189274290513174600, -0.2823664093244651100 ) ) ;
#128 = CARTESIAN_POINT ( 'NONE',  ( 2.498001805406600200E-016, 1.221245327087670000E-015, 0.8091880999425080700 ) ) ;
#129 = CARTESIAN_POINT ( 'NONE',  ( -2.182265365667712700, -2.189274290513180800, 3.782366409324476700 ) ) ;
#130 = DIRECTION ( 'NONE',  ( 1.000000000000000000, -8.881784197001252300E-016, 0.0000000000000000000 ) ) ;
#131 = ORIENTED_EDGE ( 'NONE', *, *, #235, .T. ) ;
#132 = CARTESIAN_POINT ( 'NONE',  ( 2.498001805406600200E-016, 1.221245327087670000E-015, 2.690811900057489900 ) ) ;
#133 =( LENGTH_UNIT ( ) NAMED_UNIT ( * ) SI_UNIT ( .MILLI., .METRE. ) );
#134 = DIRECTION ( 'NONE',  ( 0.0000000000000000000, 0.0000000000000000000, 1.000000000000000000 ) ) ;
#135 = DIRECTION ( 'NONE',  ( -0.0000000000000000000, -0.0000000000000000000, -1.000000000000000000 ) ) ;
#136 = COORDINATED_UNIVERSAL_TIME_OFFSET ( 2, 0, .AHEAD. ) ;
#137 = DATE_TIME_ROLE ( 'creation_date' ) ;
#138 = APPROVAL_PERSON_ORGANIZATION ( #42, #123, #201 ) ;
#139 = APPROVAL ( #289, 'UNSPECIFIED' ) ;
#140 = APPROVAL_DATE_TIME ( #149, #139 ) ;
#141 = CARTESIAN_POINT ( 'NONE',  ( 6.178244240325412300, -6.424531258347408300, 1.620694182795085600 ) ) ;
#142 = CARTESIAN_POINT ( 'NONE',  ( -3.943655378358080600E-015, 2.189274290513190100, -0.2823664093244696000 ) ) ;
#143 = PERSON_AND_ORGANIZATION ( #40, #100 ) ;
#144 = ORIENTED_EDGE ( 'NONE', *, *, #82, .F. ) ;
#145 = DIRECTION ( 'NONE',  ( 1.000000000000000000, 0.0000000000000000000, 0.0000000000000000000 ) ) ;
#146 = CARTESIAN_POINT ( 'NONE',  ( 1.040834085586084400E-014, -2.189274290513179900, 3.782366409324474000 ) ) ;
#147 = CARTESIAN_POINT ( 'NONE',  ( -4.346814647436061400, 2.189274290513191000, -0.004862295861236344400 ) ) ;
#148 = CARTESIAN_POINT ( 'NONE',  ( 5.199919069690716500E-015, -2.189274290513179900, 3.782366409324475800 ) ) ;
#149 = DATE_AND_TIME ( #280, #15 ) ;
#150 = CARTESIAN_POINT ( 'NONE',  ( -6.178244240325411400, -6.424531258347423400, 1.879305817204917700 ) ) ;
#151 = VERTEX_POINT ( 'NONE', #259 ) ;
#152 = ORIENTED_EDGE ( 'NONE', *, *, #69, .F. ) ;
#153 = AXIS2_PLACEMENT_3D ( 'NONE', #128, #86, #108 ) ;
#154 = CARTESIAN_POINT ( 'NONE',  ( -2.087568551346129700, -6.424531258347405700, 0.8286178807622885900 ) ) ;
#155 = DIRECTION ( 'NONE',  ( -0.0000000000000000000, -0.0000000000000000000, -1.000000000000000000 ) ) ;
#156 = CARTESIAN_POINT ( 'NONE',  ( -2.479235428008135000E-015, 6.350000000000007600, 0.8091880999425080700 ) ) ;
#157 = PRODUCT_DEFINITION_FORMATION_WITH_SPECIFIED_SOURCE ( 'ANY', '', #38, .NOT_KNOWN. ) ;
#158 = AXIS2_PLACEMENT_3D ( 'NONE', #13, #37, #14 ) ;
#159 = DIRECTION ( 'NONE',  ( 0.0000000000000000000, 0.0000000000000000000, 1.000000000000000000 ) ) ;
#160 = CARTESIAN_POINT ( 'NONE',  ( 6.349999999999999600, 1.221245327087670000E-015, 0.8091880999425080700 ) ) ;
#161 = DIRECTION ( 'NONE',  ( 1.000000000000000000, 0.0000000000000000000, 0.0000000000000000000 ) ) ;
#162 = CIRCLE ( 'NONE', #258, 6.349999999999999600 ) ;
#163 = EDGE_CURVE ( 'NONE', #63, #151, #273, .T. ) ;
#164 = CIRCLE ( 'NONE', #98, 6.349999999999999600 ) ;
#165 = PERSON_AND_ORGANIZATION ( #40, #100 ) ;
#166 = ORIENTED_EDGE ( 'NONE', *, *, #231, .T. ) ;
#167 = AXIS2_PLACEMENT_3D ( 'NONE', #64, #174, #176 ) ;
#168 = DATE_AND_TIME ( #272, #76 ) ;
#169 = ORIENTED_EDGE ( 'NONE', *, *, #62, .T. ) ;
#170 = AXIS2_PLACEMENT_3D ( 'NONE', #287, #85, #284 ) ;
#171 = CARTESIAN_POINT ( 'NONE',  ( 2.453033778486088800E-015, 6.424531258347435000, 2.671382119237717000 ) ) ;
#172 = ORIENTED_EDGE ( 'NONE', *, *, #163, .T. ) ;
#173 = CARTESIAN_POINT ( 'NONE',  ( 2.479235428008129400E-015, 6.350000000000020100, 2.690811900057489000 ) ) ;
#174 = DIRECTION ( 'NONE',  ( 0.0000000000000000000, 0.0000000000000000000, 1.000000000000000000 ) ) ;
#175 = DIRECTION ( 'NONE',  ( 1.000000000000000000, 0.0000000000000000000, 0.0000000000000000000 ) ) ;
#176 = DIRECTION ( 'NONE',  ( 1.000000000000000000, 0.0000000000000000000, 0.0000000000000000000 ) ) ;
#177 = ORIENTED_EDGE ( 'NONE', *, *, #263, .F. ) ;
#178 = EDGE_CURVE ( 'NONE', #274, #24, #216, .T. ) ;
#179 = CARTESIAN_POINT ( 'NONE',  ( -6.123033957288030000E-015, -6.349999999999994300, 0.8091880999425080700 ) ) ;
#180 =( NAMED_UNIT ( * ) SI_UNIT ( $, .STERADIAN. ) SOLID_ANGLE_UNIT ( ) );
#181 = CARTESIAN_POINT ( 'NONE',  ( 2.498001805406600200E-016, 1.221245327087670000E-015, 0.8091880999425080700 ) ) ;
#182 = COORDINATED_UNIVERSAL_TIME_OFFSET ( 2, 0, .AHEAD. ) ;
#183 = ORIENTED_EDGE ( 'NONE', *, *, #117, .F. ) ;
#184 = CARTESIAN_POINT ( 'NONE',  ( -1.776356839400250100E-015, 1.243449787580180100E-014, -21.82000000000000000 ) ) ;
#185 = ORIENTED_EDGE ( 'NONE', *, *, #231, .F. ) ;
#186 =( BOUNDED_SURFACE ( )  B_SPLINE_SURFACE ( 3, 3, ( 
 ( #236, #59, #84, #102 ),
 ( #10, #256, #57, #146 ),
 ( #233, #276, #29, #104 ),
 ( #124, #214, #80, #212 ) ),
 .UNSPECIFIED., .F., .F., .F. ) 
 B_SPLINE_SURFACE_WITH_KNOTS ( ( 4, 4 ),
 ( 4, 4 ),
 ( 0.0000000000000000000, 1.000000000000000000 ),
 ( 0.0000000000000000000, 1.000000000000000000 ),
 .UNSPECIFIED. ) 
 GEOMETRIC_REPRESENTATION_ITEM ( )  RATIONAL_B_SPLINE_SURFACE ( (
 ( 1.000000000000000000, 0.9945878614098013800, 0.9945878614098013800, 1.000000000000000000),
 ( 0.9781827835502294700, 0.9728887227591093100, 0.9728887227591093100, 0.9781827835502294700),
 ( 0.9781827835502294700, 0.9728887227591093100, 0.9728887227591093100, 0.9781827835502294700),
 ( 1.000000000000000000, 0.9945878614098013800, 0.9945878614098013800, 1.000000000000000000) ) ) 
 REPRESENTATION_ITEM ( '' )  SURFACE ( )  );
#187 = AXIS2_PLACEMENT_3D ( 'NONE', #88, #242, #109 ) ;
#188 = APPROVAL_PERSON_ORGANIZATION ( #60, #237, #72 ) ;
#189 = EDGE_LOOP ( 'NONE', ( #248, #12, #6, #269, #97, #239 ) ) ;
#190 = CARTESIAN_POINT ( 'NONE',  ( 4.346814647436056900, -2.189274290513176800, -0.004862295861237210900 ) ) ;
#191 = CARTESIAN_POINT ( 'NONE',  ( 2.087568551346116400, -6.424531258347407500, 0.8286178807622857100 ) ) ;
#192 = ADVANCED_FACE ( 'NONE', ( #220 ), #241, .T. ) ;
#193 = CC_DESIGN_APPROVAL ( #139, ( #157 ) ) ;
#194 = AXIS2_PLACEMENT_3D ( 'NONE', #254, #211, #145 ) ;
#195 = PERSON_AND_ORGANIZATION ( #40, #100 ) ;
#196 = CARTESIAN_POINT ( 'NONE',  ( -2.182265365667723300, 2.189274290513190100, -0.2823664093244671000 ) ) ;
#197 = DIRECTION ( 'NONE',  ( 0.0000000000000000000, 0.0000000000000000000, 1.000000000000000000 ) ) ;
#198 = ORIENTED_EDGE ( 'NONE', *, *, #103, .T. ) ;
#199 = CARTESIAN_POINT ( 'NONE',  ( -4.346814647436058700, 2.189274290513192300, 3.504862295861243600 ) ) ;
#200 = CARTESIAN_POINT ( 'NONE',  ( 6.349999999999999600, 1.221245327087670000E-015, 0.8091880999425080700 ) ) ;
#201 = APPROVAL_ROLE ( '' ) ;
#202 = COORDINATED_UNIVERSAL_TIME_OFFSET ( 2, 0, .AHEAD. ) ;
#203 = CARTESIAN_POINT ( 'NONE',  ( 2.498001805406600200E-016, 1.221245327087670000E-015, 0.8091880999425080700 ) ) ;
#204 = CARTESIAN_POINT ( 'NONE',  ( -2.087568551346126200, 6.424531258347423400, 0.8286178807622849300 ) ) ;
#205 = EDGE_LOOP ( 'NONE', ( #230, #166, #152 ) ) ;
#206 = CC_DESIGN_APPROVAL ( #123, ( #75 ) ) ;
#207 = DATE_AND_TIME ( #116, #264 ) ;
#208 = CARTESIAN_POINT ( 'NONE',  ( 6.178244240325416700, 6.424531258347420800, 1.620694182795082300 ) ) ;
#209 = LOCAL_TIME ( 16, 56, 47.00000000000000000, #182 ) ;
#210 = VERTEX_POINT ( 'NONE', #179 ) ;
#211 = DIRECTION ( 'NONE',  ( -0.0000000000000000000, -0.0000000000000000000, -1.000000000000000000 ) ) ;
#212 = CARTESIAN_POINT ( 'NONE',  ( 9.540979117872439000E-015, 6.424531258347435900, 2.671382119237716100 ) ) ;
#213 = FACE_OUTER_BOUND ( 'NONE', #205, .T. ) ;
#214 = CARTESIAN_POINT ( 'NONE',  ( 4.158189787217605900, 6.424531258347437700, 2.405919967269880600 ) ) ;
#215 = CARTESIAN_POINT ( 'NONE',  ( -2.087568551346120000, 6.424531258347435000, 2.671382119237717800 ) ) ;
#216 = LINE ( 'NONE', #200, #266 ) ;
#217 = VERTEX_POINT ( 'NONE', #156 ) ;
#218 = CC_DESIGN_PERSON_AND_ORGANIZATION_ASSIGNMENT ( #21, #70, ( #157 ) ) ;
#219 = CARTESIAN_POINT ( 'NONE',  ( -6.458503323210286400, -2.189274290513173700, 0.5456402589009882200 ) ) ;
#220 = FACE_OUTER_BOUND ( 'NONE', #53, .T. ) ;
#221 = CARTESIAN_POINT ( 'NONE',  ( -9.540979117872439000E-015, 6.424531258347422600, 0.8286178807622839300 ) ) ;
#222 = DIRECTION ( 'NONE',  ( 0.0000000000000000000, 0.0000000000000000000, 1.000000000000000000 ) ) ;
#223 = PERSON_AND_ORGANIZATION_ROLE ( 'design_owner' ) ;
#224 = AXIS2_PLACEMENT_3D ( 'NONE', #44, #134, #161 ) ;
#225 = DIRECTION ( 'NONE',  ( 1.000000000000000000, 0.0000000000000000000, 0.0000000000000000000 ) ) ;
#226 = APPROVAL_PERSON_ORGANIZATION ( #143, #139, #22 ) ;
#227 = ORIENTED_EDGE ( 'NONE', *, *, #103, .F. ) ;
#228 = CC_DESIGN_PERSON_AND_ORGANIZATION_ASSIGNMENT ( #165, #250, ( #75 ) ) ;
#229 = PERSON_AND_ORGANIZATION_ROLE ( 'design_supplier' ) ;
#230 = ORIENTED_EDGE ( 'NONE', *, *, #163, .F. ) ;
#231 = EDGE_CURVE ( 'NONE', #63, #253, #83, .T. ) ;
#232 = CARTESIAN_POINT ( 'NONE',  ( 2.182265365667712700, -2.189274290513175900, -0.2823664093244682100 ) ) ;
#233 = CARTESIAN_POINT ( 'NONE',  ( 6.458503323210286400, 2.189274290513195400, 2.954359741099017900 ) ) ;
#234 = PRODUCT_RELATED_PRODUCT_CATEGORY ( 'detail', '', ( #38 ) ) ;
#235 = EDGE_CURVE ( 'NONE', #210, #288, #162, .T. ) ;
#236 = CARTESIAN_POINT ( 'NONE',  ( 6.178244240325413200, -6.424531258347419900, 1.879305817204916200 ) ) ;
#237 = APPROVAL ( #46, 'UNSPECIFIED' ) ;
#238 = APPROVAL_DATE_TIME ( #32, #123 ) ;
#239 = ORIENTED_EDGE ( 'NONE', *, *, #62, .F. ) ;
#240 = CARTESIAN_POINT ( 'NONE',  ( -2.182265365667714000, 2.189274290513193700, 3.782366409324474400 ) ) ;
#241 =( BOUNDED_SURFACE ( )  B_SPLINE_SURFACE ( 3, 3, ( 
 ( #286, #89, #154, #16 ),
 ( #219, #90, #127, #257 ),
 ( #282, #147, #196, #291 ),
 ( #48, #244, #204, #221 ) ),
 .UNSPECIFIED., .F., .F., .T. ) 
 B_SPLINE_SURFACE_WITH_KNOTS ( ( 4, 4 ),
 ( 4, 4 ),
 ( 0.0000000000000000000, 1.000000000000000000 ),
 ( 0.0000000000000000000, 1.000000000000000000 ),
 .UNSPECIFIED. ) 
 GEOMETRIC_REPRESENTATION_ITEM ( )  RATIONAL_B_SPLINE_SURFACE ( (
 ( 1.000000000000000000, 0.9945878614098013800, 0.9945878614098013800, 1.000000000000000000),
 ( 0.9781827835502294700, 0.9728887227591093100, 0.9728887227591093100, 0.9781827835502294700),
 ( 0.9781827835502294700, 0.9728887227591093100, 0.9728887227591093100, 0.9781827835502294700),
 ( 1.000000000000000000, 0.9945878614098013800, 0.9945878614098013800, 1.000000000000000000) ) ) 
 REPRESENTATION_ITEM ( '' )  SURFACE ( )  );
#242 = DIRECTION ( 'NONE',  ( -0.0000000000000000000, -0.0000000000000000000, -1.000000000000000000 ) ) ;
#243 = CARTESIAN_POINT ( 'NONE',  ( 3.943655378358080600E-015, 2.189274290513194600, 3.782366409324473500 ) ) ;
#244 = CARTESIAN_POINT ( 'NONE',  ( -4.158189787217605900, 6.424531258347423400, 1.094080032730120100 ) ) ;
#245 = CC_DESIGN_PERSON_AND_ORGANIZATION_ASSIGNMENT ( #52, #223, ( #38 ) ) ;
#246 = DATE_TIME_ROLE ( 'classification_date' ) ;
#247 = FACE_OUTER_BOUND ( 'NONE', #189, .T. ) ;
#248 = ORIENTED_EDGE ( 'NONE', *, *, #111, .F. ) ;
#249 = APPLICATION_CONTEXT ( 'configuration controlled 3d designs of mechanical parts and assemblies' ) ;
#250 = PERSON_AND_ORGANIZATION_ROLE ( 'creator' ) ;
#251 = LOCAL_TIME ( 16, 56, 47.00000000000000000, #27 ) ;
#252 = FACE_OUTER_BOUND ( 'NONE', #2, .T. ) ;
#253 = VERTEX_POINT ( 'NONE', #173 ) ;
#254 = CARTESIAN_POINT ( 'NONE',  ( 2.498001805406600200E-016, 1.221245327087670000E-015, 2.690811900057489900 ) ) ;
#255 = DATE_AND_TIME ( #283, #209 ) ;
#256 = CARTESIAN_POINT ( 'NONE',  ( 4.346814647436061400, -2.189274290513179000, 3.504862295861243200 ) ) ;
#257 = CARTESIAN_POINT ( 'NONE',  ( -1.214306433183765100E-014, -2.189274290513175000, -0.2823664093244662700 ) ) ;
#258 = AXIS2_PLACEMENT_3D ( 'NONE', #181, #135, #290 ) ;
#259 = CARTESIAN_POINT ( 'NONE',  ( -6.349999999999999600, 1.998896044546239400E-015, 2.690811900057489900 ) ) ;
#260 = CIRCLE ( 'NONE', #4, 6.349999999999999600 ) ;
#261 = EDGE_LOOP ( 'NONE', ( #198, #73, #169 ) ) ;
#262 = CARTESIAN_POINT ( 'NONE',  ( -6.458503323210287300, -2.189274290513182600, 2.954359741099021900 ) ) ;
#263 = EDGE_CURVE ( 'NONE', #288, #151, #293, .T. ) ;
#264 = LOCAL_TIME ( 16, 56, 47.00000000000000000, #66 ) ;
#265 = DIRECTION ( 'NONE',  ( 2.869132700220391600E-016, -1.000000000000000000, 5.480958849847731300E-016 ) ) ;
#266 = VECTOR ( 'NONE', #197, 1000.000000000000000 ) ;
#267 = APPLICATION_PROTOCOL_DEFINITION ( 'international standard', 'config_control_design', 1994, #249 ) ;
#268 = VECTOR ( 'NONE', #159, 1000.000000000000000 ) ;
#269 = ORIENTED_EDGE ( 'NONE', *, *, #74, .T. ) ;
#270 = CARTESIAN_POINT ( 'NONE',  ( -5.199919069690711000E-015, -2.189274290513175000, -0.2823664093244676000 ) ) ;
#271 = CARTESIAN_POINT ( 'NONE',  ( -6.139600321868614800E-015, -6.424531258347406600, 0.8286178807622862600 ) ) ;
#272 = CALENDAR_DATE ( 2019, 8, 1 ) ;
#273 = CIRCLE ( 'NONE', #187, 6.349999999999999600 ) ;
#274 = VERTEX_POINT ( 'NONE', #160 ) ;
#275 = CARTESIAN_POINT ( 'NONE',  ( -2.453033778486092800E-015, 6.424531258347422600, 0.8286178807622828200 ) ) ;
#276 = CARTESIAN_POINT ( 'NONE',  ( 4.346814647436061400, 2.189274290513195900, 3.504862295861241000 ) ) ;
#277 = CC_DESIGN_SECURITY_CLASSIFICATION ( #18, ( #157 ) ) ;
#278 = CARTESIAN_POINT ( 'NONE',  ( 2.498001805406600200E-016, 1.221245327087670000E-015, 2.690811900057489900 ) ) ;
#279 = ADVANCED_FACE ( 'NONE', ( #247 ), #35, .T. ) ;
#280 = CALENDAR_DATE ( 2019, 8, 1 ) ;
#281 = CARTESIAN_POINT ( 'NONE',  ( 6.349999999999999600, 1.221245327087670000E-015, 2.690811900057489900 ) ) ;
#282 = CARTESIAN_POINT ( 'NONE',  ( -6.458503323210286400, 2.189274290513191900, 0.5456402589009862200 ) ) ;
#283 = CALENDAR_DATE ( 2019, 8, 1 ) ;
#284 = DIRECTION ( 'NONE',  ( 1.000000000000000000, 0.0000000000000000000, 0.0000000000000000000 ) ) ;
#285 = ORIENTED_EDGE ( 'NONE', *, *, #178, .T. ) ;
#286 = CARTESIAN_POINT ( 'NONE',  ( -6.178244240325415000, -6.424531258347404800, 1.620694182795086900 ) ) ;
#287 = CARTESIAN_POINT ( 'NONE',  ( 2.498001805406600200E-016, 1.221245327087670000E-015, 0.8091880999425080700 ) ) ;
#288 = VERTEX_POINT ( 'NONE', #19 ) ;
#289 = APPROVAL_STATUS ( 'not_yet_approved' ) ;
#290 = DIRECTION ( 'NONE',  ( 1.000000000000000000, 0.0000000000000000000, 0.0000000000000000000 ) ) ;
#291 = CARTESIAN_POINT ( 'NONE',  ( -1.040834085586084400E-014, 2.189274290513190100, -0.2823664093244682700 ) ) ;
#292 = CARTESIAN_POINT ( 'NONE',  ( -6.349999999999999600, 1.998896044546239400E-015, 0.8091880999425080700 ) ) ;
#293 = LINE ( 'NONE', #292, #268 ) ;
#294 = EDGE_LOOP ( 'NONE', ( #177, #121, #227, #285, #36, #172 ) ) ;
#295 = UNCERTAINTY_MEASURE_WITH_UNIT (LENGTH_MEASURE( 1.000000000000000100E-005 ), #133, 'distance_accuracy_value', 'NONE');
ENDSEC;
END-ISO-10303-21;
