ISO-10303-21;
HEADER;
FILE_DESCRIPTION (( 'STEP AP203' ),
    '1' );
FILE_NAME ('111-0104E BK7 bi-cx 12.7 F12.7.STEP',
    '2019-01-08T14:47:47',
    ( '' ),
    ( '' ),
    'SwSTEP 2.0',
    'SolidWorks 2017',
    '' );
FILE_SCHEMA (( 'CONFIG_CONTROL_DESIGN' ));
ENDSEC;

DATA;
#1 = ORIENTED_EDGE ( 'NONE', *, *, #157, .T. ) ;
#2 = CARTESIAN_POINT ( 'NONE',  ( -6.730931363793753300, 2.371835937269142700, 3.584285277628944200 ) ) ;
#3 =( GEOMETRIC_REPRESENTATION_CONTEXT ( 3 ) GLOBAL_UNCERTAINTY_ASSIGNED_CONTEXT ( ( #100 ) ) GLOBAL_UNIT_ASSIGNED_CONTEXT ( ( #109, #136, #22 ) ) REPRESENTATION_CONTEXT ( 'NONE', 'WORKASPACE' ) );
#4 = CARTESIAN_POINT ( 'NONE',  ( -1.214306433183764800E-014, 2.371835937269145300, -0.6679149110396386300 ) ) ;
#5 = ADVANCED_FACE ( 'NONE', ( #102 ), #51, .T. ) ;
#6 = EDGE_CURVE ( 'NONE', #129, #114, #287, .T. ) ;
#7 = PRODUCT_DEFINITION_FORMATION_WITH_SPECIFIED_SOURCE ( 'ANY', '', #161, .NOT_KNOWN. ) ;
#8 = DIRECTION ( 'NONE',  ( 1.000000000000000000, 0.0000000000000000000, 0.0000000000000000000 ) ) ;
#9 = DIRECTION ( 'NONE',  ( 0.0000000000000000000, 0.0000000000000000000, 1.000000000000000000 ) ) ;
#10 = CC_DESIGN_PERSON_AND_ORGANIZATION_ASSIGNMENT ( #275, #219, ( #150 ) ) ;
#11 = CARTESIAN_POINT ( 'NONE',  ( 1.214306433183765000E-014, -2.371835937269145800, 5.467914911039639700 ) ) ;
#12 = EDGE_CURVE ( 'NONE', #129, #31, #101, .T. ) ;
#13 = CARTESIAN_POINT ( 'NONE',  ( 1.084202172485504300E-014, 2.371835937269144000, 5.467914911039640600 ) ) ;
#14 = FACE_OUTER_BOUND ( 'NONE', #148, .T. ) ;
#15 = CARTESIAN_POINT ( 'NONE',  ( 2.498001805406600200E-016, 1.221245327087670000E-015, 1.765888741806449900 ) ) ;
#16 = CLOSED_SHELL ( 'NONE', ( #5, #242, #220, #66, #137, #43 ) ) ;
#17 = CARTESIAN_POINT ( 'NONE',  ( 4.689144691437650900, 2.371835937269144000, -0.02416007396561473800 ) ) ;
#18 = DIRECTION ( 'NONE',  ( 0.0000000000000000000, 0.0000000000000000000, 1.000000000000000000 ) ) ;
#19 = CARTESIAN_POINT ( 'NONE',  ( -2.388761672080719700, 2.371835937269143100, 5.467914911039641400 ) ) ;
#20 = DATE_AND_TIME ( #144, #76 ) ;
#21 = CC_DESIGN_DATE_AND_TIME_ASSIGNMENT ( #117, #259, ( #216 ) ) ;
#22 =( NAMED_UNIT ( * ) SI_UNIT ( $, .STERADIAN. ) SOLID_ANGLE_UNIT ( ) );
#23 = EDGE_CURVE ( 'NONE', #31, #179, #40, .T. ) ;
#24 = CARTESIAN_POINT ( 'NONE',  ( 3.794063462247233300, 6.418439304919816700, 2.328321044368686400 ) ) ;
#25 = SHAPE_DEFINITION_REPRESENTATION ( #111, #85 ) ;
#26 = ORIENTED_EDGE ( 'NONE', *, *, #91, .T. ) ;
#27 = CARTESIAN_POINT ( 'NONE',  ( -4.440892098500630100E-015, -8.881784197001250400E-016, 12.30000000000000100 ) ) ;
#28 = CARTESIAN_POINT ( 'NONE',  ( -5.446106365814493700, 6.418439304919818500, 3.331523967735918700 ) ) ;
#29 = APPROVAL_PERSON_ORGANIZATION ( #89, #224, #198 ) ;
#30 = AXIS2_PLACEMENT_3D ( 'NONE', #92, #94, #139 ) ;
#31 = VERTEX_POINT ( 'NONE', #119 ) ;
#32 = CARTESIAN_POINT ( 'NONE',  ( 3.794063462247243600, -6.418439304919819400, 2.471678955631312600 ) ) ;
#33 = DIRECTION ( 'NONE',  ( 0.0000000000000000000, 0.0000000000000000000, 1.000000000000000000 ) ) ;
#34 = DIRECTION ( 'NONE',  ( 0.0000000000000000000, 0.0000000000000000000, 1.000000000000000000 ) ) ;
#35 = ORIENTED_EDGE ( 'NONE', *, *, #91, .F. ) ;
#36 = APPROVAL_ROLE ( '' ) ;
#37 = CARTESIAN_POINT ( 'NONE',  ( -5.446106365814489300, -6.418439304919818500, 1.468476032264079500 ) ) ;
#38 = DIRECTION ( 'NONE',  ( 0.0000000000000000000, 0.0000000000000000000, 1.000000000000000000 ) ) ;
#39 = AXIS2_PLACEMENT_3D ( 'NONE', #283, #33, #191 ) ;
#40 = CIRCLE ( 'NONE', #30, 6.349999999999999600 ) ;
#41 = MECHANICAL_CONTEXT ( 'NONE', #215, 'mechanical' ) ;
#42 = APPROVAL_DATE_TIME ( #226, #224 ) ;
#43 = ADVANCED_FACE ( 'NONE', ( #167 ), #57, .T. ) ;
#44 = EDGE_CURVE ( 'NONE', #55, #205, #206, .T. ) ;
#45 = CIRCLE ( 'NONE', #64, 6.349999999999999600 ) ;
#46 = DIRECTION ( 'NONE',  ( -2.953107315836598400E-016, -1.000000000000000000, 2.820688578824076500E-016 ) ) ;
#47 = ORIENTED_EDGE ( 'NONE', *, *, #73, .F. ) ;
#48 = AXIS2_PLACEMENT_3D ( 'NONE', #171, #190, #281 ) ;
#49 = CARTESIAN_POINT ( 'NONE',  ( -9.540979117872439000E-015, 6.418439304919815800, 1.807448504340785300 ) ) ;
#50 = AXIS2_PLACEMENT_3D ( 'NONE', #27, #180, #46 ) ;
#51 =( BOUNDED_SURFACE ( )  B_SPLINE_SURFACE ( 3, 3, ( 
 ( #181, #142, #195, #37 ),
 ( #82, #67, #134, #237 ),
 ( #164, #19, #295, #2 ),
 ( #245, #270, #221, #62 ) ),
 .UNSPECIFIED., .F., .F., .F. ) 
 B_SPLINE_SURFACE_WITH_KNOTS ( ( 4, 4 ),
 ( 4, 4 ),
 ( 0.0000000000000000000, 1.000000000000000000 ),
 ( 0.0000000000000000000, 1.000000000000000000 ),
 .UNSPECIFIED. ) 
 GEOMETRIC_REPRESENTATION_ITEM ( )  RATIONAL_B_SPLINE_SURFACE ( (
 ( 1.000000000000000000, 0.9753348764322131700, 0.9753348764322131700, 1.000000000000000000),
 ( 0.9020353114178434300, 0.8797864989992152400, 0.8797864989992152400, 0.9020353114178434300),
 ( 0.9020353114178434300, 0.8797864989992152400, 0.8797864989992152400, 0.9020353114178434300),
 ( 1.000000000000000000, 0.9753348764322131700, 0.9753348764322131700, 1.000000000000000000) ) ) 
 REPRESENTATION_ITEM ( '' )  SURFACE ( )  );
#52 = CC_DESIGN_APPROVAL ( #224, ( #150 ) ) ;
#53 = PERSON ( 'UNSPECIFIED', 'UNSPECIFIED', 'UNSPECIFIED', ('UNSPECIFIED'), ('UNSPECIFIED'), ('UNSPECIFIED') ) ;
#54 = CC_DESIGN_DATE_AND_TIME_ASSIGNMENT ( #243, #214, ( #150 ) ) ;
#55 = VERTEX_POINT ( 'NONE', #155 ) ;
#56 = DIRECTION ( 'NONE',  ( 0.0000000000000000000, 0.0000000000000000000, 1.000000000000000000 ) ) ;
#57 =( BOUNDED_SURFACE ( )  B_SPLINE_SURFACE ( 3, 3, ( 
 ( #288, #197, #223, #246 ),
 ( #116, #141, #98, #248 ),
 ( #96, #146, #121, #4 ),
 ( #28, #251, #183, #49 ) ),
 .UNSPECIFIED., .F., .F., .F. ) 
 B_SPLINE_SURFACE_WITH_KNOTS ( ( 4, 4 ),
 ( 4, 4 ),
 ( 0.0000000000000000000, 1.000000000000000000 ),
 ( 0.0000000000000000000, 1.000000000000000000 ),
 .UNSPECIFIED. ) 
 GEOMETRIC_REPRESENTATION_ITEM ( )  RATIONAL_B_SPLINE_SURFACE ( (
 ( 1.000000000000000000, 0.9753348764322131700, 0.9753348764322131700, 1.000000000000000000),
 ( 0.9020353114178436500, 0.8797864989992154600, 0.8797864989992154600, 0.9020353114178436500),
 ( 0.9020353114178436500, 0.8797864989992154600, 0.8797864989992154600, 0.9020353114178436500),
 ( 1.000000000000000000, 0.9753348764322131700, 0.9753348764322131700, 1.000000000000000000) ) ) 
 REPRESENTATION_ITEM ( '' )  SURFACE ( )  );
#58 = CARTESIAN_POINT ( 'NONE',  ( 4.689144691437657100, 2.371835937269144900, 4.824160073965616700 ) ) ;
#59 = CARTESIAN_POINT ( 'NONE',  ( 0.0000000000000000000, 0.0000000000000000000, 0.0000000000000000000 ) ) ;
#60 = AXIS2_PLACEMENT_3D ( 'NONE', #153, #34, #258 ) ;
#61 = CARTESIAN_POINT ( 'NONE',  ( 2.388761672080719200, 2.371835937269144000, -0.6679149110396384000 ) ) ;
#62 = CARTESIAN_POINT ( 'NONE',  ( -5.446106365814491900, 6.418439304919816700, 1.468476032264080000 ) ) ;
#63 = CARTESIAN_POINT ( 'NONE',  ( -5.223247188173767600E-015, 6.418439304919816700, 1.807448504340785700 ) ) ;
#64 = AXIS2_PLACEMENT_3D ( 'NONE', #211, #9, #8 ) ;
#65 = PERSON_AND_ORGANIZATION_ROLE ( 'creator' ) ;
#66 = ADVANCED_FACE ( 'NONE', ( #217 ), #249, .T. ) ;
#67 = CARTESIAN_POINT ( 'NONE',  ( -2.388761672080717900, -2.371835937269144900, 5.467914911039639700 ) ) ;
#68 = EDGE_LOOP ( 'NONE', ( #264, #35, #225 ) ) ;
#69 = VERTEX_POINT ( 'NONE', #80 ) ;
#70 = PERSON_AND_ORGANIZATION ( #53, #115 ) ;
#71 = ORIENTED_EDGE ( 'NONE', *, *, #12, .T. ) ;
#72 = CYLINDRICAL_SURFACE ( 'NONE', #222, 6.349999999999999600 ) ;
#73 = EDGE_CURVE ( 'NONE', #179, #170, #154, .T. ) ;
#74 =( BOUNDED_SURFACE ( )  B_SPLINE_SURFACE ( 3, 3, ( 
 ( #241, #133, #112, #88 ),
 ( #193, #260, #239, #84 ),
 ( #160, #61, #17, #289 ),
 ( #63, #290, #24, #292 ) ),
 .UNSPECIFIED., .F., .F., .F. ) 
 B_SPLINE_SURFACE_WITH_KNOTS ( ( 4, 4 ),
 ( 4, 4 ),
 ( 0.0000000000000000000, 1.000000000000000000 ),
 ( 0.0000000000000000000, 1.000000000000000000 ),
 .UNSPECIFIED. ) 
 GEOMETRIC_REPRESENTATION_ITEM ( )  RATIONAL_B_SPLINE_SURFACE ( (
 ( 1.000000000000000000, 0.9753348764322131700, 0.9753348764322131700, 1.000000000000000000),
 ( 0.9020353114178436500, 0.8797864989992154600, 0.8797864989992154600, 0.9020353114178436500),
 ( 0.9020353114178436500, 0.8797864989992154600, 0.8797864989992154600, 0.9020353114178436500),
 ( 1.000000000000000000, 0.9753348764322131700, 0.9753348764322131700, 1.000000000000000000) ) ) 
 REPRESENTATION_ITEM ( '' )  SURFACE ( )  );
#75 = AXIS2_PLACEMENT_3D ( 'NONE', #284, #256, #125 ) ;
#76 = LOCAL_TIME ( 16, 47, 47.00000000000000000, #95 ) ;
#77 = CARTESIAN_POINT ( 'NONE',  ( 2.388761672080734300, -2.371835937269144400, 5.467914911039638800 ) ) ;
#78 = APPROVAL ( #234, 'UNSPECIFIED' ) ;
#79 = CARTESIAN_POINT ( 'NONE',  ( -6.349999999999999600, 1.998896044546239400E-015, 1.765888741806449900 ) ) ;
#80 = CARTESIAN_POINT ( 'NONE',  ( 5.254064457077622200E-015, 6.349999999999996100, 3.034111258193549900 ) ) ;
#81 = EDGE_LOOP ( 'NONE', ( #99, #162, #182 ) ) ;
#82 = CARTESIAN_POINT ( 'NONE',  ( 8.450843766156932300E-015, -2.371835937269144400, 5.467914911039639700 ) ) ;
#83 = AXIS2_PLACEMENT_3D ( 'NONE', #196, #218, #200 ) ;
#84 = CARTESIAN_POINT ( 'NONE',  ( 6.730931363793750700, -2.371835937269145800, 1.215714722371057200 ) ) ;
#85 = ADVANCED_BREP_SHAPE_REPRESENTATION ( '111-0104E BK7 bi-cx 12.7 F12.7', ( #235, #169 ), #3 ) ;
#86 = PERSON_AND_ORGANIZATION_ROLE ( 'design_supplier' ) ;
#87 = ORIENTED_EDGE ( 'NONE', *, *, #210, .T. ) ;
#88 = CARTESIAN_POINT ( 'NONE',  ( 5.446106365814490100, -6.418439304919817600, 3.331523967735919600 ) ) ;
#89 = PERSON_AND_ORGANIZATION ( #53, #115 ) ;
#90 = ORIENTED_EDGE ( 'NONE', *, *, #73, .T. ) ;
#91 = EDGE_CURVE ( 'NONE', #179, #129, #277, .T. ) ;
#92 = CARTESIAN_POINT ( 'NONE',  ( 2.498001805406600200E-016, 1.221245327087670000E-015, 1.765888741806449900 ) ) ;
#93 = ORIENTED_EDGE ( 'NONE', *, *, #6, .T. ) ;
#94 = DIRECTION ( 'NONE',  ( 0.0000000000000000000, 0.0000000000000000000, 1.000000000000000000 ) ) ;
#95 = COORDINATED_UNIVERSAL_TIME_OFFSET ( 2, 0, .AHEAD. ) ;
#96 = CARTESIAN_POINT ( 'NONE',  ( -6.730931363793755100, 2.371835937269148400, 1.215714722371055400 ) ) ;
#97 = CC_DESIGN_PERSON_AND_ORGANIZATION_ASSIGNMENT ( #163, #86, ( #7 ) ) ;
#98 = CARTESIAN_POINT ( 'NONE',  ( -2.388761672080735200, -2.371835937269144000, -0.6679149110396384000 ) ) ;
#99 = ORIENTED_EDGE ( 'NONE', *, *, #157, .F. ) ;
#100 = UNCERTAINTY_MEASURE_WITH_UNIT (LENGTH_MEASURE( 1.000000000000000100E-005 ), #109, 'distance_accuracy_value', 'NONE');
#101 = CIRCLE ( 'NONE', #50, 12.30000000000000100 ) ;
#102 = FACE_OUTER_BOUND ( 'NONE', #140, .T. ) ;
#103 = DIRECTION ( 'NONE',  ( 1.000000000000000000, 0.0000000000000000000, 0.0000000000000000000 ) ) ;
#104 = VECTOR ( 'NONE', #231, 1000.000000000000000 ) ;
#105 = EDGE_CURVE ( 'NONE', #170, #55, #269, .T. ) ;
#106 = PERSON_AND_ORGANIZATION_ROLE ( 'classification_officer' ) ;
#107 = CARTESIAN_POINT ( 'NONE',  ( 2.498001805406600200E-016, 1.221245327087670000E-015, 3.034111258193549900 ) ) ;
#108 = DIRECTION ( 'NONE',  ( 1.000000000000000000, 0.0000000000000000000, 0.0000000000000000000 ) ) ;
#109 =( LENGTH_UNIT ( ) NAMED_UNIT ( * ) SI_UNIT ( .MILLI., .METRE. ) );
#110 = AXIS2_PLACEMENT_3D ( 'NONE', #194, #38, #265 ) ;
#111 = PRODUCT_DEFINITION_SHAPE ( 'NONE', 'NONE',  #150 ) ;
#112 = CARTESIAN_POINT ( 'NONE',  ( 3.794063462247232500, -6.418439304919818500, 2.328321044368685000 ) ) ;
#113 = PERSON_AND_ORGANIZATION ( #53, #115 ) ;
#114 = VERTEX_POINT ( 'NONE', #174 ) ;
#115 = ORGANIZATION ( 'UNSPECIFIED', 'UNSPECIFIED', '' ) ;
#116 = CARTESIAN_POINT ( 'NONE',  ( -6.730931363793756000, -2.371835937269141800, 1.215714722371054000 ) ) ;
#117 = DATE_AND_TIME ( #253, #143 ) ;
#118 = CC_DESIGN_SECURITY_CLASSIFICATION ( #216, ( #7 ) ) ;
#119 = CARTESIAN_POINT ( 'NONE',  ( -5.254064457077634000E-015, 6.349999999999996100, 1.765888741806449700 ) ) ;
#120 = ORIENTED_EDGE ( 'NONE', *, *, #274, .F. ) ;
#121 = CARTESIAN_POINT ( 'NONE',  ( -2.388761672080734300, 2.371835937269145800, -0.6679149110396372900 ) ) ;
#122 = ORIENTED_EDGE ( 'NONE', *, *, #44, .F. ) ;
#123 = CARTESIAN_POINT ( 'NONE',  ( 8.239936510889833700E-015, 6.418439304919817600, 2.992551495659214300 ) ) ;
#124 = CARTESIAN_POINT ( 'NONE',  ( 1.301042606982605300E-014, -6.418439304919819400, 2.992551495659212500 ) ) ;
#125 = DIRECTION ( 'NONE',  ( 1.000000000000000000, 0.0000000000000000000, 0.0000000000000000000 ) ) ;
#126 = CARTESIAN_POINT ( 'NONE',  ( 5.446106365814493700, 6.418439304919819400, 1.468476032264081700 ) ) ;
#127 = APPROVAL_PERSON_ORGANIZATION ( #267, #78, #263 ) ;
#128 = CARTESIAN_POINT ( 'NONE',  ( 1.932786035928327100, -6.418439304919819400, 2.992551495659211600 ) ) ;
#129 = VERTEX_POINT ( 'NONE', #230 ) ;
#130 = SECURITY_CLASSIFICATION_LEVEL ( 'unclassified' ) ;
#131 = ORIENTED_EDGE ( 'NONE', *, *, #168, .T. ) ;
#132 = DIRECTION ( 'NONE',  ( 0.0000000000000000000, 0.0000000000000000000, 1.000000000000000000 ) ) ;
#133 = CARTESIAN_POINT ( 'NONE',  ( 1.932786035928309300, -6.418439304919817600, 1.807448504340784000 ) ) ;
#134 = CARTESIAN_POINT ( 'NONE',  ( -4.689144691437649100, -2.371835937269145800, 4.824160073965616700 ) ) ;
#135 = DIRECTION ( 'NONE',  ( 1.000000000000000000, 0.0000000000000000000, 0.0000000000000000000 ) ) ;
#136 =( NAMED_UNIT ( * ) PLANE_ANGLE_UNIT ( ) SI_UNIT ( $, .RADIAN. ) );
#137 = ADVANCED_FACE ( 'NONE', ( #14 ), #72, .T. ) ;
#138 = LOCAL_TIME ( 16, 47, 47.00000000000000000, #273 ) ;
#139 = DIRECTION ( 'NONE',  ( 1.000000000000000000, 0.0000000000000000000, 0.0000000000000000000 ) ) ;
#140 = EDGE_LOOP ( 'NONE', ( #199, #1, #278 ) ) ;
#141 = CARTESIAN_POINT ( 'NONE',  ( -4.689144691437658900, -2.371835937269142700, -0.02416007396561560500 ) ) ;
#142 = CARTESIAN_POINT ( 'NONE',  ( -1.932786035928308700, -6.418439304919819400, 2.992551495659214700 ) ) ;
#143 = LOCAL_TIME ( 16, 47, 47.00000000000000000, #271 ) ;
#144 = CALENDAR_DATE ( 2019, 8, 1 ) ;
#145 = DESIGN_CONTEXT ( 'detailed design', #285, 'design' ) ;
#146 = CARTESIAN_POINT ( 'NONE',  ( -4.689144691437658900, 2.371835937269147500, -0.02416007396561451600 ) ) ;
#147 = PRODUCT_RELATED_PRODUCT_CATEGORY ( 'detail', '', ( #161 ) ) ;
#148 = EDGE_LOOP ( 'NONE', ( #47, #26, #93, #87, #122, #185 ) ) ;
#149 = FACE_OUTER_BOUND ( 'NONE', #173, .T. ) ;
#150 = PRODUCT_DEFINITION ( 'UNKNOWN', '', #7, #145 ) ;
#151 = CARTESIAN_POINT ( 'NONE',  ( 6.349999999999999600, 1.221245327087670000E-015, 1.765888741806449900 ) ) ;
#152 = CARTESIAN_POINT ( 'NONE',  ( 6.349999999999999600, 1.221245327087670000E-015, 3.034111258193549900 ) ) ;
#153 = CARTESIAN_POINT ( 'NONE',  ( 2.498001805406600200E-016, 1.221245327087670000E-015, 3.034111258193549900 ) ) ;
#154 = LINE ( 'NONE', #229, #104 ) ;
#155 = CARTESIAN_POINT ( 'NONE',  ( 9.004510748190102100E-015, -6.349999999999997000, 3.034111258193549000 ) ) ;
#156 = APPROVAL_STATUS ( 'not_yet_approved' ) ;
#157 = EDGE_CURVE ( 'NONE', #55, #69, #209, .T. ) ;
#158 = CALENDAR_DATE ( 2019, 8, 1 ) ;
#159 = DIRECTION ( 'NONE',  ( 1.000000000000000000, 0.0000000000000000000, 0.0000000000000000000 ) ) ;
#160 = CARTESIAN_POINT ( 'NONE',  ( -7.049986554494213000E-015, 2.371835937269145300, -0.6679149110396377400 ) ) ;
#161 = PRODUCT ( '111-0104E BK7 bi-cx 12.7 F12.7', '111-0104E BK7 bi-cx 12.7 F12.7', '', ( #41 ) ) ;
#162 = ORIENTED_EDGE ( 'NONE', *, *, #44, .T. ) ;
#163 = PERSON_AND_ORGANIZATION ( #53, #115 ) ;
#164 = CARTESIAN_POINT ( 'NONE',  ( 7.049986554494201900E-015, 2.371835937269144400, 5.467914911039640600 ) ) ;
#165 = APPROVAL_PERSON_ORGANIZATION ( #188, #166, #36 ) ;
#166 = APPROVAL ( #156, 'UNSPECIFIED' ) ;
#167 = FACE_OUTER_BOUND ( 'NONE', #68, .T. ) ;
#168 = EDGE_CURVE ( 'NONE', #114, #31, #45, .T. ) ;
#169 = AXIS2_PLACEMENT_3D ( 'NONE', #59, #18, #135 ) ;
#170 = VERTEX_POINT ( 'NONE', #228 ) ;
#171 = CARTESIAN_POINT ( 'NONE',  ( 4.440892098500630100E-015, -8.881784197001250400E-016, -7.500000000000000000 ) ) ;
#172 = CARTESIAN_POINT ( 'NONE',  ( 6.730931363793756900, -2.371835937269143100, 3.584285277628945100 ) ) ;
#173 = EDGE_LOOP ( 'NONE', ( #293, #71, #212 ) ) ;
#174 = CARTESIAN_POINT ( 'NONE',  ( 6.349999999999999600, 1.221245327087670000E-015, 1.765888741806449900 ) ) ;
#175 = EDGE_CURVE ( 'NONE', #205, #69, #276, .T. ) ;
#176 = LOCAL_TIME ( 16, 47, 47.00000000000000000, #252 ) ;
#177 = APPLICATION_PROTOCOL_DEFINITION ( 'international standard', 'config_control_design', 1994, #215 ) ;
#178 = CYLINDRICAL_SURFACE ( 'NONE', #110, 6.349999999999999600 ) ;
#179 = VERTEX_POINT ( 'NONE', #79 ) ;
#180 = DIRECTION ( 'NONE',  ( 1.000000000000000000, -2.953107315836599900E-016, -2.552085731999630100E-016 ) ) ;
#181 = CARTESIAN_POINT ( 'NONE',  ( 9.014115201696134500E-015, -6.418439304919817600, 2.992551495659214700 ) ) ;
#182 = ORIENTED_EDGE ( 'NONE', *, *, #175, .T. ) ;
#183 = CARTESIAN_POINT ( 'NONE',  ( -1.932786035928324000, 6.418439304919817600, 1.807448504340786600 ) ) ;
#184 = CIRCLE ( 'NONE', #233, 6.349999999999999600 ) ;
#185 = ORIENTED_EDGE ( 'NONE', *, *, #105, .F. ) ;
#186 = CC_DESIGN_APPROVAL ( #166, ( #216 ) ) ;
#187 = CARTESIAN_POINT ( 'NONE',  ( 6.730931363793756000, 2.371835937269146200, 3.584285277628946900 ) ) ;
#188 = PERSON_AND_ORGANIZATION ( #53, #115 ) ;
#189 = AXIS2_PLACEMENT_3D ( 'NONE', #262, #132, #108 ) ;
#190 = DIRECTION ( 'NONE',  ( -1.000000000000000000, -2.953107315836599900E-016, 2.552085731999620200E-016 ) ) ;
#191 = DIRECTION ( 'NONE',  ( 1.000000000000000000, 0.0000000000000000000, 0.0000000000000000000 ) ) ;
#192 = CARTESIAN_POINT ( 'NONE',  ( 3.794063462247238200, 6.418439304919819400, 2.471678955631314300 ) ) ;
#193 = CARTESIAN_POINT ( 'NONE',  ( -8.450843766156949700E-015, -2.371835937269144000, -0.6679149110396386300 ) ) ;
#194 = CARTESIAN_POINT ( 'NONE',  ( 2.498001805406600200E-016, 1.221245327087670000E-015, 1.765888741806449900 ) ) ;
#195 = CARTESIAN_POINT ( 'NONE',  ( -3.794063462247232000, -6.418439304919819400, 2.471678955631314300 ) ) ;
#196 = CARTESIAN_POINT ( 'NONE',  ( 2.498001805406600200E-016, 1.221245327087670000E-015, 3.034111258193549900 ) ) ;
#197 = CARTESIAN_POINT ( 'NONE',  ( -3.794063462247244400, -6.418439304919816700, 2.328321044368685000 ) ) ;
#198 = APPROVAL_ROLE ( '' ) ;
#199 = ORIENTED_EDGE ( 'NONE', *, *, #105, .T. ) ;
#200 = DIRECTION ( 'NONE',  ( 1.000000000000000000, 0.0000000000000000000, 0.0000000000000000000 ) ) ;
#201 = DATE_AND_TIME ( #261, #138 ) ;
#202 = ORIENTED_EDGE ( 'NONE', *, *, #23, .T. ) ;
#203 = CC_DESIGN_APPROVAL ( #78, ( #7 ) ) ;
#204 = EDGE_LOOP ( 'NONE', ( #131, #202, #90, #120, #254, #227 ) ) ;
#205 = VERTEX_POINT ( 'NONE', #152 ) ;
#206 = CIRCLE ( 'NONE', #60, 6.349999999999999600 ) ;
#207 = CARTESIAN_POINT ( 'NONE',  ( 2.388761672080733400, 2.371835937269144400, 5.467914911039638800 ) ) ;
#208 = CARTESIAN_POINT ( 'NONE',  ( 1.932786035928322700, 6.418439304919819400, 2.992551495659213900 ) ) ;
#209 = CIRCLE ( 'NONE', #48, 12.30000000000000100 ) ;
#210 = EDGE_CURVE ( 'NONE', #114, #205, #272, .T. ) ;
#211 = CARTESIAN_POINT ( 'NONE',  ( 2.498001805406600200E-016, 1.221245327087670000E-015, 1.765888741806449900 ) ) ;
#212 = ORIENTED_EDGE ( 'NONE', *, *, #168, .F. ) ;
#213 = CARTESIAN_POINT ( 'NONE',  ( 4.689144691437658000, -2.371835937269144000, 4.824160073965615900 ) ) ;
#214 = DATE_TIME_ROLE ( 'creation_date' ) ;
#215 = APPLICATION_CONTEXT ( 'configuration controlled 3d designs of mechanical parts and assemblies' ) ;
#216 = SECURITY_CLASSIFICATION ( '', '', #130 ) ;
#217 = FACE_OUTER_BOUND ( 'NONE', #81, .T. ) ;
#218 = DIRECTION ( 'NONE',  ( 0.0000000000000000000, 0.0000000000000000000, 1.000000000000000000 ) ) ;
#219 = PERSON_AND_ORGANIZATION_ROLE ( 'creator' ) ;
#220 = ADVANCED_FACE ( 'NONE', ( #268 ), #178, .T. ) ;
#221 = CARTESIAN_POINT ( 'NONE',  ( -3.794063462247233800, 6.418439304919817600, 2.471678955631314300 ) ) ;
#222 = AXIS2_PLACEMENT_3D ( 'NONE', #15, #56, #103 ) ;
#223 = CARTESIAN_POINT ( 'NONE',  ( -1.932786035928327300, -6.418439304919816700, 1.807448504340784900 ) ) ;
#224 = APPROVAL ( #236, 'UNSPECIFIED' ) ;
#225 = ORIENTED_EDGE ( 'NONE', *, *, #23, .F. ) ;
#226 = DATE_AND_TIME ( #294, #232 ) ;
#227 = ORIENTED_EDGE ( 'NONE', *, *, #210, .F. ) ;
#228 = CARTESIAN_POINT ( 'NONE',  ( -6.349999999999999600, 1.998896044546239400E-015, 3.034111258193549900 ) ) ;
#229 = CARTESIAN_POINT ( 'NONE',  ( -6.349999999999999600, 1.998896044546239400E-015, 1.765888741806449900 ) ) ;
#230 = CARTESIAN_POINT ( 'NONE',  ( -9.004510748190111600E-015, -6.349999999999995200, 1.765888741806449700 ) ) ;
#231 = DIRECTION ( 'NONE',  ( 0.0000000000000000000, 0.0000000000000000000, 1.000000000000000000 ) ) ;
#232 = LOCAL_TIME ( 16, 47, 47.00000000000000000, #282 ) ;
#233 = AXIS2_PLACEMENT_3D ( 'NONE', #107, #286, #159 ) ;
#234 = APPROVAL_STATUS ( 'not_yet_approved' ) ;
#235 = MANIFOLD_SOLID_BREP ( 'Imported1', #16 ) ;
#236 = APPROVAL_STATUS ( 'not_yet_approved' ) ;
#237 = CARTESIAN_POINT ( 'NONE',  ( -6.730931363793751600, -2.371835937269146200, 3.584285277628943800 ) ) ;
#238 = PERSON_AND_ORGANIZATION_ROLE ( 'design_owner' ) ;
#239 = CARTESIAN_POINT ( 'NONE',  ( 4.689144691437649100, -2.371835937269144900, -0.02416007396561560500 ) ) ;
#240 = CC_DESIGN_PERSON_AND_ORGANIZATION_ASSIGNMENT ( #70, #106, ( #216 ) ) ;
#241 = CARTESIAN_POINT ( 'NONE',  ( -9.014115201696145500E-015, -6.418439304919815800, 1.807448504340784200 ) ) ;
#242 = ADVANCED_FACE ( 'NONE', ( #149 ), #74, .T. ) ;
#243 = DATE_AND_TIME ( #158, #176 ) ;
#244 = VECTOR ( 'NONE', #279, 1000.000000000000000 ) ;
#245 = CARTESIAN_POINT ( 'NONE',  ( 5.223247188173755800E-015, 6.418439304919817600, 2.992551495659214700 ) ) ;
#246 = CARTESIAN_POINT ( 'NONE',  ( -1.214306433183765000E-014, -6.418439304919816700, 1.807448504340783700 ) ) ;
#247 = CARTESIAN_POINT ( 'NONE',  ( 5.446106365814497300, -6.418439304919817600, 1.468476032264080200 ) ) ;
#248 = CARTESIAN_POINT ( 'NONE',  ( -1.214306433183764800E-014, -2.371835937269144000, -0.6679149110396395100 ) ) ;
#249 =( BOUNDED_SURFACE ( )  B_SPLINE_SURFACE ( 3, 3, ( 
 ( #247, #32, #128, #124 ),
 ( #172, #213, #77, #11 ),
 ( #187, #58, #207, #13 ),
 ( #126, #192, #208, #123 ) ),
 .UNSPECIFIED., .F., .F., .T. ) 
 B_SPLINE_SURFACE_WITH_KNOTS ( ( 4, 4 ),
 ( 4, 4 ),
 ( 0.0000000000000000000, 1.000000000000000000 ),
 ( 0.0000000000000000000, 1.000000000000000000 ),
 .UNSPECIFIED. ) 
 GEOMETRIC_REPRESENTATION_ITEM ( )  RATIONAL_B_SPLINE_SURFACE ( (
 ( 1.000000000000000000, 0.9753348764322131700, 0.9753348764322131700, 1.000000000000000000),
 ( 0.9020353114178434300, 0.8797864989992152400, 0.8797864989992152400, 0.9020353114178434300),
 ( 0.9020353114178434300, 0.8797864989992152400, 0.8797864989992152400, 0.9020353114178434300),
 ( 1.000000000000000000, 0.9753348764322131700, 0.9753348764322131700, 1.000000000000000000) ) ) 
 REPRESENTATION_ITEM ( '' )  SURFACE ( )  );
#250 = APPROVAL_DATE_TIME ( #201, #166 ) ;
#251 = CARTESIAN_POINT ( 'NONE',  ( -3.794063462247238200, 6.418439304919818500, 2.328321044368686800 ) ) ;
#252 = COORDINATED_UNIVERSAL_TIME_OFFSET ( 2, 0, .AHEAD. ) ;
#253 = CALENDAR_DATE ( 2019, 8, 1 ) ;
#254 = ORIENTED_EDGE ( 'NONE', *, *, #175, .F. ) ;
#255 = CC_DESIGN_PERSON_AND_ORGANIZATION_ASSIGNMENT ( #280, #65, ( #7 ) ) ;
#256 = DIRECTION ( 'NONE',  ( 0.0000000000000000000, 0.0000000000000000000, 1.000000000000000000 ) ) ;
#257 = CC_DESIGN_PERSON_AND_ORGANIZATION_ASSIGNMENT ( #113, #238, ( #161 ) ) ;
#258 = DIRECTION ( 'NONE',  ( 1.000000000000000000, 0.0000000000000000000, 0.0000000000000000000 ) ) ;
#259 = DATE_TIME_ROLE ( 'classification_date' ) ;
#260 = CARTESIAN_POINT ( 'NONE',  ( 2.388761672080717400, -2.371835937269144900, -0.6679149110396392900 ) ) ;
#261 = CALENDAR_DATE ( 2019, 8, 1 ) ;
#262 = CARTESIAN_POINT ( 'NONE',  ( 2.498001805406600200E-016, 1.221245327087670000E-015, 1.765888741806449900 ) ) ;
#263 = APPROVAL_ROLE ( '' ) ;
#264 = ORIENTED_EDGE ( 'NONE', *, *, #12, .F. ) ;
#265 = DIRECTION ( 'NONE',  ( 1.000000000000000000, 0.0000000000000000000, 0.0000000000000000000 ) ) ;
#266 = APPLICATION_PROTOCOL_DEFINITION ( 'international standard', 'config_control_design', 1994, #285 ) ;
#267 = PERSON_AND_ORGANIZATION ( #53, #115 ) ;
#268 = FACE_OUTER_BOUND ( 'NONE', #204, .T. ) ;
#269 = CIRCLE ( 'NONE', #39, 6.349999999999999600 ) ;
#270 = CARTESIAN_POINT ( 'NONE',  ( -1.932786035928313100, 6.418439304919817600, 2.992551495659214700 ) ) ;
#271 = COORDINATED_UNIVERSAL_TIME_OFFSET ( 2, 0, .AHEAD. ) ;
#272 = LINE ( 'NONE', #151, #244 ) ;
#273 = COORDINATED_UNIVERSAL_TIME_OFFSET ( 2, 0, .AHEAD. ) ;
#274 = EDGE_CURVE ( 'NONE', #69, #170, #184, .T. ) ;
#275 = PERSON_AND_ORGANIZATION ( #53, #115 ) ;
#276 = CIRCLE ( 'NONE', #83, 6.349999999999999600 ) ;
#277 = CIRCLE ( 'NONE', #75, 6.349999999999999600 ) ;
#278 = ORIENTED_EDGE ( 'NONE', *, *, #274, .T. ) ;
#279 = DIRECTION ( 'NONE',  ( 0.0000000000000000000, 0.0000000000000000000, 1.000000000000000000 ) ) ;
#280 = PERSON_AND_ORGANIZATION ( #53, #115 ) ;
#281 = DIRECTION ( 'NONE',  ( 2.953107315836599900E-016, -1.000000000000000000, -1.410344289412038200E-016 ) ) ;
#282 = COORDINATED_UNIVERSAL_TIME_OFFSET ( 2, 0, .AHEAD. ) ;
#283 = CARTESIAN_POINT ( 'NONE',  ( 2.498001805406600200E-016, 1.221245327087670000E-015, 3.034111258193549900 ) ) ;
#284 = CARTESIAN_POINT ( 'NONE',  ( 2.498001805406600200E-016, 1.221245327087670000E-015, 1.765888741806449900 ) ) ;
#285 = APPLICATION_CONTEXT ( 'configuration controlled 3d designs of mechanical parts and assemblies' ) ;
#286 = DIRECTION ( 'NONE',  ( 0.0000000000000000000, 0.0000000000000000000, 1.000000000000000000 ) ) ;
#287 = CIRCLE ( 'NONE', #189, 6.349999999999999600 ) ;
#288 = CARTESIAN_POINT ( 'NONE',  ( -5.446106365814499000, -6.418439304919814100, 3.331523967735917000 ) ) ;
#289 = CARTESIAN_POINT ( 'NONE',  ( 6.730931363793751600, 2.371835937269143500, 1.215714722371057800 ) ) ;
#290 = CARTESIAN_POINT ( 'NONE',  ( 1.932786035928312900, 6.418439304919816700, 1.807448504340785300 ) ) ;
#291 = APPROVAL_DATE_TIME ( #20, #78 ) ;
#292 = CARTESIAN_POINT ( 'NONE',  ( 5.446106365814491000, 6.418439304919815000, 3.331523967735920500 ) ) ;
#293 = ORIENTED_EDGE ( 'NONE', *, *, #6, .F. ) ;
#294 = CALENDAR_DATE ( 2019, 8, 1 ) ;
#295 = CARTESIAN_POINT ( 'NONE',  ( -4.689144691437650900, 2.371835937269143100, 4.824160073965617600 ) ) ;
ENDSEC;
END-ISO-10303-21;
