ISO-10303-21;
HEADER;
FILE_DESCRIPTION (( 'STEP AP203' ),
    '1' );
FILE_NAME ('110-5555E CaF2 pl-cx 50.8 F2000.STEP',
    '2019-01-04T07:12:56',
    ( '' ),
    ( '' ),
    'SwSTEP 2.0',
    'SolidWorks 2017',
    '' );
FILE_SCHEMA (( 'CONFIG_CONTROL_DESIGN' ));
ENDSEC;

DATA;
#1 = CARTESIAN_POINT ( 'NONE',  ( -25.55637629890673800, 8.570933243096941800, 0.2587044874898658000 ) ) ;
#2 = DATE_AND_TIME ( #130, #228 ) ;
#3 = DIRECTION ( 'NONE',  ( 0.0000000000000000000, 0.0000000000000000000, 1.000000000000000000 ) ) ;
#4 =( BOUNDED_SURFACE ( )  B_SPLINE_SURFACE ( 3, 3, ( 
 ( #141, #203, #183, #66 ),
 ( #200, #88, #80, #96 ),
 ( #142, #32, #103, #87 ),
 ( #71, #160, #214, #181 ) ),
 .UNSPECIFIED., .F., .F., .F. ) 
 B_SPLINE_SURFACE_WITH_KNOTS ( ( 4, 4 ),
 ( 4, 4 ),
 ( 0.0000000000000000000, 1.000000000000000000 ),
 ( 0.0000000000000000000, 1.000000000000000000 ),
 .UNSPECIFIED. ) 
 GEOMETRIC_REPRESENTATION_ITEM ( )  RATIONAL_B_SPLINE_SURFACE ( (
 ( 1.000000000000000000, 0.9999222186757990000, 0.9999222186757990000, 1.000000000000000000),
 ( 0.9996851710596766900, 0.9996074142232875800, 0.9996074142232875800, 0.9996851710596766900),
 ( 0.9996851710596766900, 0.9996074142232875800, 0.9996074142232875800, 0.9996851710596766900),
 ( 1.000000000000000000, 0.9999222186757990000, 0.9999222186757990000, 1.000000000000000000) ) ) 
 REPRESENTATION_ITEM ( '' )  SURFACE ( )  );
#5 = CARTESIAN_POINT ( 'NONE',  ( -25.54028579190778100, 25.70470459579915400, 0.7852089598329170500 ) ) ;
#6 = AXIS2_PLACEMENT_3D ( 'NONE', #70, #124, #202 ) ;
#7 = ORIENTED_EDGE ( 'NONE', *, *, #83, .T. ) ;
#8 = APPROVAL ( #55, 'UNSPECIFIED' ) ;
#9 = DIRECTION ( 'NONE',  ( 1.000000000000000000, 0.0000000000000000000, 0.0000000000000000000 ) ) ;
#10 = DIRECTION ( 'NONE',  ( 0.0000000000000000000, -1.000000000000000000, -2.654448355350045800E-016 ) ) ;
#11 = PERSON_AND_ORGANIZATION_ROLE ( 'creator' ) ;
#12 = PERSON_AND_ORGANIZATION_ROLE ( 'classification_officer' ) ;
#13 = SHAPE_DEFINITION_REPRESENTATION ( #100, #59 ) ;
#14 = ORIENTED_EDGE ( 'NONE', *, *, #125, .T. ) ;
#15 = CARTESIAN_POINT ( 'NONE',  ( 9.992007221626412800E-016, 4.884981308350691100E-015, 0.3857195335077859800 ) ) ;
#16 = PERSON_AND_ORGANIZATION_ROLE ( 'design_owner' ) ;
#17 = DIRECTION ( 'NONE',  ( 0.0000000000000000000, 0.0000000000000000000, 1.000000000000000000 ) ) ;
#18 = AXIS2_PLACEMENT_3D ( 'NONE', #149, #3, #133 ) ;
#19 = ADVANCED_FACE ( 'NONE', ( #163 ), #123, .T. ) ;
#20 = CALENDAR_DATE ( 2019, 4, 1 ) ;
#21 = ORIENTED_EDGE ( 'NONE', *, *, #94, .F. ) ;
#22 = PERSON_AND_ORGANIZATION ( #176, #155 ) ;
#23 = EDGE_LOOP ( 'NONE', ( #21, #7, #147 ) ) ;
#24 = CARTESIAN_POINT ( 'NONE',  ( -17.03990360590743700, 8.570933243096940000, -0.001567496266044866700 ) ) ;
#25 = DIRECTION ( 'NONE',  ( 1.000000000000000000, 0.0000000000000000000, 0.0000000000000000000 ) ) ;
#26 = CYLINDRICAL_SURFACE ( 'NONE', #18, 25.39999999999999900 ) ;
#27 = EDGE_CURVE ( 'NONE', #156, #110, #65, .T. ) ;
#28 = CIRCLE ( 'NONE', #154, 25.39999999999999900 ) ;
#29 = ORIENTED_EDGE ( 'NONE', *, *, #112, .T. ) ;
#30 = CARTESIAN_POINT ( 'NONE',  ( 25.39999999999999900, 4.884981308350691100E-015, 5.000000000000000000 ) ) ;
#31 = CC_DESIGN_PERSON_AND_ORGANIZATION_ASSIGNMENT ( #197, #164, ( #201 ) ) ;
#32 = CARTESIAN_POINT ( 'NONE',  ( 8.520448851799415000, 8.570933243096940000, -0.1317186731403566800 ) ) ;
#33 = DIRECTION ( 'NONE',  ( 1.000000000000000000, 0.0000000000000000000, 0.0000000000000000000 ) ) ;
#34 = COORDINATED_UNIVERSAL_TIME_OFFSET ( 2, 0, .AHEAD. ) ;
#35 = APPLICATION_PROTOCOL_DEFINITION ( 'international standard', 'config_control_design', 1994, #188 ) ;
#36 =( GEOMETRIC_REPRESENTATION_CONTEXT ( 3 ) GLOBAL_UNCERTAINTY_ASSIGNED_CONTEXT ( ( #52 ) ) GLOBAL_UNIT_ASSIGNED_CONTEXT ( ( #72, #126, #161 ) ) REPRESENTATION_CONTEXT ( 'NONE', 'WORKASPACE' ) );
#37 = CYLINDRICAL_SURFACE ( 'NONE', #79, 25.39999999999999900 ) ;
#38 = VECTOR ( 'NONE', #225, 1000.000000000000000 ) ;
#39 = ADVANCED_FACE ( 'NONE', ( #192 ), #26, .T. ) ;
#40 = CARTESIAN_POINT ( 'NONE',  ( 9.992007221626412800E-016, 4.884981308350691100E-015, 0.3857195335077859800 ) ) ;
#41 = ADVANCED_FACE ( 'NONE', ( #224 ), #37, .T. ) ;
#42 = CALENDAR_DATE ( 2019, 4, 1 ) ;
#43 = CARTESIAN_POINT ( 'NONE',  ( -8.515084306361755400, 25.70470459579915400, 0.3950316128707601100 ) ) ;
#44 = CARTESIAN_POINT ( 'NONE',  ( -25.54028579190778100, -25.70470459579899700, 0.7852089598329170500 ) ) ;
#45 = CC_DESIGN_PERSON_AND_ORGANIZATION_ASSIGNMENT ( #219, #16, ( #114 ) ) ;
#46 = PERSON_AND_ORGANIZATION ( #176, #155 ) ;
#47 = DATE_AND_TIME ( #20, #119 ) ;
#48 = EDGE_LOOP ( 'NONE', ( #167, #61, #14 ) ) ;
#49 = CC_DESIGN_APPROVAL ( #8, ( #201 ) ) ;
#50 = CARTESIAN_POINT ( 'NONE',  ( 9.992007221626412800E-016, 4.884981308350691100E-015, 5.000000000000000000 ) ) ;
#51 = DIRECTION ( 'NONE',  ( -0.0000000000000000000, -0.0000000000000000000, -1.000000000000000000 ) ) ;
#52 = UNCERTAINTY_MEASURE_WITH_UNIT (LENGTH_MEASURE( 1.000000000000000100E-005 ), #72, 'distance_accuracy_value', 'NONE');
#53 = CARTESIAN_POINT ( 'NONE',  ( 0.0000000000000000000, 0.0000000000000000000, 0.0000000000000000000 ) ) ;
#54 = CIRCLE ( 'NONE', #121, 25.39999999999999900 ) ;
#55 = APPROVAL_STATUS ( 'not_yet_approved' ) ;
#56 = VERTEX_POINT ( 'NONE', #81 ) ;
#57 = APPLICATION_CONTEXT ( 'configuration controlled 3d designs of mechanical parts and assemblies' ) ;
#58 = ADVANCED_FACE ( 'NONE', ( #184 ), #4, .T. ) ;
#59 = ADVANCED_BREP_SHAPE_REPRESENTATION ( '110-5555E CaF2 pl-cx 50.8 F2000', ( #138, #165 ), #36 ) ;
#60 = CC_DESIGN_APPROVAL ( #179, ( #174 ) ) ;
#61 = ORIENTED_EDGE ( 'NONE', *, *, #94, .T. ) ;
#62 = DATE_AND_TIME ( #127, #187 ) ;
#63 = ORIENTED_EDGE ( 'NONE', *, *, #74, .F. ) ;
#64 = DIRECTION ( 'NONE',  ( 1.000000000000000000, 0.0000000000000000000, 0.0000000000000000000 ) ) ;
#65 = LINE ( 'NONE', #193, #38 ) ;
#66 = CARTESIAN_POINT ( 'NONE',  ( 25.54028579190739700, -25.70470459579899700, 0.7852089598328314500 ) ) ;
#67 = VERTEX_POINT ( 'NONE', #212 ) ;
#68 = CARTESIAN_POINT ( 'NONE',  ( 0.0000000000000000000, -25.39999999999705000, 0.3857195335077652800 ) ) ;
#69 = VERTEX_POINT ( 'NONE', #68 ) ;
#70 = CARTESIAN_POINT ( 'NONE',  ( 0.0000000000000000000, 52.02000000000000300, 5.000000000000000000 ) ) ;
#71 = CARTESIAN_POINT ( 'NONE',  ( 0.0000000000000000000, 25.70470459579915400, 0.3950316128706887800 ) ) ;
#72 =( LENGTH_UNIT ( ) NAMED_UNIT ( * ) SI_UNIT ( .MILLI., .METRE. ) );
#73 = ORIENTED_EDGE ( 'NONE', *, *, #112, .F. ) ;
#74 = EDGE_CURVE ( 'NONE', #67, #110, #180, .T. ) ;
#75 = APPROVAL_ROLE ( '' ) ;
#76 = CC_DESIGN_PERSON_AND_ORGANIZATION_ASSIGNMENT ( #22, #12, ( #105 ) ) ;
#77 = APPROVAL_PERSON_ORGANIZATION ( #122, #8, #75 ) ;
#78 = APPROVAL_PERSON_ORGANIZATION ( #146, #86, #90 ) ;
#79 = AXIS2_PLACEMENT_3D ( 'NONE', #40, #172, #64 ) ;
#80 = CARTESIAN_POINT ( 'NONE',  ( 17.03990360590711000, -8.570933243096785500, -0.001567496266121520000 ) ) ;
#81 = CARTESIAN_POINT ( 'NONE',  ( -25.39999999999999900, 7.995584178184967200E-015, 0.3857195335077859800 ) ) ;
#82 = PERSON_AND_ORGANIZATION ( #176, #155 ) ;
#83 = EDGE_CURVE ( 'NONE', #69, #56, #28, .T. ) ;
#84 = PERSON_AND_ORGANIZATION ( #176, #155 ) ;
#85 = ORIENTED_EDGE ( 'NONE', *, *, #125, .F. ) ;
#86 = APPROVAL ( #91, 'UNSPECIFIED' ) ;
#87 = CARTESIAN_POINT ( 'NONE',  ( 25.55637629890635100, 8.570933243096941800, 0.2587044874897800900 ) ) ;
#88 = CARTESIAN_POINT ( 'NONE',  ( 8.520448851799415000, -8.570933243096785500, -0.1317186731403534300 ) ) ;
#89 = DATE_AND_TIME ( #42, #190 ) ;
#90 = APPROVAL_ROLE ( '' ) ;
#91 = APPROVAL_STATUS ( 'not_yet_approved' ) ;
#92 = CC_DESIGN_PERSON_AND_ORGANIZATION_ASSIGNMENT ( #82, #216, ( #201 ) ) ;
#93 = CARTESIAN_POINT ( 'NONE',  ( -2.046973701652631900E-013, -8.570933243096785500, -0.1317186731402841000 ) ) ;
#94 = EDGE_CURVE ( 'NONE', #69, #104, #137, .T. ) ;
#95 = COORDINATED_UNIVERSAL_TIME_OFFSET ( 2, 0, .AHEAD. ) ;
#96 = CARTESIAN_POINT ( 'NONE',  ( 25.55637629890635100, -8.570933243096785500, 0.2587044874897833600 ) ) ;
#97 = ORIENTED_EDGE ( 'NONE', *, *, #186, .F. ) ;
#98 = CIRCLE ( 'NONE', #217, 25.39999999999999900 ) ;
#99 = ORIENTED_EDGE ( 'NONE', *, *, #198, .F. ) ;
#100 = PRODUCT_DEFINITION_SHAPE ( 'NONE', 'NONE',  #174 ) ;
#101 = EDGE_CURVE ( 'NONE', #56, #104, #98, .T. ) ;
#102 = CARTESIAN_POINT ( 'NONE',  ( 25.39999999999999900, 4.884981308350691100E-015, 0.3857195335077859800 ) ) ;
#103 = CARTESIAN_POINT ( 'NONE',  ( 17.03990360590711000, 8.570933243096940000, -0.001567496266124772600 ) ) ;
#104 = VERTEX_POINT ( 'NONE', #140 ) ;
#105 = SECURITY_CLASSIFICATION ( '', '', #234 ) ;
#106 = APPROVAL_DATE_TIME ( #89, #179 ) ;
#107 = ORIENTED_EDGE ( 'NONE', *, *, #74, .T. ) ;
#108 = DIRECTION ( 'NONE',  ( 0.0000000000000000000, 0.0000000000000000000, 1.000000000000000000 ) ) ;
#109 = AXIS2_PLACEMENT_3D ( 'NONE', #158, #213, #159 ) ;
#110 = VERTEX_POINT ( 'NONE', #30 ) ;
#111 = APPROVAL_DATE_TIME ( #47, #86 ) ;
#112 = EDGE_CURVE ( 'NONE', #110, #67, #227, .T. ) ;
#113 = CARTESIAN_POINT ( 'NONE',  ( -2.012279232133096200E-013, -25.70470459579899700, 0.3950316128707581100 ) ) ;
#114 = PRODUCT ( '110-5555E CaF2 pl-cx 50.8 F2000', '110-5555E CaF2 pl-cx 50.8 F2000', '', ( #128 ) ) ;
#115 = EDGE_LOOP ( 'NONE', ( #73, #63 ) ) ;
#116 = CC_DESIGN_SECURITY_CLASSIFICATION ( #105, ( #201 ) ) ;
#117 = CARTESIAN_POINT ( 'NONE',  ( 9.992007221626412800E-016, 4.884981308350691100E-015, 0.3857195335077859800 ) ) ;
#118 = DIRECTION ( 'NONE',  ( -0.0000000000000000000, -0.0000000000000000000, -1.000000000000000000 ) ) ;
#119 = LOCAL_TIME ( 9, 12, 56.00000000000000000, #169 ) ;
#120 = ORIENTED_EDGE ( 'NONE', *, *, #101, .F. ) ;
#121 = AXIS2_PLACEMENT_3D ( 'NONE', #15, #204, #233 ) ;
#122 = PERSON_AND_ORGANIZATION ( #176, #155 ) ;
#123 =( BOUNDED_SURFACE ( )  B_SPLINE_SURFACE ( 3, 3, ( 
 ( #44, #152, #175, #113 ),
 ( #194, #171, #151, #93 ),
 ( #1, #24, #134, #170 ),
 ( #5, #191, #43, #222 ) ),
 .UNSPECIFIED., .F., .F., .F. ) 
 B_SPLINE_SURFACE_WITH_KNOTS ( ( 4, 4 ),
 ( 4, 4 ),
 ( 0.0000000000000000000, 1.000000000000000000 ),
 ( 0.0000000000000000000, 1.000000000000000000 ),
 .UNSPECIFIED. ) 
 GEOMETRIC_REPRESENTATION_ITEM ( )  RATIONAL_B_SPLINE_SURFACE ( (
 ( 1.000000000000000000, 0.9999222186757990000, 0.9999222186757990000, 1.000000000000000000),
 ( 0.9996851710596766900, 0.9996074142232875800, 0.9996074142232875800, 0.9996851710596766900),
 ( 0.9996851710596766900, 0.9996074142232875800, 0.9996074142232875800, 0.9996851710596766900),
 ( 1.000000000000000000, 0.9999222186757990000, 0.9999222186757990000, 1.000000000000000000) ) ) 
 REPRESENTATION_ITEM ( '' )  SURFACE ( )  );
#124 = DIRECTION ( 'NONE',  ( 0.0000000000000000000, 0.0000000000000000000, 1.000000000000000000 ) ) ;
#125 = EDGE_CURVE ( 'NONE', #104, #156, #206, .T. ) ;
#126 =( NAMED_UNIT ( * ) PLANE_ANGLE_UNIT ( ) SI_UNIT ( $, .RADIAN. ) );
#127 = CALENDAR_DATE ( 2019, 4, 1 ) ;
#128 = MECHANICAL_CONTEXT ( 'NONE', #57, 'mechanical' ) ;
#129 = ADVANCED_FACE ( 'NONE', ( #143 ), #231, .T. ) ;
#130 = CALENDAR_DATE ( 2019, 4, 1 ) ;
#131 = APPROVAL_ROLE ( '' ) ;
#132 = AXIS2_PLACEMENT_3D ( 'NONE', #232, #51, #177 ) ;
#133 = DIRECTION ( 'NONE',  ( 1.000000000000000000, 0.0000000000000000000, 0.0000000000000000000 ) ) ;
#134 = CARTESIAN_POINT ( 'NONE',  ( -8.520448851799679700, 8.570933243096940000, -0.1317186731402852600 ) ) ;
#135 = ORIENTED_EDGE ( 'NONE', *, *, #27, .F. ) ;
#136 = CARTESIAN_POINT ( 'NONE',  ( 0.0000000000000000000, 0.0000000000000000000, 836.5000000000000000 ) ) ;
#137 = CIRCLE ( 'NONE', #168, 836.4999999999998900 ) ;
#138 = MANIFOLD_SOLID_BREP ( 'Imported1', #211 ) ;
#139 = COORDINATED_UNIVERSAL_TIME_OFFSET ( 2, 0, .AHEAD. ) ;
#140 = CARTESIAN_POINT ( 'NONE',  ( 0.0000000000000000000, 25.39999999999705000, 0.3857195335077652800 ) ) ;
#141 = CARTESIAN_POINT ( 'NONE',  ( 0.0000000000000000000, -25.70470459579899700, 0.3950316128706887800 ) ) ;
#142 = CARTESIAN_POINT ( 'NONE',  ( 0.0000000000000000000, 8.570933243096941800, -0.1317186731403566800 ) ) ;
#143 = FACE_OUTER_BOUND ( 'NONE', #115, .T. ) ;
#144 = CARTESIAN_POINT ( 'NONE',  ( -25.39999999999999900, 7.995584178184967200E-015, 0.3857195335077859800 ) ) ;
#145 = AXIS2_PLACEMENT_3D ( 'NONE', #50, #153, #182 ) ;
#146 = PERSON_AND_ORGANIZATION ( #176, #155 ) ;
#147 = ORIENTED_EDGE ( 'NONE', *, *, #101, .T. ) ;
#148 = DATE_TIME_ROLE ( 'creation_date' ) ;
#149 = CARTESIAN_POINT ( 'NONE',  ( 9.992007221626412800E-016, 4.884981308350691100E-015, 0.3857195335077859800 ) ) ;
#150 = APPROVAL_DATE_TIME ( #178, #8 ) ;
#151 = CARTESIAN_POINT ( 'NONE',  ( -8.520448851799679700, -8.570933243096785500, -0.1317186731402820200 ) ) ;
#152 = CARTESIAN_POINT ( 'NONE',  ( -17.02917514092376500, -25.70470459579899700, 0.5251008454819359200 ) ) ;
#153 = DIRECTION ( 'NONE',  ( -0.0000000000000000000, -0.0000000000000000000, -1.000000000000000000 ) ) ;
#154 = AXIS2_PLACEMENT_3D ( 'NONE', #117, #195, #9 ) ;
#155 = ORGANIZATION ( 'UNSPECIFIED', 'UNSPECIFIED', '' ) ;
#156 = VERTEX_POINT ( 'NONE', #102 ) ;
#157 = DESIGN_CONTEXT ( 'detailed design', #188, 'design' ) ;
#158 = CARTESIAN_POINT ( 'NONE',  ( 9.992007221626412800E-016, 4.884981308350691100E-015, 0.3857195335077859800 ) ) ;
#159 = DIRECTION ( 'NONE',  ( 1.000000000000000000, 0.0000000000000000000, 0.0000000000000000000 ) ) ;
#160 = CARTESIAN_POINT ( 'NONE',  ( 8.515084306361494300, 25.70470459579915400, 0.3950316128706887200 ) ) ;
#161 =( NAMED_UNIT ( * ) SI_UNIT ( $, .STERADIAN. ) SOLID_ANGLE_UNIT ( ) );
#162 = COORDINATED_UNIVERSAL_TIME_OFFSET ( 2, 0, .AHEAD. ) ;
#163 = FACE_OUTER_BOUND ( 'NONE', #23, .T. ) ;
#164 = PERSON_AND_ORGANIZATION_ROLE ( 'creator' ) ;
#165 = AXIS2_PLACEMENT_3D ( 'NONE', #53, #17, #218 ) ;
#166 = LINE ( 'NONE', #144, #210 ) ;
#167 = ORIENTED_EDGE ( 'NONE', *, *, #186, .T. ) ;
#168 = AXIS2_PLACEMENT_3D ( 'NONE', #136, #25, #10 ) ;
#169 = COORDINATED_UNIVERSAL_TIME_OFFSET ( 2, 0, .AHEAD. ) ;
#170 = CARTESIAN_POINT ( 'NONE',  ( -2.046973701652631900E-013, 8.570933243096941800, -0.1317186731402873500 ) ) ;
#171 = CARTESIAN_POINT ( 'NONE',  ( -17.03990360590743700, -8.570933243096785500, -0.001567496266041614300 ) ) ;
#172 = DIRECTION ( 'NONE',  ( 0.0000000000000000000, 0.0000000000000000000, 1.000000000000000000 ) ) ;
#173 = APPROVAL_PERSON_ORGANIZATION ( #46, #179, #131 ) ;
#174 = PRODUCT_DEFINITION ( 'UNKNOWN', '', #201, #157 ) ;
#175 = CARTESIAN_POINT ( 'NONE',  ( -8.515084306361755400, -25.70470459579899700, 0.3950316128707601100 ) ) ;
#176 = PERSON ( 'UNSPECIFIED', 'UNSPECIFIED', 'UNSPECIFIED', ('UNSPECIFIED'), ('UNSPECIFIED'), ('UNSPECIFIED') ) ;
#177 = DIRECTION ( 'NONE',  ( 1.000000000000000000, 0.0000000000000000000, 0.0000000000000000000 ) ) ;
#178 = DATE_AND_TIME ( #215, #223 ) ;
#179 = APPROVAL ( #185, 'UNSPECIFIED' ) ;
#180 = CIRCLE ( 'NONE', #132, 25.39999999999999900 ) ;
#181 = CARTESIAN_POINT ( 'NONE',  ( 25.54028579190739700, 25.70470459579915400, 0.7852089598328314500 ) ) ;
#182 = DIRECTION ( 'NONE',  ( 1.000000000000000000, 0.0000000000000000000, 0.0000000000000000000 ) ) ;
#183 = CARTESIAN_POINT ( 'NONE',  ( 17.02917514092343900, -25.70470459579899700, 0.5251008454818560900 ) ) ;
#184 = FACE_OUTER_BOUND ( 'NONE', #48, .T. ) ;
#185 = APPROVAL_STATUS ( 'not_yet_approved' ) ;
#186 = EDGE_CURVE ( 'NONE', #156, #69, #54, .T. ) ;
#187 = LOCAL_TIME ( 9, 12, 56.00000000000000000, #34 ) ;
#188 = APPLICATION_CONTEXT ( 'configuration controlled 3d designs of mechanical parts and assemblies' ) ;
#189 = CC_DESIGN_PERSON_AND_ORGANIZATION_ASSIGNMENT ( #84, #11, ( #174 ) ) ;
#190 = LOCAL_TIME ( 9, 12, 56.00000000000000000, #139 ) ;
#191 = CARTESIAN_POINT ( 'NONE',  ( -17.02917514092376500, 25.70470459579915400, 0.5251008454819359200 ) ) ;
#192 = FACE_OUTER_BOUND ( 'NONE', #209, .T. ) ;
#193 = CARTESIAN_POINT ( 'NONE',  ( 25.39999999999999900, 4.884981308350691100E-015, 0.3857195335077859800 ) ) ;
#194 = CARTESIAN_POINT ( 'NONE',  ( -25.55637629890673800, -8.570933243096785500, 0.2587044874898690700 ) ) ;
#195 = DIRECTION ( 'NONE',  ( -0.0000000000000000000, -0.0000000000000000000, -1.000000000000000000 ) ) ;
#196 = CC_DESIGN_DATE_AND_TIME_ASSIGNMENT ( #2, #148, ( #174 ) ) ;
#197 = PERSON_AND_ORGANIZATION ( #176, #155 ) ;
#198 = EDGE_CURVE ( 'NONE', #56, #67, #166, .T. ) ;
#199 = EDGE_LOOP ( 'NONE', ( #120, #229, #107, #135, #85 ) ) ;
#200 = CARTESIAN_POINT ( 'NONE',  ( 0.0000000000000000000, -8.570933243096785500, -0.1317186731403534300 ) ) ;
#201 = PRODUCT_DEFINITION_FORMATION_WITH_SPECIFIED_SOURCE ( 'ANY', '', #114, .NOT_KNOWN. ) ;
#202 = DIRECTION ( 'NONE',  ( 1.000000000000000000, 0.0000000000000000000, -0.0000000000000000000 ) ) ;
#203 = CARTESIAN_POINT ( 'NONE',  ( 8.515084306361494300, -25.70470459579899700, 0.3950316128706887200 ) ) ;
#204 = DIRECTION ( 'NONE',  ( -0.0000000000000000000, -0.0000000000000000000, -1.000000000000000000 ) ) ;
#205 = DATE_TIME_ROLE ( 'classification_date' ) ;
#206 = CIRCLE ( 'NONE', #109, 25.39999999999999900 ) ;
#207 = ORIENTED_EDGE ( 'NONE', *, *, #27, .T. ) ;
#208 = CC_DESIGN_DATE_AND_TIME_ASSIGNMENT ( #62, #205, ( #105 ) ) ;
#209 = EDGE_LOOP ( 'NONE', ( #99, #220, #97, #207, #29 ) ) ;
#210 = VECTOR ( 'NONE', #108, 1000.000000000000000 ) ;
#211 = CLOSED_SHELL ( 'NONE', ( #58, #41, #19, #39, #129 ) ) ;
#212 = CARTESIAN_POINT ( 'NONE',  ( -25.39999999999999900, 7.995584178184967200E-015, 5.000000000000000000 ) ) ;
#213 = DIRECTION ( 'NONE',  ( -0.0000000000000000000, -0.0000000000000000000, -1.000000000000000000 ) ) ;
#214 = CARTESIAN_POINT ( 'NONE',  ( 17.02917514092343900, 25.70470459579915400, 0.5251008454818560900 ) ) ;
#215 = CALENDAR_DATE ( 2019, 4, 1 ) ;
#216 = PERSON_AND_ORGANIZATION_ROLE ( 'design_supplier' ) ;
#217 = AXIS2_PLACEMENT_3D ( 'NONE', #226, #118, #33 ) ;
#218 = DIRECTION ( 'NONE',  ( 1.000000000000000000, 0.0000000000000000000, 0.0000000000000000000 ) ) ;
#219 = PERSON_AND_ORGANIZATION ( #176, #155 ) ;
#220 = ORIENTED_EDGE ( 'NONE', *, *, #83, .F. ) ;
#221 = CC_DESIGN_APPROVAL ( #86, ( #105 ) ) ;
#222 = CARTESIAN_POINT ( 'NONE',  ( -2.012279232133096200E-013, 25.70470459579915400, 0.3950316128707581100 ) ) ;
#223 = LOCAL_TIME ( 9, 12, 56.00000000000000000, #95 ) ;
#224 = FACE_OUTER_BOUND ( 'NONE', #199, .T. ) ;
#225 = DIRECTION ( 'NONE',  ( 0.0000000000000000000, 0.0000000000000000000, 1.000000000000000000 ) ) ;
#226 = CARTESIAN_POINT ( 'NONE',  ( 9.992007221626412800E-016, 4.884981308350691100E-015, 0.3857195335077859800 ) ) ;
#227 = CIRCLE ( 'NONE', #145, 25.39999999999999900 ) ;
#228 = LOCAL_TIME ( 9, 12, 56.00000000000000000, #162 ) ;
#229 = ORIENTED_EDGE ( 'NONE', *, *, #198, .T. ) ;
#230 = PRODUCT_RELATED_PRODUCT_CATEGORY ( 'detail', '', ( #114 ) ) ;
#231 = PLANE ( 'NONE',  #6 ) ;
#232 = CARTESIAN_POINT ( 'NONE',  ( 9.992007221626412800E-016, 4.884981308350691100E-015, 5.000000000000000000 ) ) ;
#233 = DIRECTION ( 'NONE',  ( 1.000000000000000000, 0.0000000000000000000, 0.0000000000000000000 ) ) ;
#234 = SECURITY_CLASSIFICATION_LEVEL ( 'unclassified' ) ;
#235 = APPLICATION_PROTOCOL_DEFINITION ( 'international standard', 'config_control_design', 1994, #57 ) ;
ENDSEC;
END-ISO-10303-21;
