ISO-10303-21;
HEADER;
FILE_DESCRIPTION (( 'STEP AP203' ),
    '1' );
FILE_NAME ('110-5550E CaF2 pl-cx 50.8 F1700.STEP',
    '2019-01-04T07:37:41',
    ( '' ),
    ( '' ),
    'SwSTEP 2.0',
    'SolidWorks 2017',
    '' );
FILE_SCHEMA (( 'CONFIG_CONTROL_DESIGN' ));
ENDSEC;

DATA;
#1 = CARTESIAN_POINT ( 'NONE',  ( 9.992007221626412800E-016, 4.884981308350691100E-015, 5.000000000000000000 ) ) ;
#2 = DIRECTION ( 'NONE',  ( -0.0000000000000000000, -0.0000000000000000000, -1.000000000000000000 ) ) ;
#3 = CARTESIAN_POINT ( 'NONE',  ( 9.992007221626412800E-016, 4.884981308350691100E-015, 0.4537800002029109800 ) ) ;
#4 = DIRECTION ( 'NONE',  ( 0.0000000000000000000, 0.0000000000000000000, 1.000000000000000000 ) ) ;
#5 = VERTEX_POINT ( 'NONE', #163 ) ;
#6 =( BOUNDED_SURFACE ( )  B_SPLINE_SURFACE ( 3, 3, ( 
 ( #74, #70, #45, #88 ),
 ( #219, #183, #105, #56 ),
 ( #167, #25, #200, #233 ),
 ( #149, #148, #21, #55 ) ),
 .UNSPECIFIED., .F., .F., .F. ) 
 B_SPLINE_SURFACE_WITH_KNOTS ( ( 4, 4 ),
 ( 4, 4 ),
 ( 0.0000000000000000000, 1.000000000000000000 ),
 ( 0.0000000000000000000, 1.000000000000000000 ),
 .UNSPECIFIED. ) 
 GEOMETRIC_REPRESENTATION_ITEM ( )  RATIONAL_B_SPLINE_SURFACE ( (
 ( 1.000000000000000000, 0.9998923549928312400, 0.9998923549928312400, 1.000000000000000000),
 ( 0.9995643042506952000, 0.9994567061439985100, 0.9994567061439985100, 0.9995643042506952000),
 ( 0.9995643042506952000, 0.9994567061439985100, 0.9994567061439985100, 0.9995643042506952000),
 ( 1.000000000000000000, 0.9998923549928312400, 0.9998923549928312400, 1.000000000000000000) ) ) 
 REPRESENTATION_ITEM ( '' )  SURFACE ( )  );
#7 = APPROVAL_STATUS ( 'not_yet_approved' ) ;
#8 = APPLICATION_PROTOCOL_DEFINITION ( 'international standard', 'config_control_design', 1994, #28 ) ;
#9 = CIRCLE ( 'NONE', #94, 25.39999999999999900 ) ;
#10 = APPROVAL_STATUS ( 'not_yet_approved' ) ;
#11 = VERTEX_POINT ( 'NONE', #121 ) ;
#12 = CC_DESIGN_PERSON_AND_ORGANIZATION_ASSIGNMENT ( #16, #208, ( #209 ) ) ;
#13 = DATE_AND_TIME ( #161, #150 ) ;
#14 = SHAPE_DEFINITION_REPRESENTATION ( #122, #114 ) ;
#15 = EDGE_LOOP ( 'NONE', ( #152, #151, #126, #20, #83 ) ) ;
#16 = PERSON_AND_ORGANIZATION ( #176, #235 ) ;
#17 = CARTESIAN_POINT ( 'NONE',  ( -17.02696414989210200, 25.70466796187352900, 0.6177316650819045800 ) ) ;
#18 = AXIS2_PLACEMENT_3D ( 'NONE', #1, #129, #44 ) ;
#19 = CARTESIAN_POINT ( 'NONE',  ( 5.684341886080800200E-014, 5.684341886080800200E-014, 711.1000000000000200 ) ) ;
#20 = ORIENTED_EDGE ( 'NONE', *, *, #205, .T. ) ;
#21 = CARTESIAN_POINT ( 'NONE',  ( 17.02696414989196700, 25.70466796187353600, 0.6177316650818592800 ) ) ;
#22 =( NAMED_UNIT ( * ) SI_UNIT ( $, .STERADIAN. ) SOLID_ANGLE_UNIT ( ) );
#23 = CC_DESIGN_PERSON_AND_ORGANIZATION_ASSIGNMENT ( #95, #93, ( #209 ) ) ;
#24 = COORDINATED_UNIVERSAL_TIME_OFFSET ( 2, 0, .AHEAD. ) ;
#25 = CARTESIAN_POINT ( 'NONE',  ( 8.521594291633816100, 8.571957419368692000, -0.1549791474211050500 ) ) ;
#26 = PERSON_AND_ORGANIZATION_ROLE ( 'classification_officer' ) ;
#27 = APPROVAL_ROLE ( '' ) ;
#28 = APPLICATION_CONTEXT ( 'configuration controlled 3d designs of mechanical parts and assemblies' ) ;
#29 = FACE_OUTER_BOUND ( 'NONE', #35, .T. ) ;
#30 = PERSON_AND_ORGANIZATION ( #176, #235 ) ;
#31 = UNCERTAINTY_MEASURE_WITH_UNIT (LENGTH_MEASURE( 1.000000000000000100E-005 ), #89, 'distance_accuracy_value', 'NONE');
#32 = CC_DESIGN_DATE_AND_TIME_ASSIGNMENT ( #132, #130, ( #180 ) ) ;
#33 = CIRCLE ( 'NONE', #47, 25.39999999999999900 ) ;
#34 = CIRCLE ( 'NONE', #134, 25.39999999999999900 ) ;
#35 = EDGE_LOOP ( 'NONE', ( #62, #207 ) ) ;
#36 = CARTESIAN_POINT ( 'NONE',  ( -8.514169455820079300, -25.70466796187354000, 0.4647348709959859300 ) ) ;
#37 = CARTESIAN_POINT ( 'NONE',  ( -17.04181262264958000, -8.571957419368693800, -0.001848931504421489400 ) ) ;
#38 = CARTESIAN_POINT ( 'NONE',  ( 9.992007221626412800E-016, 4.884981308350691100E-015, 5.000000000000000000 ) ) ;
#39 = CARTESIAN_POINT ( 'NONE',  ( 0.0000000000000000000, 52.02000000000000300, 5.000000000000000000 ) ) ;
#40 = APPROVAL ( #10, 'UNSPECIFIED' ) ;
#41 = AXIS2_PLACEMENT_3D ( 'NONE', #19, #232, #120 ) ;
#42 = FACE_OUTER_BOUND ( 'NONE', #104, .T. ) ;
#43 = VERTEX_POINT ( 'NONE', #164 ) ;
#44 = DIRECTION ( 'NONE',  ( 1.000000000000000000, 0.0000000000000000000, 0.0000000000000000000 ) ) ;
#45 = CARTESIAN_POINT ( 'NONE',  ( 17.02696414989198500, -25.70466796187353300, 0.6177316650818592800 ) ) ;
#46 = CC_DESIGN_PERSON_AND_ORGANIZATION_ASSIGNMENT ( #157, #26, ( #65 ) ) ;
#47 = AXIS2_PLACEMENT_3D ( 'NONE', #72, #107, #184 ) ;
#48 = APPROVAL_PERSON_ORGANIZATION ( #189, #156, #206 ) ;
#49 = FACE_OUTER_BOUND ( 'NONE', #60, .T. ) ;
#50 = EDGE_CURVE ( 'NONE', #226, #174, #67, .T. ) ;
#51 = CARTESIAN_POINT ( 'NONE',  ( -8.514169455820093500, 25.70466796187352900, 0.4647348709959860900 ) ) ;
#52 = CARTESIAN_POINT ( 'NONE',  ( -17.02696414989208800, -25.70466796187354000, 0.6177316650819045800 ) ) ;
#53 = LOCAL_TIME ( 9, 37, 41.00000000000000000, #61 ) ;
#54 = ORIENTED_EDGE ( 'NONE', *, *, #50, .T. ) ;
#55 = CARTESIAN_POINT ( 'NONE',  ( 25.53563500267798500, 25.70466796187354000, 0.9236758452307277700 ) ) ;
#56 = CARTESIAN_POINT ( 'NONE',  ( 25.55790351615722500, -8.571957419368681400, 0.3043620492193167500 ) ) ;
#57 = CARTESIAN_POINT ( 'NONE',  ( 9.992007221626412800E-016, 4.884981308350691100E-015, 0.4537800002029109800 ) ) ;
#58 = APPROVAL_DATE_TIME ( #66, #229 ) ;
#59 = CYLINDRICAL_SURFACE ( 'NONE', #84, 25.39999999999999900 ) ;
#60 = EDGE_LOOP ( 'NONE', ( #64, #190, #199 ) ) ;
#61 = COORDINATED_UNIVERSAL_TIME_OFFSET ( 2, 0, .AHEAD. ) ;
#62 = ORIENTED_EDGE ( 'NONE', *, *, #225, .F. ) ;
#63 = FACE_OUTER_BOUND ( 'NONE', #15, .T. ) ;
#64 = ORIENTED_EDGE ( 'NONE', *, *, #123, .F. ) ;
#65 = SECURITY_CLASSIFICATION ( '', '', #112 ) ;
#66 = DATE_AND_TIME ( #116, #53 ) ;
#67 = LINE ( 'NONE', #144, #135 ) ;
#68 = CIRCLE ( 'NONE', #41, 711.1000000000000200 ) ;
#69 = DIRECTION ( 'NONE',  ( 0.0000000000000000000, 0.0000000000000000000, 1.000000000000000000 ) ) ;
#70 = CARTESIAN_POINT ( 'NONE',  ( 8.514169455820205500, -25.70466796187353300, 0.4647348709959666100 ) ) ;
#71 = DIRECTION ( 'NONE',  ( 1.000000000000000000, 0.0000000000000000000, -0.0000000000000000000 ) ) ;
#72 = CARTESIAN_POINT ( 'NONE',  ( 9.992007221626412800E-016, 4.884981308350691100E-015, 0.4537800002029109800 ) ) ;
#73 = APPROVAL_DATE_TIME ( #117, #156 ) ;
#74 = CARTESIAN_POINT ( 'NONE',  ( 2.660155287277802600E-013, -25.70466796187353600, 0.4647348709959642200 ) ) ;
#75 = PLANE ( 'NONE',  #198 ) ;
#76 = DIRECTION ( 'NONE',  ( 1.000000000000000000, 0.0000000000000000000, 0.0000000000000000000 ) ) ;
#77 = PERSON_AND_ORGANIZATION_ROLE ( 'creator' ) ;
#78 = ORIENTED_EDGE ( 'NONE', *, *, #192, .F. ) ;
#79 = PERSON_AND_ORGANIZATION ( #176, #235 ) ;
#80 = ADVANCED_FACE ( 'NONE', ( #185 ), #59, .T. ) ;
#81 = AXIS2_PLACEMENT_3D ( 'NONE', #57, #182, #92 ) ;
#82 = LOCAL_TIME ( 9, 37, 41.00000000000000000, #138 ) ;
#83 = ORIENTED_EDGE ( 'NONE', *, *, #225, .T. ) ;
#84 = AXIS2_PLACEMENT_3D ( 'NONE', #87, #69, #101 ) ;
#85 = CALENDAR_DATE ( 2019, 4, 1 ) ;
#86 = CARTESIAN_POINT ( 'NONE',  ( 7.632783294297951200E-014, 25.70466796187353300, 0.4647348709959864300 ) ) ;
#87 = CARTESIAN_POINT ( 'NONE',  ( 9.992007221626412800E-016, 4.884981308350691100E-015, 0.4537800002029109800 ) ) ;
#88 = CARTESIAN_POINT ( 'NONE',  ( 25.53563500267800300, -25.70466796187352900, 0.9236758452307277700 ) ) ;
#89 =( LENGTH_UNIT ( ) NAMED_UNIT ( * ) SI_UNIT ( .MILLI., .METRE. ) );
#90 = DIRECTION ( 'NONE',  ( 1.000000000000000000, 0.0000000000000000000, 0.0000000000000000000 ) ) ;
#91 = CC_DESIGN_DATE_AND_TIME_ASSIGNMENT ( #13, #131, ( #65 ) ) ;
#92 = DIRECTION ( 'NONE',  ( 1.000000000000000000, 0.0000000000000000000, 0.0000000000000000000 ) ) ;
#93 = PERSON_AND_ORGANIZATION_ROLE ( 'design_supplier' ) ;
#94 = AXIS2_PLACEMENT_3D ( 'NONE', #221, #2, #90 ) ;
#95 = PERSON_AND_ORGANIZATION ( #176, #235 ) ;
#96 = ADVANCED_FACE ( 'NONE', ( #49 ), #204, .T. ) ;
#97 = ORIENTED_EDGE ( 'NONE', *, *, #123, .T. ) ;
#98 = CIRCLE ( 'NONE', #81, 25.39999999999999900 ) ;
#99 = ORIENTED_EDGE ( 'NONE', *, *, #179, .F. ) ;
#100 = CC_DESIGN_APPROVAL ( #40, ( #65 ) ) ;
#101 = DIRECTION ( 'NONE',  ( 1.000000000000000000, 0.0000000000000000000, 0.0000000000000000000 ) ) ;
#102 = LOCAL_TIME ( 9, 37, 41.00000000000000000, #24 ) ;
#103 = CARTESIAN_POINT ( 'NONE',  ( -25.53563500267834700, 25.70466796187352500, 0.9236758452307869400 ) ) ;
#104 = EDGE_LOOP ( 'NONE', ( #118, #97, #165 ) ) ;
#105 = CARTESIAN_POINT ( 'NONE',  ( 17.04181262264946300, -8.571957419368686700, -0.001848931504466863500 ) ) ;
#106 = AXIS2_PLACEMENT_3D ( 'NONE', #147, #110, #127 ) ;
#107 = DIRECTION ( 'NONE',  ( -0.0000000000000000000, -0.0000000000000000000, -1.000000000000000000 ) ) ;
#108 = CARTESIAN_POINT ( 'NONE',  ( 25.39999999999999900, 4.884981308350691100E-015, 0.4537800002029109800 ) ) ;
#109 = COORDINATED_UNIVERSAL_TIME_OFFSET ( 2, 0, .AHEAD. ) ;
#110 = DIRECTION ( 'NONE',  ( 0.0000000000000000000, 0.0000000000000000000, 1.000000000000000000 ) ) ;
#111 = VERTEX_POINT ( 'NONE', #213 ) ;
#112 = SECURITY_CLASSIFICATION_LEVEL ( 'unclassified' ) ;
#113 = PERSON_AND_ORGANIZATION_ROLE ( 'design_owner' ) ;
#114 = ADVANCED_BREP_SHAPE_REPRESENTATION ( '110-5550E CaF2 pl-cx 50.8 F1700', ( #181, #128 ), #186 ) ;
#115 = CC_DESIGN_SECURITY_CLASSIFICATION ( #65, ( #209 ) ) ;
#116 = CALENDAR_DATE ( 2019, 4, 1 ) ;
#117 = DATE_AND_TIME ( #173, #82 ) ;
#118 = ORIENTED_EDGE ( 'NONE', *, *, #188, .T. ) ;
#119 = CARTESIAN_POINT ( 'NONE',  ( 9.020562075079396900E-014, -25.70466796187353600, 0.4647348709959862000 ) ) ;
#120 = DIRECTION ( 'NONE',  ( 3.269140878957342200E-016, -1.000000000000000000, -3.122551046618356100E-016 ) ) ;
#121 = CARTESIAN_POINT ( 'NONE',  ( 2.659190234523501100E-013, -25.40000000000029700, 0.4537800002029649900 ) ) ;
#122 = PRODUCT_DEFINITION_SHAPE ( 'NONE', 'NONE',  #180 ) ;
#123 = EDGE_CURVE ( 'NONE', #11, #111, #68, .T. ) ;
#124 = DIRECTION ( 'NONE',  ( 0.0000000000000000000, 0.0000000000000000000, 1.000000000000000000 ) ) ;
#125 = CYLINDRICAL_SURFACE ( 'NONE', #106, 25.39999999999999900 ) ;
#126 = ORIENTED_EDGE ( 'NONE', *, *, #188, .F. ) ;
#127 = DIRECTION ( 'NONE',  ( 1.000000000000000000, 0.0000000000000000000, 0.0000000000000000000 ) ) ;
#128 = AXIS2_PLACEMENT_3D ( 'NONE', #187, #4, #76 ) ;
#129 = DIRECTION ( 'NONE',  ( -0.0000000000000000000, -0.0000000000000000000, -1.000000000000000000 ) ) ;
#130 = DATE_TIME_ROLE ( 'creation_date' ) ;
#131 = DATE_TIME_ROLE ( 'classification_date' ) ;
#132 = DATE_AND_TIME ( #85, #168 ) ;
#133 = APPROVAL_ROLE ( '' ) ;
#134 = AXIS2_PLACEMENT_3D ( 'NONE', #38, #166, #201 ) ;
#135 = VECTOR ( 'NONE', #214, 1000.000000000000000 ) ;
#136 = PERSON_AND_ORGANIZATION ( #176, #235 ) ;
#137 = EDGE_CURVE ( 'NONE', #174, #43, #34, .T. ) ;
#138 = COORDINATED_UNIVERSAL_TIME_OFFSET ( 2, 0, .AHEAD. ) ;
#139 = DATE_AND_TIME ( #146, #102 ) ;
#140 = CARTESIAN_POINT ( 'NONE',  ( -25.53563500267833300, -25.70466796187354300, 0.9236758452307869400 ) ) ;
#141 = CC_DESIGN_PERSON_AND_ORGANIZATION_ASSIGNMENT ( #30, #77, ( #180 ) ) ;
#142 = CARTESIAN_POINT ( 'NONE',  ( -25.55790351615757300, 8.571957419368679600, 0.3043620492193787600 ) ) ;
#143 = PRODUCT_RELATED_PRODUCT_CATEGORY ( 'detail', '', ( #159 ) ) ;
#144 = CARTESIAN_POINT ( 'NONE',  ( -25.39999999999999900, 7.995584178184967200E-015, 0.4537800002029109800 ) ) ;
#145 = DIRECTION ( 'NONE',  ( 1.000000000000000000, 0.0000000000000000000, 0.0000000000000000000 ) ) ;
#146 = CALENDAR_DATE ( 2019, 4, 1 ) ;
#147 = CARTESIAN_POINT ( 'NONE',  ( 9.992007221626412800E-016, 4.884981308350691100E-015, 0.4537800002029109800 ) ) ;
#148 = CARTESIAN_POINT ( 'NONE',  ( 8.514169455820189500, 25.70466796187353600, 0.4647348709959666100 ) ) ;
#149 = CARTESIAN_POINT ( 'NONE',  ( 2.492090925649431000E-013, 25.70466796187353300, 0.4647348709959642200 ) ) ;
#150 = LOCAL_TIME ( 9, 37, 41.00000000000000000, #109 ) ;
#151 = ORIENTED_EDGE ( 'NONE', *, *, #153, .F. ) ;
#152 = ORIENTED_EDGE ( 'NONE', *, *, #50, .F. ) ;
#153 = EDGE_CURVE ( 'NONE', #11, #226, #33, .T. ) ;
#154 = APPLICATION_CONTEXT ( 'configuration controlled 3d designs of mechanical parts and assemblies' ) ;
#155 = DESIGN_CONTEXT ( 'detailed design', #154, 'design' ) ;
#156 = APPROVAL ( #224, 'UNSPECIFIED' ) ;
#157 = PERSON_AND_ORGANIZATION ( #176, #235 ) ;
#158 = ORIENTED_EDGE ( 'NONE', *, *, #137, .T. ) ;
#159 = PRODUCT ( '110-5550E CaF2 pl-cx 50.8 F1700', '110-5550E CaF2 pl-cx 50.8 F1700', '', ( #222 ) ) ;
#160 = CARTESIAN_POINT ( 'NONE',  ( 8.326672684688674100E-014, -8.571957419368688500, -0.1549791474210882000 ) ) ;
#161 = CALENDAR_DATE ( 2019, 4, 1 ) ;
#162 = CARTESIAN_POINT ( 'NONE',  ( -25.39999999999999900, 7.995584178184967200E-015, 5.000000000000000000 ) ) ;
#163 = CARTESIAN_POINT ( 'NONE',  ( 25.39999999999999900, 4.884981308350691100E-015, 0.4537800002029109800 ) ) ;
#164 = CARTESIAN_POINT ( 'NONE',  ( 25.39999999999999900, 4.884981308350691100E-015, 5.000000000000000000 ) ) ;
#165 = ORIENTED_EDGE ( 'NONE', *, *, #179, .T. ) ;
#166 = DIRECTION ( 'NONE',  ( -0.0000000000000000000, -0.0000000000000000000, -1.000000000000000000 ) ) ;
#167 = CARTESIAN_POINT ( 'NONE',  ( 2.549850987985690900E-013, 8.571957419368686700, -0.1549791474211075200 ) ) ;
#168 = LOCAL_TIME ( 9, 37, 41.00000000000000000, #178 ) ;
#169 = CARTESIAN_POINT ( 'NONE',  ( -25.39999999999999900, 7.995584178184967200E-015, 0.4537800002029109800 ) ) ;
#170 = CC_DESIGN_APPROVAL ( #229, ( #209 ) ) ;
#171 = EDGE_LOOP ( 'NONE', ( #78, #54, #158, #211, #99 ) ) ;
#172 = CC_DESIGN_PERSON_AND_ORGANIZATION_ASSIGNMENT ( #136, #113, ( #159 ) ) ;
#173 = CALENDAR_DATE ( 2019, 4, 1 ) ;
#174 = VERTEX_POINT ( 'NONE', #162 ) ;
#175 = ADVANCED_FACE ( 'NONE', ( #29 ), #75, .T. ) ;
#176 = PERSON ( 'UNSPECIFIED', 'UNSPECIFIED', 'UNSPECIFIED', ('UNSPECIFIED'), ('UNSPECIFIED'), ('UNSPECIFIED') ) ;
#177 = CLOSED_SHELL ( 'NONE', ( #227, #80, #96, #195, #175 ) ) ;
#178 = COORDINATED_UNIVERSAL_TIME_OFFSET ( 2, 0, .AHEAD. ) ;
#179 = EDGE_CURVE ( 'NONE', #111, #5, #98, .T. ) ;
#180 = PRODUCT_DEFINITION ( 'UNKNOWN', '', #209, #155 ) ;
#181 = MANIFOLD_SOLID_BREP ( 'Imported1', #177 ) ;
#182 = DIRECTION ( 'NONE',  ( -0.0000000000000000000, -0.0000000000000000000, -1.000000000000000000 ) ) ;
#183 = CARTESIAN_POINT ( 'NONE',  ( 8.521594291633819700, -8.571957419368688500, -0.1549791474211077700 ) ) ;
#184 = DIRECTION ( 'NONE',  ( 1.000000000000000000, 0.0000000000000000000, 0.0000000000000000000 ) ) ;
#185 = FACE_OUTER_BOUND ( 'NONE', #171, .T. ) ;
#186 =( GEOMETRIC_REPRESENTATION_CONTEXT ( 3 ) GLOBAL_UNCERTAINTY_ASSIGNED_CONTEXT ( ( #31 ) ) GLOBAL_UNIT_ASSIGNED_CONTEXT ( ( #89, #220, #22 ) ) REPRESENTATION_CONTEXT ( 'NONE', 'WORKASPACE' ) );
#187 = CARTESIAN_POINT ( 'NONE',  ( 0.0000000000000000000, 0.0000000000000000000, 0.0000000000000000000 ) ) ;
#188 = EDGE_CURVE ( 'NONE', #5, #11, #9, .T. ) ;
#189 = PERSON_AND_ORGANIZATION ( #176, #235 ) ;
#190 = ORIENTED_EDGE ( 'NONE', *, *, #153, .T. ) ;
#191 = AXIS2_PLACEMENT_3D ( 'NONE', #3, #203, #145 ) ;
#192 = EDGE_CURVE ( 'NONE', #226, #111, #216, .T. ) ;
#193 = LINE ( 'NONE', #108, #228 ) ;
#194 = CC_DESIGN_APPROVAL ( #156, ( #180 ) ) ;
#195 = ADVANCED_FACE ( 'NONE', ( #63 ), #125, .T. ) ;
#196 = CARTESIAN_POINT ( 'NONE',  ( -25.55790351615757300, -8.571957419368697400, 0.3043620492193760400 ) ) ;
#197 = APPROVAL_PERSON_ORGANIZATION ( #79, #229, #27 ) ;
#198 = AXIS2_PLACEMENT_3D ( 'NONE', #39, #234, #71 ) ;
#199 = ORIENTED_EDGE ( 'NONE', *, *, #192, .T. ) ;
#200 = CARTESIAN_POINT ( 'NONE',  ( 17.04181262264945600, 8.571957419368692000, -0.001848931504464098800 ) ) ;
#201 = DIRECTION ( 'NONE',  ( 1.000000000000000000, 0.0000000000000000000, 0.0000000000000000000 ) ) ;
#202 = APPROVAL_PERSON_ORGANIZATION ( #210, #40, #133 ) ;
#203 = DIRECTION ( 'NONE',  ( -0.0000000000000000000, -0.0000000000000000000, -1.000000000000000000 ) ) ;
#204 =( BOUNDED_SURFACE ( )  B_SPLINE_SURFACE ( 3, 3, ( 
 ( #140, #52, #36, #119 ),
 ( #196, #37, #231, #160 ),
 ( #142, #230, #215, #218 ),
 ( #103, #17, #51, #86 ) ),
 .UNSPECIFIED., .F., .F., .F. ) 
 B_SPLINE_SURFACE_WITH_KNOTS ( ( 4, 4 ),
 ( 4, 4 ),
 ( 0.0000000000000000000, 1.000000000000000000 ),
 ( 0.0000000000000000000, 1.000000000000000000 ),
 .UNSPECIFIED. ) 
 GEOMETRIC_REPRESENTATION_ITEM ( )  RATIONAL_B_SPLINE_SURFACE ( (
 ( 1.000000000000000000, 0.9998923549928312400, 0.9998923549928312400, 1.000000000000000000),
 ( 0.9995643042506952000, 0.9994567061439985100, 0.9994567061439985100, 0.9995643042506952000),
 ( 0.9995643042506952000, 0.9994567061439985100, 0.9994567061439985100, 0.9995643042506952000),
 ( 1.000000000000000000, 0.9998923549928312400, 0.9998923549928312400, 1.000000000000000000) ) ) 
 REPRESENTATION_ITEM ( '' )  SURFACE ( )  );
#205 = EDGE_CURVE ( 'NONE', #5, #43, #193, .T. ) ;
#206 = APPROVAL_ROLE ( '' ) ;
#207 = ORIENTED_EDGE ( 'NONE', *, *, #137, .F. ) ;
#208 = PERSON_AND_ORGANIZATION_ROLE ( 'creator' ) ;
#209 = PRODUCT_DEFINITION_FORMATION_WITH_SPECIFIED_SOURCE ( 'ANY', '', #159, .NOT_KNOWN. ) ;
#210 = PERSON_AND_ORGANIZATION ( #176, #235 ) ;
#211 = ORIENTED_EDGE ( 'NONE', *, *, #205, .F. ) ;
#212 = CIRCLE ( 'NONE', #18, 25.39999999999999900 ) ;
#213 = CARTESIAN_POINT ( 'NONE',  ( 2.493117877872465400E-013, 25.40000000000036100, 0.4537800002029649900 ) ) ;
#214 = DIRECTION ( 'NONE',  ( 0.0000000000000000000, 0.0000000000000000000, 1.000000000000000000 ) ) ;
#215 = CARTESIAN_POINT ( 'NONE',  ( -8.521594291633706000, 8.571957419368686700, -0.1549791474210856500 ) ) ;
#216 = CIRCLE ( 'NONE', #191, 25.39999999999999900 ) ;
#217 = APPROVAL_DATE_TIME ( #139, #40 ) ;
#218 = CARTESIAN_POINT ( 'NONE',  ( 8.326672684688674100E-014, 8.571957419368688500, -0.1549791474210852900 ) ) ;
#219 = CARTESIAN_POINT ( 'NONE',  ( 2.605896860810371700E-013, -8.571957419368690300, -0.1549791474211102400 ) ) ;
#220 =( NAMED_UNIT ( * ) PLANE_ANGLE_UNIT ( ) SI_UNIT ( $, .RADIAN. ) );
#221 = CARTESIAN_POINT ( 'NONE',  ( 9.992007221626412800E-016, 4.884981308350691100E-015, 0.4537800002029109800 ) ) ;
#222 = MECHANICAL_CONTEXT ( 'NONE', #28, 'mechanical' ) ;
#223 = APPLICATION_PROTOCOL_DEFINITION ( 'international standard', 'config_control_design', 1994, #154 ) ;
#224 = APPROVAL_STATUS ( 'not_yet_approved' ) ;
#225 = EDGE_CURVE ( 'NONE', #43, #174, #212, .T. ) ;
#226 = VERTEX_POINT ( 'NONE', #169 ) ;
#227 = ADVANCED_FACE ( 'NONE', ( #42 ), #6, .T. ) ;
#228 = VECTOR ( 'NONE', #124, 1000.000000000000000 ) ;
#229 = APPROVAL ( #7, 'UNSPECIFIED' ) ;
#230 = CARTESIAN_POINT ( 'NONE',  ( -17.04181262264958000, 8.571957419368684900, -0.001848931504418724500 ) ) ;
#231 = CARTESIAN_POINT ( 'NONE',  ( -8.521594291633706000, -8.571957419368692000, -0.1549791474210884800 ) ) ;
#232 = DIRECTION ( 'NONE',  ( 1.000000000000000000, 3.269140878957340200E-016, 2.825203049121230100E-016 ) ) ;
#233 = CARTESIAN_POINT ( 'NONE',  ( 25.55790351615722100, 8.571957419368695600, 0.3043620492193194700 ) ) ;
#234 = DIRECTION ( 'NONE',  ( 0.0000000000000000000, 0.0000000000000000000, 1.000000000000000000 ) ) ;
#235 = ORGANIZATION ( 'UNSPECIFIED', 'UNSPECIFIED', '' ) ;
ENDSEC;
END-ISO-10303-21;
