ISO-10303-21;
HEADER;
FILE_DESCRIPTION (( 'STEP AP203' ),
    '1' );
FILE_NAME ('110-5545E CaF2 pl-cx 50.8 F1500.STEP',
    '2019-01-04T06:50:58',
    ( '' ),
    ( '' ),
    'SwSTEP 2.0',
    'SolidWorks 2017',
    '' );
FILE_SCHEMA (( 'CONFIG_CONTROL_DESIGN' ));
ENDSEC;

DATA;
#1 = PLANE ( 'NONE',  #162 ) ;
#2 = PRODUCT_DEFINITION_FORMATION_WITH_SPECIFIED_SOURCE ( 'ANY', '', #82, .NOT_KNOWN. ) ;
#3 =( BOUNDED_SURFACE ( )  B_SPLINE_SURFACE ( 3, 3, ( 
 ( #35, #96, #40, #13 ),
 ( #38, #205, #148, #15 ),
 ( #62, #133, #216, #93 ),
 ( #165, #56, #189, #63 ) ),
 .UNSPECIFIED., .F., .F., .T. ) 
 B_SPLINE_SURFACE_WITH_KNOTS ( ( 4, 4 ),
 ( 4, 4 ),
 ( 0.0000000000000000000, 1.000000000000000000 ),
 ( 0.0000000000000000000, 1.000000000000000000 ),
 .UNSPECIFIED. ) 
 GEOMETRIC_REPRESENTATION_ITEM ( )  RATIONAL_B_SPLINE_SURFACE ( (
 ( 1.000000000000000000, 0.9998617021222139200, 0.9998617021222139200, 1.000000000000000000),
 ( 0.9994402490965186300, 0.9993020286310946300, 0.9993020286310946300, 0.9994402490965186300),
 ( 0.9994402490965186300, 0.9993020286310946300, 0.9993020286310946300, 0.9994402490965186300),
 ( 1.000000000000000000, 0.9998617021222139200, 0.9998617021222139200, 1.000000000000000000) ) ) 
 REPRESENTATION_ITEM ( '' )  SURFACE ( )  );
#4 = CALENDAR_DATE ( 2019, 4, 1 ) ;
#5 = DATE_AND_TIME ( #59, #157 ) ;
#6 = FACE_OUTER_BOUND ( 'NONE', #193, .T. ) ;
#7 = APPLICATION_CONTEXT ( 'configuration controlled 3d designs of mechanical parts and assemblies' ) ;
#8 = APPROVAL_ROLE ( '' ) ;
#9 =( NAMED_UNIT ( * ) SI_UNIT ( $, .STERADIAN. ) SOLID_ANGLE_UNIT ( ) );
#10 = LOCAL_TIME ( 8, 50, 58.00000000000000000, #164 ) ;
#11 = UNCERTAINTY_MEASURE_WITH_UNIT (LENGTH_MEASURE( 1.000000000000000100E-005 ), #87, 'distance_accuracy_value', 'NONE');
#12 = APPROVAL_DATE_TIME ( #73, #54 ) ;
#13 = CARTESIAN_POINT ( 'NONE',  ( -2.081668171172168500E-013, -25.70463035750870900, 0.5267815752664389800 ) ) ;
#14 = EDGE_CURVE ( 'NONE', #114, #48, #39, .T. ) ;
#15 = CARTESIAN_POINT ( 'NONE',  ( -2.081668171172168000E-013, -8.573008868629349500, -0.1756922022909756800 ) ) ;
#16 = COORDINATED_UNIVERSAL_TIME_OFFSET ( 2, 0, .AHEAD. ) ;
#17 = FACE_OUTER_BOUND ( 'NONE', #21, .T. ) ;
#18 = CARTESIAN_POINT ( 'NONE',  ( 8.522770259504412100, -8.573008868629351300, -0.1756922022909930800 ) ) ;
#19 = AXIS2_PLACEMENT_3D ( 'NONE', #79, #195, #198 ) ;
#20 = PERSON_AND_ORGANIZATION ( #23, #84 ) ;
#21 = EDGE_LOOP ( 'NONE', ( #199, #215 ) ) ;
#22 = CARTESIAN_POINT ( 'NONE',  ( 9.992007221626412800E-016, 4.884981308350691100E-015, 0.5143644970001359800 ) ) ;
#23 = PERSON ( 'UNSPECIFIED', 'UNSPECIFIED', 'UNSPECIFIED', ('UNSPECIFIED'), ('UNSPECIFIED'), ('UNSPECIFIED') ) ;
#24 = AXIS2_PLACEMENT_3D ( 'NONE', #119, #226, #138 ) ;
#25 = ORIENTED_EDGE ( 'NONE', *, *, #30, .T. ) ;
#26 = DATE_TIME_ROLE ( 'creation_date' ) ;
#27 = APPROVAL_ROLE ( '' ) ;
#28 = EDGE_LOOP ( 'NONE', ( #180, #118, #132 ) ) ;
#29 = ADVANCED_FACE ( 'NONE', ( #225 ), #3, .T. ) ;
#30 = EDGE_CURVE ( 'NONE', #111, #114, #85, .T. ) ;
#31 = DESIGN_CONTEXT ( 'detailed design', #7, 'design' ) ;
#32 = EDGE_CURVE ( 'NONE', #98, #131, #120, .T. ) ;
#33 = LOCAL_TIME ( 8, 50, 58.00000000000000000, #135 ) ;
#34 = ORIENTED_EDGE ( 'NONE', *, *, #112, .T. ) ;
#35 = CARTESIAN_POINT ( 'NONE',  ( -25.53086153511570800, -25.70463035750870900, 1.046899035808679400 ) ) ;
#36 = DIRECTION ( 'NONE',  ( 0.0000000000000000000, 0.0000000000000000000, 1.000000000000000000 ) ) ;
#37 = PERSON_AND_ORGANIZATION ( #23, #84 ) ;
#38 = CARTESIAN_POINT ( 'NONE',  ( -25.55947140425628600, -8.573008868629349500, 0.3450081015863154000 ) ) ;
#39 = CIRCLE ( 'NONE', #122, 25.39999999999999900 ) ;
#40 = CARTESIAN_POINT ( 'NONE',  ( -8.513230338354350800, -25.70463035750870900, 0.5267815752664409800 ) ) ;
#41 = AXIS2_PLACEMENT_3D ( 'NONE', #43, #174, #220 ) ;
#42 = CARTESIAN_POINT ( 'NONE',  ( 17.02469463417496300, -25.70463035750870900, 0.7001780424772420200 ) ) ;
#43 = CARTESIAN_POINT ( 'NONE',  ( 9.992007221626412800E-016, 4.884981308350691100E-015, 5.000000000000000000 ) ) ;
#44 = FACE_OUTER_BOUND ( 'NONE', #28, .T. ) ;
#45 = CARTESIAN_POINT ( 'NONE',  ( 8.513230338354123500, 25.70463035750868700, 0.5267815752663108600 ) ) ;
#46 = CARTESIAN_POINT ( 'NONE',  ( 25.39999999999999900, 4.884981308350691100E-015, 0.5143644970001359800 ) ) ;
#47 = DIRECTION ( 'NONE',  ( 0.0000000000000000000, -1.000000000000000000, -7.078246889545148300E-016 ) ) ;
#48 = VERTEX_POINT ( 'NONE', #167 ) ;
#49 = EDGE_CURVE ( 'NONE', #111, #90, #171, .T. ) ;
#50 = SECURITY_CLASSIFICATION_LEVEL ( 'unclassified' ) ;
#51 = DIRECTION ( 'NONE',  ( 1.000000000000000000, 0.0000000000000000000, 0.0000000000000000000 ) ) ;
#52 = COORDINATED_UNIVERSAL_TIME_OFFSET ( 2, 0, .AHEAD. ) ;
#53 = SECURITY_CLASSIFICATION ( '', '', #50 ) ;
#54 = APPROVAL ( #141, 'UNSPECIFIED' ) ;
#55 = VECTOR ( 'NONE', #177, 1000.000000000000000 ) ;
#56 = CARTESIAN_POINT ( 'NONE',  ( -17.02469463417515500, 25.70463035750868700, 0.7001780424771841800 ) ) ;
#57 = CARTESIAN_POINT ( 'NONE',  ( -5.684341886080800200E-014, 25.40000000000033300, 0.5143644970001443100 ) ) ;
#58 = PERSON_AND_ORGANIZATION ( #23, #84 ) ;
#59 = CALENDAR_DATE ( 2019, 4, 1 ) ;
#60 =( GEOMETRIC_REPRESENTATION_CONTEXT ( 3 ) GLOBAL_UNCERTAINTY_ASSIGNED_CONTEXT ( ( #11 ) ) GLOBAL_UNIT_ASSIGNED_CONTEXT ( ( #87, #142, #9 ) ) REPRESENTATION_CONTEXT ( 'NONE', 'WORKASPACE' ) );
#61 = ADVANCED_BREP_SHAPE_REPRESENTATION ( '110-5545E CaF2 pl-cx 50.8 F1500', ( #144, #77 ), #60 ) ;
#62 = CARTESIAN_POINT ( 'NONE',  ( -25.55947140425628600, 8.573008868629326400, 0.3450081015862048200 ) ) ;
#63 = CARTESIAN_POINT ( 'NONE',  ( -2.046973701652632400E-013, 25.70463035750868700, 0.5267815752663279600 ) ) ;
#64 = COORDINATED_UNIVERSAL_TIME_OFFSET ( 2, 0, .AHEAD. ) ;
#65 = AXIS2_PLACEMENT_3D ( 'NONE', #116, #235, #47 ) ;
#66 = APPROVAL_DATE_TIME ( #155, #146 ) ;
#67 = CC_DESIGN_PERSON_AND_ORGANIZATION_ASSIGNMENT ( #20, #200, ( #2 ) ) ;
#68 = ORIENTED_EDGE ( 'NONE', *, *, #49, .F. ) ;
#69 = DIRECTION ( 'NONE',  ( 0.0000000000000000000, 0.0000000000000000000, 1.000000000000000000 ) ) ;
#70 = ADVANCED_FACE ( 'NONE', ( #44 ), #71, .T. ) ;
#71 =( BOUNDED_SURFACE ( )  B_SPLINE_SURFACE ( 3, 3, ( 
 ( #80, #222, #42, #208 ),
 ( #153, #18, #172, #209 ),
 ( #207, #115, #103, #154 ),
 ( #223, #45, #78, #190 ) ),
 .UNSPECIFIED., .F., .F., .F. ) 
 B_SPLINE_SURFACE_WITH_KNOTS ( ( 4, 4 ),
 ( 4, 4 ),
 ( 0.0000000000000000000, 1.000000000000000000 ),
 ( 0.0000000000000000000, 1.000000000000000000 ),
 .UNSPECIFIED. ) 
 GEOMETRIC_REPRESENTATION_ITEM ( )  RATIONAL_B_SPLINE_SURFACE ( (
 ( 1.000000000000000000, 0.9998617021222139200, 0.9998617021222139200, 1.000000000000000000),
 ( 0.9994402490965186300, 0.9993020286310946300, 0.9993020286310946300, 0.9994402490965186300),
 ( 0.9994402490965186300, 0.9993020286310946300, 0.9993020286310946300, 0.9994402490965186300),
 ( 1.000000000000000000, 0.9998617021222139200, 0.9998617021222139200, 1.000000000000000000) ) ) 
 REPRESENTATION_ITEM ( '' )  SURFACE ( )  );
#72 = CALENDAR_DATE ( 2019, 4, 1 ) ;
#73 = DATE_AND_TIME ( #196, #140 ) ;
#74 = CIRCLE ( 'NONE', #24, 25.39999999999999900 ) ;
#75 = CC_DESIGN_APPROVAL ( #54, ( #168 ) ) ;
#76 = APPROVAL_DATE_TIME ( #186, #166 ) ;
#77 = AXIS2_PLACEMENT_3D ( 'NONE', #86, #101, #51 ) ;
#78 = CARTESIAN_POINT ( 'NONE',  ( 17.02469463417497100, 25.70463035750868700, 0.7001780424771307800 ) ) ;
#79 = CARTESIAN_POINT ( 'NONE',  ( 9.992007221626412800E-016, 4.884981308350691100E-015, 0.5143644970001359800 ) ) ;
#80 = CARTESIAN_POINT ( 'NONE',  ( -5.684341886080800200E-014, -25.70463035750870900, 0.5267815752664217800 ) ) ;
#81 = EDGE_LOOP ( 'NONE', ( #68, #25, #213, #214, #129 ) ) ;
#82 = PRODUCT ( '110-5545E CaF2 pl-cx 50.8 F1500', '110-5545E CaF2 pl-cx 50.8 F1500', '', ( #128 ) ) ;
#83 = AXIS2_PLACEMENT_3D ( 'NONE', #134, #136, #99 ) ;
#84 = ORGANIZATION ( 'UNSPECIFIED', 'UNSPECIFIED', '' ) ;
#85 = LINE ( 'NONE', #94, #106 ) ;
#86 = CARTESIAN_POINT ( 'NONE',  ( 0.0000000000000000000, 0.0000000000000000000, 0.0000000000000000000 ) ) ;
#87 =( LENGTH_UNIT ( ) NAMED_UNIT ( * ) SI_UNIT ( .MILLI., .METRE. ) );
#88 = CIRCLE ( 'NONE', #191, 25.39999999999999900 ) ;
#89 = PERSON_AND_ORGANIZATION ( #23, #84 ) ;
#90 = VERTEX_POINT ( 'NONE', #57 ) ;
#91 = CC_DESIGN_PERSON_AND_ORGANIZATION_ASSIGNMENT ( #37, #212, ( #168 ) ) ;
#92 = ORIENTED_EDGE ( 'NONE', *, *, #113, .T. ) ;
#93 = CARTESIAN_POINT ( 'NONE',  ( -2.046973701652632100E-013, 8.573008868629326400, -0.1756922022910861700 ) ) ;
#94 = CARTESIAN_POINT ( 'NONE',  ( -25.39999999999999900, 7.995584178184967200E-015, 0.5143644970001359800 ) ) ;
#95 = PERSON_AND_ORGANIZATION ( #23, #84 ) ;
#96 = CARTESIAN_POINT ( 'NONE',  ( -17.02469463417515500, -25.70463035750870900, 0.7001780424772953100 ) ) ;
#97 = CC_DESIGN_PERSON_AND_ORGANIZATION_ASSIGNMENT ( #100, #121, ( #82 ) ) ;
#98 = VERTEX_POINT ( 'NONE', #219 ) ;
#99 = DIRECTION ( 'NONE',  ( 1.000000000000000000, 8.881784197001252300E-016, 0.0000000000000000000 ) ) ;
#100 = PERSON_AND_ORGANIZATION ( #23, #84 ) ;
#101 = DIRECTION ( 'NONE',  ( 0.0000000000000000000, 0.0000000000000000000, 1.000000000000000000 ) ) ;
#102 = DIRECTION ( 'NONE',  ( 1.000000000000000000, 0.0000000000000000000, -0.0000000000000000000 ) ) ;
#103 = CARTESIAN_POINT ( 'NONE',  ( 17.04377249744926500, 8.573008868629328200, -0.002101427096218267600 ) ) ;
#104 = AXIS2_PLACEMENT_3D ( 'NONE', #234, #149, #150 ) ;
#105 = APPROVAL_PERSON_ORGANIZATION ( #89, #54, #27 ) ;
#106 = VECTOR ( 'NONE', #36, 1000.000000000000000 ) ;
#107 = APPROVAL_ROLE ( '' ) ;
#108 = DIRECTION ( 'NONE',  ( 1.000000000000000000, -8.881784197001252300E-016, 0.0000000000000000000 ) ) ;
#109 = CC_DESIGN_APPROVAL ( #146, ( #53 ) ) ;
#110 = CC_DESIGN_PERSON_AND_ORGANIZATION_ASSIGNMENT ( #175, #159, ( #2 ) ) ;
#111 = VERTEX_POINT ( 'NONE', #192 ) ;
#112 = EDGE_CURVE ( 'NONE', #131, #111, #74, .T. ) ;
#113 = EDGE_CURVE ( 'NONE', #48, #114, #158, .T. ) ;
#114 = VERTEX_POINT ( 'NONE', #217 ) ;
#115 = CARTESIAN_POINT ( 'NONE',  ( 8.522770259504412100, 8.573008868629328200, -0.1756922022911035200 ) ) ;
#116 = CARTESIAN_POINT ( 'NONE',  ( -5.684341886080800200E-014, 0.0000000000000000000, 627.3999999999999800 ) ) ;
#117 = APPROVAL_PERSON_ORGANIZATION ( #58, #146, #8 ) ;
#118 = ORIENTED_EDGE ( 'NONE', *, *, #130, .T. ) ;
#119 = CARTESIAN_POINT ( 'NONE',  ( 9.992007221626412800E-016, 4.884981308350691100E-015, 0.5143644970001359800 ) ) ;
#120 = CIRCLE ( 'NONE', #104, 25.39999999999999900 ) ;
#121 = PERSON_AND_ORGANIZATION_ROLE ( 'design_owner' ) ;
#122 = AXIS2_PLACEMENT_3D ( 'NONE', #170, #163, #188 ) ;
#123 = PERSON_AND_ORGANIZATION_ROLE ( 'classification_officer' ) ;
#124 = CALENDAR_DATE ( 2019, 4, 1 ) ;
#125 = CLOSED_SHELL ( 'NONE', ( #70, #201, #29, #182, #179 ) ) ;
#126 = DIRECTION ( 'NONE',  ( -0.0000000000000000000, -0.0000000000000000000, -1.000000000000000000 ) ) ;
#127 = AXIS2_PLACEMENT_3D ( 'NONE', #22, #69, #194 ) ;
#128 = MECHANICAL_CONTEXT ( 'NONE', #183, 'mechanical' ) ;
#129 = ORIENTED_EDGE ( 'NONE', *, *, #232, .F. ) ;
#130 = EDGE_CURVE ( 'NONE', #131, #90, #185, .T. ) ;
#131 = VERTEX_POINT ( 'NONE', #156 ) ;
#132 = ORIENTED_EDGE ( 'NONE', *, *, #232, .T. ) ;
#133 = CARTESIAN_POINT ( 'NONE',  ( -17.04377249744945600, 8.573008868629328200, -0.002101427096164816500 ) ) ;
#134 = CARTESIAN_POINT ( 'NONE',  ( 9.992007221626412800E-016, 4.884981308350691100E-015, 0.5143644970001359800 ) ) ;
#135 = COORDINATED_UNIVERSAL_TIME_OFFSET ( 2, 0, .AHEAD. ) ;
#136 = DIRECTION ( 'NONE',  ( -0.0000000000000000000, -0.0000000000000000000, -1.000000000000000000 ) ) ;
#137 = LINE ( 'NONE', #46, #55 ) ;
#138 = DIRECTION ( 'NONE',  ( 1.000000000000000000, 8.881784197001252300E-016, 0.0000000000000000000 ) ) ;
#139 = ORIENTED_EDGE ( 'NONE', *, *, #32, .F. ) ;
#140 = LOCAL_TIME ( 8, 50, 58.00000000000000000, #64 ) ;
#141 = APPROVAL_STATUS ( 'not_yet_approved' ) ;
#142 =( NAMED_UNIT ( * ) PLANE_ANGLE_UNIT ( ) SI_UNIT ( $, .RADIAN. ) );
#143 = APPROVAL_STATUS ( 'not_yet_approved' ) ;
#144 = MANIFOLD_SOLID_BREP ( 'Imported1', #125 ) ;
#145 = ORIENTED_EDGE ( 'NONE', *, *, #197, .T. ) ;
#146 = APPROVAL ( #143, 'UNSPECIFIED' ) ;
#147 = LOCAL_TIME ( 8, 50, 58.00000000000000000, #52 ) ;
#148 = CARTESIAN_POINT ( 'NONE',  ( -8.522770259504641300, -8.573008868629351300, -0.1756922022909736800 ) ) ;
#149 = DIRECTION ( 'NONE',  ( -0.0000000000000000000, -0.0000000000000000000, -1.000000000000000000 ) ) ;
#150 = DIRECTION ( 'NONE',  ( 1.000000000000000000, 0.0000000000000000000, 0.0000000000000000000 ) ) ;
#151 = CC_DESIGN_DATE_AND_TIME_ASSIGNMENT ( #5, #26, ( #168 ) ) ;
#152 = ORIENTED_EDGE ( 'NONE', *, *, #112, .F. ) ;
#153 = CARTESIAN_POINT ( 'NONE',  ( -5.684341886080800200E-014, -8.573008868629349500, -0.1756922022909930300 ) ) ;
#154 = CARTESIAN_POINT ( 'NONE',  ( 25.55947140425613600, 8.573008868629326400, 0.3450081015861521400 ) ) ;
#155 = DATE_AND_TIME ( #72, #33 ) ;
#156 = CARTESIAN_POINT ( 'NONE',  ( -5.684341886080800200E-014, -25.40000000000032500, 0.5143644970001443100 ) ) ;
#157 = LOCAL_TIME ( 8, 50, 58.00000000000000000, #16 ) ;
#158 = CIRCLE ( 'NONE', #41, 25.39999999999999900 ) ;
#159 = PERSON_AND_ORGANIZATION_ROLE ( 'design_supplier' ) ;
#160 = APPLICATION_PROTOCOL_DEFINITION ( 'international standard', 'config_control_design', 1994, #7 ) ;
#161 = APPLICATION_PROTOCOL_DEFINITION ( 'international standard', 'config_control_design', 1994, #183 ) ;
#162 = AXIS2_PLACEMENT_3D ( 'NONE', #173, #178, #102 ) ;
#163 = DIRECTION ( 'NONE',  ( -0.0000000000000000000, -0.0000000000000000000, -1.000000000000000000 ) ) ;
#164 = COORDINATED_UNIVERSAL_TIME_OFFSET ( 2, 0, .AHEAD. ) ;
#165 = CARTESIAN_POINT ( 'NONE',  ( -25.53086153511571200, 25.70463035750868700, 1.046899035808568400 ) ) ;
#166 = APPROVAL ( #229, 'UNSPECIFIED' ) ;
#167 = CARTESIAN_POINT ( 'NONE',  ( 25.39999999999999900, 4.884981308350691100E-015, 5.000000000000000000 ) ) ;
#168 = PRODUCT_DEFINITION ( 'UNKNOWN', '', #2, #31 ) ;
#169 = PRODUCT_DEFINITION_SHAPE ( 'NONE', 'NONE',  #168 ) ;
#170 = CARTESIAN_POINT ( 'NONE',  ( 9.992007221626412800E-016, 4.884981308350691100E-015, 5.000000000000000000 ) ) ;
#171 = CIRCLE ( 'NONE', #83, 25.39999999999999900 ) ;
#172 = CARTESIAN_POINT ( 'NONE',  ( 17.04377249744926100, -8.573008868629351300, -0.002101427096107841600 ) ) ;
#173 = CARTESIAN_POINT ( 'NONE',  ( 0.0000000000000000000, 52.02000000000000300, 5.000000000000000000 ) ) ;
#174 = DIRECTION ( 'NONE',  ( -0.0000000000000000000, -0.0000000000000000000, -1.000000000000000000 ) ) ;
#175 = PERSON_AND_ORGANIZATION ( #23, #84 ) ;
#176 = ORIENTED_EDGE ( 'NONE', *, *, #49, .T. ) ;
#177 = DIRECTION ( 'NONE',  ( 0.0000000000000000000, 0.0000000000000000000, 1.000000000000000000 ) ) ;
#178 = DIRECTION ( 'NONE',  ( 0.0000000000000000000, 0.0000000000000000000, 1.000000000000000000 ) ) ;
#179 = ADVANCED_FACE ( 'NONE', ( #17 ), #1, .T. ) ;
#180 = ORIENTED_EDGE ( 'NONE', *, *, #32, .T. ) ;
#181 = DATE_TIME_ROLE ( 'classification_date' ) ;
#182 = ADVANCED_FACE ( 'NONE', ( #6 ), #233, .T. ) ;
#183 = APPLICATION_CONTEXT ( 'configuration controlled 3d designs of mechanical parts and assemblies' ) ;
#184 = CC_DESIGN_PERSON_AND_ORGANIZATION_ASSIGNMENT ( #202, #123, ( #53 ) ) ;
#185 = CIRCLE ( 'NONE', #65, 627.3999999999999800 ) ;
#186 = DATE_AND_TIME ( #4, #10 ) ;
#187 = SHAPE_DEFINITION_REPRESENTATION ( #169, #61 ) ;
#188 = DIRECTION ( 'NONE',  ( 1.000000000000000000, 0.0000000000000000000, 0.0000000000000000000 ) ) ;
#189 = CARTESIAN_POINT ( 'NONE',  ( -8.513230338354349100, 25.70463035750868700, 0.5267815752663301800 ) ) ;
#190 = CARTESIAN_POINT ( 'NONE',  ( 25.53086153511555900, 25.70463035750868700, 1.046899035808516000 ) ) ;
#191 = AXIS2_PLACEMENT_3D ( 'NONE', #231, #126, #108 ) ;
#192 = CARTESIAN_POINT ( 'NONE',  ( -25.39999999999999900, 7.995584178184967200E-015, 0.5143644970001359800 ) ) ;
#193 = EDGE_LOOP ( 'NONE', ( #218, #152, #139, #145, #92 ) ) ;
#194 = DIRECTION ( 'NONE',  ( 1.000000000000000000, 0.0000000000000000000, 0.0000000000000000000 ) ) ;
#195 = DIRECTION ( 'NONE',  ( 0.0000000000000000000, 0.0000000000000000000, 1.000000000000000000 ) ) ;
#196 = CALENDAR_DATE ( 2019, 4, 1 ) ;
#197 = EDGE_CURVE ( 'NONE', #98, #48, #137, .T. ) ;
#198 = DIRECTION ( 'NONE',  ( 1.000000000000000000, 0.0000000000000000000, 0.0000000000000000000 ) ) ;
#199 = ORIENTED_EDGE ( 'NONE', *, *, #113, .F. ) ;
#200 = PERSON_AND_ORGANIZATION_ROLE ( 'creator' ) ;
#201 = ADVANCED_FACE ( 'NONE', ( #228 ), #221, .T. ) ;
#202 = PERSON_AND_ORGANIZATION ( #23, #84 ) ;
#203 = PRODUCT_RELATED_PRODUCT_CATEGORY ( 'detail', '', ( #82 ) ) ;
#204 = ORIENTED_EDGE ( 'NONE', *, *, #130, .F. ) ;
#205 = CARTESIAN_POINT ( 'NONE',  ( -17.04377249744945600, -8.573008868629351300, -0.002101427096054227800 ) ) ;
#206 = EDGE_LOOP ( 'NONE', ( #204, #34, #176 ) ) ;
#207 = CARTESIAN_POINT ( 'NONE',  ( -5.684341886080800200E-014, 8.573008868629326400, -0.1756922022911035500 ) ) ;
#208 = CARTESIAN_POINT ( 'NONE',  ( 25.53086153511555200, -25.70463035750870900, 1.046899035808627000 ) ) ;
#209 = CARTESIAN_POINT ( 'NONE',  ( 25.55947140425613300, -8.573008868629349500, 0.3450081015862624900 ) ) ;
#210 = CC_DESIGN_SECURITY_CLASSIFICATION ( #53, ( #2 ) ) ;
#211 = DATE_AND_TIME ( #124, #147 ) ;
#212 = PERSON_AND_ORGANIZATION_ROLE ( 'creator' ) ;
#213 = ORIENTED_EDGE ( 'NONE', *, *, #14, .T. ) ;
#214 = ORIENTED_EDGE ( 'NONE', *, *, #197, .F. ) ;
#215 = ORIENTED_EDGE ( 'NONE', *, *, #14, .F. ) ;
#216 = CARTESIAN_POINT ( 'NONE',  ( -8.522770259504639500, 8.573008868629328200, -0.1756922022910842300 ) ) ;
#217 = CARTESIAN_POINT ( 'NONE',  ( -25.39999999999999900, 7.995584178184967200E-015, 5.000000000000000000 ) ) ;
#218 = ORIENTED_EDGE ( 'NONE', *, *, #30, .F. ) ;
#219 = CARTESIAN_POINT ( 'NONE',  ( 25.39999999999999900, 4.884981308350691100E-015, 0.5143644970001359800 ) ) ;
#220 = DIRECTION ( 'NONE',  ( 1.000000000000000000, 0.0000000000000000000, 0.0000000000000000000 ) ) ;
#221 = CYLINDRICAL_SURFACE ( 'NONE', #19, 25.39999999999999900 ) ;
#222 = CARTESIAN_POINT ( 'NONE',  ( 8.513230338354121700, -25.70463035750870900, 0.5267815752664216600 ) ) ;
#223 = CARTESIAN_POINT ( 'NONE',  ( -5.684341886080800200E-014, 25.70463035750868700, 0.5267815752663107500 ) ) ;
#224 = CC_DESIGN_APPROVAL ( #166, ( #2 ) ) ;
#225 = FACE_OUTER_BOUND ( 'NONE', #206, .T. ) ;
#226 = DIRECTION ( 'NONE',  ( -0.0000000000000000000, -0.0000000000000000000, -1.000000000000000000 ) ) ;
#227 = APPROVAL_PERSON_ORGANIZATION ( #95, #166, #107 ) ;
#228 = FACE_OUTER_BOUND ( 'NONE', #81, .T. ) ;
#229 = APPROVAL_STATUS ( 'not_yet_approved' ) ;
#230 = CC_DESIGN_DATE_AND_TIME_ASSIGNMENT ( #211, #181, ( #53 ) ) ;
#231 = CARTESIAN_POINT ( 'NONE',  ( 9.992007221626412800E-016, 4.884981308350691100E-015, 0.5143644970001359800 ) ) ;
#232 = EDGE_CURVE ( 'NONE', #90, #98, #88, .T. ) ;
#233 = CYLINDRICAL_SURFACE ( 'NONE', #127, 25.39999999999999900 ) ;
#234 = CARTESIAN_POINT ( 'NONE',  ( 9.992007221626412800E-016, 4.884981308350691100E-015, 0.5143644970001359800 ) ) ;
#235 = DIRECTION ( 'NONE',  ( 1.000000000000000000, 0.0000000000000000000, 0.0000000000000000000 ) ) ;
ENDSEC;
END-ISO-10303-21;
