ISO-10303-21;
HEADER;
FILE_DESCRIPTION (( 'STEP AP203' ),
    '1' );
FILE_NAME ('110-5528E CaF2 pl-cx 50.8 F750.STEP',
    '2019-01-03T15:01:13',
    ( '' ),
    ( '' ),
    'SwSTEP 2.0',
    'SolidWorks 2017',
    '' );
FILE_SCHEMA (( 'CONFIG_CONTROL_DESIGN' ));
ENDSEC;

DATA;
#1 = PRODUCT_DEFINITION_SHAPE ( 'NONE', 'NONE',  #167 ) ;
#2 = ORIENTED_EDGE ( 'NONE', *, *, #121, .T. ) ;
#3 = CARTESIAN_POINT ( 'NONE',  ( -2.842170943040399500E-014, 25.39999999999992400, 1.029998240956908800 ) ) ;
#4 = DIRECTION ( 'NONE',  ( 1.000000000000000000, 0.0000000000000000000, 0.0000000000000000000 ) ) ;
#5 = CARTESIAN_POINT ( 'NONE',  ( 16.99390345386114000, -25.70412009407235100, 1.401338966803070700 ) ) ;
#6 = CARTESIAN_POINT ( 'NONE',  ( 8.500483959004663200, 25.70412009407234400, 1.054852572138053700 ) ) ;
#7 = PERSON_AND_ORGANIZATION ( #176, #211 ) ;
#8 = AXIS2_PLACEMENT_3D ( 'NONE', #133, #58, #196 ) ;
#9 = VECTOR ( 'NONE', #134, 1000.000000000000000 ) ;
#10 = CARTESIAN_POINT ( 'NONE',  ( 9.992007221626412800E-016, 4.884981308350691100E-015, 5.000000000000000000 ) ) ;
#11 = ADVANCED_FACE ( 'NONE', ( #73 ), #130, .T. ) ;
#12 = CARTESIAN_POINT ( 'NONE',  ( -25.58076800832966000, -8.587290537171568900, 0.6911519071491608600 ) ) ;
#13 = DIRECTION ( 'NONE',  ( 0.0000000000000000000, -1.000000000000000000, -7.078246889545148300E-016 ) ) ;
#14 = DIRECTION ( 'NONE',  ( -0.0000000000000000000, -0.0000000000000000000, -1.000000000000000000 ) ) ;
#15 = COORDINATED_UNIVERSAL_TIME_OFFSET ( 2, 0, .AHEAD. ) ;
#16 = CC_DESIGN_APPROVAL ( #75, ( #167 ) ) ;
#17 = APPROVAL_DATE_TIME ( #61, #210 ) ;
#18 = ORIENTED_EDGE ( 'NONE', *, *, #127, .T. ) ;
#19 = EDGE_CURVE ( 'NONE', #68, #179, #162, .T. ) ;
#20 = APPROVAL_DATE_TIME ( #155, #75 ) ;
#21 = LOCAL_TIME ( 17, 1, 13.00000000000000000, #177 ) ;
#22 = EDGE_CURVE ( 'NONE', #47, #68, #97, .T. ) ;
#23 = DIRECTION ( 'NONE',  ( 0.0000000000000000000, 0.0000000000000000000, 1.000000000000000000 ) ) ;
#24 = CARTESIAN_POINT ( 'NONE',  ( -25.39999999999999900, 7.995584178184967200E-015, 1.029998240956920200 ) ) ;
#25 = CARTESIAN_POINT ( 'NONE',  ( -2.842170943040399500E-014, -25.39999999999991700, 1.029998240956908800 ) ) ;
#26 = CARTESIAN_POINT ( 'NONE',  ( -16.99390345386113700, 25.70412009407234400, 1.401338966803048700 ) ) ;
#27 = CARTESIAN_POINT ( 'NONE',  ( 9.992007221626412800E-016, 4.884981308350691100E-015, 5.000000000000000000 ) ) ;
#28 = CARTESIAN_POINT ( 'NONE',  ( -25.39999999999999900, 7.995584178184967200E-015, 5.000000000000000000 ) ) ;
#29 = DATE_TIME_ROLE ( 'creation_date' ) ;
#30 = ORIENTED_EDGE ( 'NONE', *, *, #213, .F. ) ;
#31 = PERSON_AND_ORGANIZATION_ROLE ( 'creator' ) ;
#32 = EDGE_CURVE ( 'NONE', #82, #214, #55, .T. ) ;
#33 = CALENDAR_DATE ( 2019, 3, 1 ) ;
#34 = CC_DESIGN_APPROVAL ( #210, ( #202 ) ) ;
#35 = APPROVAL ( #124, 'UNSPECIFIED' ) ;
#36 = ORIENTED_EDGE ( 'NONE', *, *, #88, .T. ) ;
#37 = CARTESIAN_POINT ( 'NONE',  ( -2.842170943040399500E-014, 25.70412009407234100, 1.054852572138054200 ) ) ;
#38 = AXIS2_PLACEMENT_3D ( 'NONE', #39, #77, #165 ) ;
#39 = CARTESIAN_POINT ( 'NONE',  ( 9.992007221626412800E-016, 4.884981308350691100E-015, 1.029998240956920200 ) ) ;
#40 = ADVANCED_FACE ( 'NONE', ( #171 ), #219, .T. ) ;
#41 = COORDINATED_UNIVERSAL_TIME_OFFSET ( 2, 0, .AHEAD. ) ;
#42 = PERSON_AND_ORGANIZATION ( #176, #211 ) ;
#43 = EDGE_LOOP ( 'NONE', ( #126, #111, #85, #139, #102 ) ) ;
#44 =( LENGTH_UNIT ( ) NAMED_UNIT ( * ) SI_UNIT ( .MILLI., .METRE. ) );
#45 = DIRECTION ( 'NONE',  ( 1.000000000000000000, 0.0000000000000000000, 0.0000000000000000000 ) ) ;
#46 = APPROVAL_PERSON_ORGANIZATION ( #144, #35, #125 ) ;
#47 = VERTEX_POINT ( 'NONE', #25 ) ;
#48 =( NAMED_UNIT ( * ) PLANE_ANGLE_UNIT ( ) SI_UNIT ( $, .RADIAN. ) );
#49 = PERSON_AND_ORGANIZATION_ROLE ( 'design_owner' ) ;
#50 = VERTEX_POINT ( 'NONE', #3 ) ;
#51 = PERSON_AND_ORGANIZATION ( #176, #211 ) ;
#52 = FACE_OUTER_BOUND ( 'NONE', #43, .T. ) ;
#53 = LOCAL_TIME ( 17, 1, 13.00000000000000000, #15 ) ;
#54 = CC_DESIGN_PERSON_AND_ORGANIZATION_ASSIGNMENT ( #195, #232, ( #202 ) ) ;
#55 = LINE ( 'NONE', #79, #9 ) ;
#56 =( BOUNDED_SURFACE ( )  B_SPLINE_SURFACE ( 3, 3, ( 
 ( #225, #83, #119, #156 ),
 ( #12, #86, #222, #157 ),
 ( #188, #64, #228, #66 ),
 ( #120, #26, #116, #141 ) ),
 .UNSPECIFIED., .F., .F., .T. ) 
 B_SPLINE_SURFACE_WITH_KNOTS ( ( 4, 4 ),
 ( 4, 4 ),
 ( 0.0000000000000000000, 1.000000000000000000 ),
 ( 0.0000000000000000000, 1.000000000000000000 ),
 .UNSPECIFIED. ) 
 GEOMETRIC_REPRESENTATION_ITEM ( )  RATIONAL_B_SPLINE_SURFACE ( (
 ( 1.000000000000000000, 0.9994459559257818900, 0.9994459559257818900, 1.000000000000000000),
 ( 0.9977582561425181200, 0.9972054540932001600, 0.9972054540932001600, 0.9977582561425181200),
 ( 0.9977582561425181200, 0.9972054540932001600, 0.9972054540932001600, 0.9977582561425181200),
 ( 1.000000000000000000, 0.9994459559257818900, 0.9994459559257818900, 1.000000000000000000) ) ) 
 REPRESENTATION_ITEM ( '' )  SURFACE ( )  );
#57 = CARTESIAN_POINT ( 'NONE',  ( -25.39999999999999900, 7.995584178184967200E-015, 1.029998240956920200 ) ) ;
#58 = DIRECTION ( 'NONE',  ( 0.0000000000000000000, 0.0000000000000000000, 1.000000000000000000 ) ) ;
#59 = CARTESIAN_POINT ( 'NONE',  ( 8.538745841638190700, 8.587290537171558200, -0.3524075314650629300 ) ) ;
#60 = CC_DESIGN_PERSON_AND_ORGANIZATION_ASSIGNMENT ( #159, #49, ( #230 ) ) ;
#61 = DATE_AND_TIME ( #109, #21 ) ;
#62 = ORIENTED_EDGE ( 'NONE', *, *, #19, .F. ) ;
#63 = DIRECTION ( 'NONE',  ( -0.0000000000000000000, -0.0000000000000000000, -1.000000000000000000 ) ) ;
#64 = CARTESIAN_POINT ( 'NONE',  ( -17.07039542097417200, 8.587290537171558200, -0.004361552448080806300 ) ) ;
#65 = AXIS2_PLACEMENT_3D ( 'NONE', #101, #118, #13 ) ;
#66 = CARTESIAN_POINT ( 'NONE',  ( -1.040834085586084100E-013, 8.587290537171560000, -0.3524075314650339500 ) ) ;
#67 = APPLICATION_CONTEXT ( 'configuration controlled 3d designs of mechanical parts and assemblies' ) ;
#68 = VERTEX_POINT ( 'NONE', #24 ) ;
#69 = APPLICATION_CONTEXT ( 'configuration controlled 3d designs of mechanical parts and assemblies' ) ;
#70 = AXIS2_PLACEMENT_3D ( 'NONE', #204, #14, #187 ) ;
#71 = CIRCLE ( 'NONE', #94, 25.39999999999999900 ) ;
#72 = FACE_OUTER_BOUND ( 'NONE', #175, .T. ) ;
#73 = FACE_OUTER_BOUND ( 'NONE', #221, .T. ) ;
#74 = ADVANCED_FACE ( 'NONE', ( #52 ), #183, .T. ) ;
#75 = APPROVAL ( #122, 'UNSPECIFIED' ) ;
#76 = CARTESIAN_POINT ( 'NONE',  ( 25.58076800832974500, 8.587290537171558200, 0.6911519071490814800 ) ) ;
#77 = DIRECTION ( 'NONE',  ( 0.0000000000000000000, 0.0000000000000000000, 1.000000000000000000 ) ) ;
#78 = AXIS2_PLACEMENT_3D ( 'NONE', #166, #198, #98 ) ;
#79 = CARTESIAN_POINT ( 'NONE',  ( 25.39999999999999900, 4.884981308350691100E-015, 1.029998240956920200 ) ) ;
#80 = CARTESIAN_POINT ( 'NONE',  ( -2.842170943040399500E-014, -25.70412009407234800, 1.054852572138109700 ) ) ;
#81 = APPROVAL_DATE_TIME ( #163, #35 ) ;
#82 = VERTEX_POINT ( 'NONE', #153 ) ;
#83 = CARTESIAN_POINT ( 'NONE',  ( -16.99390345386113300, -25.70412009407235100, 1.401338966803104200 ) ) ;
#84 = ADVANCED_FACE ( 'NONE', ( #161 ), #147, .T. ) ;
#85 = ORIENTED_EDGE ( 'NONE', *, *, #213, .T. ) ;
#86 = CARTESIAN_POINT ( 'NONE',  ( -17.07039542097416900, -8.587290537171568900, -0.004361552448025620400 ) ) ;
#87 = DIRECTION ( 'NONE',  ( 1.000000000000000000, 0.0000000000000000000, 0.0000000000000000000 ) ) ;
#88 = EDGE_CURVE ( 'NONE', #68, #50, #146, .T. ) ;
#89 = DATE_AND_TIME ( #135, #194 ) ;
#90 = PERSON_AND_ORGANIZATION_ROLE ( 'creator' ) ;
#91 = DIRECTION ( 'NONE',  ( 1.000000000000000000, 0.0000000000000000000, 0.0000000000000000000 ) ) ;
#92 = LOCAL_TIME ( 17, 1, 13.00000000000000000, #41 ) ;
#93 = ORIENTED_EDGE ( 'NONE', *, *, #121, .F. ) ;
#94 = AXIS2_PLACEMENT_3D ( 'NONE', #27, #140, #87 ) ;
#95 = ORIENTED_EDGE ( 'NONE', *, *, #22, .T. ) ;
#96 = CARTESIAN_POINT ( 'NONE',  ( 25.46614129834649300, -25.70412009407234800, 2.093735849931697100 ) ) ;
#97 = CIRCLE ( 'NONE', #218, 25.39999999999999900 ) ;
#98 = DIRECTION ( 'NONE',  ( 1.000000000000000000, 0.0000000000000000000, 0.0000000000000000000 ) ) ;
#99 = EDGE_CURVE ( 'NONE', #82, #47, #115, .T. ) ;
#100 = AXIS2_PLACEMENT_3D ( 'NONE', #103, #189, #206 ) ;
#101 = CARTESIAN_POINT ( 'NONE',  ( -2.842170943040400100E-014, 0.0000000000000000000, 313.6999999999999900 ) ) ;
#102 = ORIENTED_EDGE ( 'NONE', *, *, #227, .F. ) ;
#103 = CARTESIAN_POINT ( 'NONE',  ( 9.992007221626412800E-016, 4.884981308350691100E-015, 1.029998240956920200 ) ) ;
#104 = CC_DESIGN_DATE_AND_TIME_ASSIGNMENT ( #89, #29, ( #167 ) ) ;
#105 = APPROVAL_PERSON_ORGANIZATION ( #42, #75, #212 ) ;
#106 = SECURITY_CLASSIFICATION_LEVEL ( 'unclassified' ) ;
#107 = LOCAL_TIME ( 17, 1, 13.00000000000000000, #205 ) ;
#108 =( GEOMETRIC_REPRESENTATION_CONTEXT ( 3 ) GLOBAL_UNCERTAINTY_ASSIGNED_CONTEXT ( ( #110 ) ) GLOBAL_UNIT_ASSIGNED_CONTEXT ( ( #44, #48, #142 ) ) REPRESENTATION_CONTEXT ( 'NONE', 'WORKASPACE' ) );
#109 = CALENDAR_DATE ( 2019, 3, 1 ) ;
#110 = UNCERTAINTY_MEASURE_WITH_UNIT (LENGTH_MEASURE( 1.000000000000000100E-005 ), #44, 'distance_accuracy_value', 'NONE');
#111 = ORIENTED_EDGE ( 'NONE', *, *, #19, .T. ) ;
#112 = DIRECTION ( 'NONE',  ( -0.0000000000000000000, -0.0000000000000000000, -1.000000000000000000 ) ) ;
#113 = CARTESIAN_POINT ( 'NONE',  ( 25.58076800832973800, -8.587290537171568900, 0.6911519071491366600 ) ) ;
#114 = CARTESIAN_POINT ( 'NONE',  ( -2.842170943040398900E-014, 8.587290537171558200, -0.3524075314650628200 ) ) ;
#115 = CIRCLE ( 'NONE', #70, 25.39999999999999900 ) ;
#116 = CARTESIAN_POINT ( 'NONE',  ( -8.500483959004723600, 25.70412009407234400, 1.054852572138084400 ) ) ;
#117 = CC_DESIGN_PERSON_AND_ORGANIZATION_ASSIGNMENT ( #51, #191, ( #148 ) ) ;
#118 = DIRECTION ( 'NONE',  ( 1.000000000000000000, 0.0000000000000000000, 0.0000000000000000000 ) ) ;
#119 = CARTESIAN_POINT ( 'NONE',  ( -8.500483959004725400, -25.70412009407235100, 1.054852572138140500 ) ) ;
#120 = CARTESIAN_POINT ( 'NONE',  ( -25.46614129834642200, 25.70412009407234100, 2.093735849931666100 ) ) ;
#121 = EDGE_CURVE ( 'NONE', #47, #50, #186, .T. ) ;
#122 = APPROVAL_STATUS ( 'not_yet_approved' ) ;
#123 = CIRCLE ( 'NONE', #207, 25.39999999999999900 ) ;
#124 = APPROVAL_STATUS ( 'not_yet_approved' ) ;
#125 = APPROVAL_ROLE ( '' ) ;
#126 = ORIENTED_EDGE ( 'NONE', *, *, #88, .F. ) ;
#127 = EDGE_CURVE ( 'NONE', #214, #179, #71, .T. ) ;
#128 = APPROVAL_PERSON_ORGANIZATION ( #7, #210, #145 ) ;
#129 = EDGE_LOOP ( 'NONE', ( #201, #30 ) ) ;
#130 =( BOUNDED_SURFACE ( )  B_SPLINE_SURFACE ( 3, 3, ( 
 ( #80, #217, #5, #96 ),
 ( #151, #152, #132, #113 ),
 ( #114, #59, #181, #76 ),
 ( #37, #6, #137, #215 ) ),
 .UNSPECIFIED., .F., .F., .F. ) 
 B_SPLINE_SURFACE_WITH_KNOTS ( ( 4, 4 ),
 ( 4, 4 ),
 ( 0.0000000000000000000, 1.000000000000000000 ),
 ( 0.0000000000000000000, 1.000000000000000000 ),
 .UNSPECIFIED. ) 
 GEOMETRIC_REPRESENTATION_ITEM ( )  RATIONAL_B_SPLINE_SURFACE ( (
 ( 1.000000000000000000, 0.9994459559257818900, 0.9994459559257818900, 1.000000000000000000),
 ( 0.9977582561425181200, 0.9972054540932001600, 0.9972054540932001600, 0.9977582561425181200),
 ( 0.9977582561425181200, 0.9972054540932001600, 0.9972054540932001600, 0.9977582561425181200),
 ( 1.000000000000000000, 0.9994459559257818900, 0.9994459559257818900, 1.000000000000000000) ) ) 
 REPRESENTATION_ITEM ( '' )  SURFACE ( )  );
#131 = CC_DESIGN_SECURITY_CLASSIFICATION ( #148, ( #202 ) ) ;
#132 = CARTESIAN_POINT ( 'NONE',  ( 17.07039542097417600, -8.587290537171568900, -0.004361552448059230700 ) ) ;
#133 = CARTESIAN_POINT ( 'NONE',  ( 0.0000000000000000000, 52.02000000000000300, 5.000000000000000000 ) ) ;
#134 = DIRECTION ( 'NONE',  ( 0.0000000000000000000, 0.0000000000000000000, 1.000000000000000000 ) ) ;
#135 = CALENDAR_DATE ( 2019, 3, 1 ) ;
#136 = ORIENTED_EDGE ( 'NONE', *, *, #99, .F. ) ;
#137 = CARTESIAN_POINT ( 'NONE',  ( 16.99390345386114700, 25.70412009407234400, 1.401338966803015200 ) ) ;
#138 = DIRECTION ( 'NONE',  ( 1.000000000000000000, 0.0000000000000000000, 0.0000000000000000000 ) ) ;
#139 = ORIENTED_EDGE ( 'NONE', *, *, #32, .F. ) ;
#140 = DIRECTION ( 'NONE',  ( -0.0000000000000000000, -0.0000000000000000000, -1.000000000000000000 ) ) ;
#141 = CARTESIAN_POINT ( 'NONE',  ( -1.040834085586084300E-013, 25.70412009407234100, 1.054852572138082800 ) ) ;
#142 =( NAMED_UNIT ( * ) SI_UNIT ( $, .STERADIAN. ) SOLID_ANGLE_UNIT ( ) );
#143 = ADVANCED_BREP_SHAPE_REPRESENTATION ( '110-5528E CaF2 pl-cx 50.8 F750', ( #193, #192 ), #108 ) ;
#144 = PERSON_AND_ORGANIZATION ( #176, #211 ) ;
#145 = APPROVAL_ROLE ( '' ) ;
#146 = CIRCLE ( 'NONE', #233, 25.39999999999999900 ) ;
#147 = CYLINDRICAL_SURFACE ( 'NONE', #78, 25.39999999999999900 ) ;
#148 = SECURITY_CLASSIFICATION ( '', '', #106 ) ;
#149 = CC_DESIGN_DATE_AND_TIME_ASSIGNMENT ( #197, #208, ( #148 ) ) ;
#150 = PERSON_AND_ORGANIZATION ( #176, #211 ) ;
#151 = CARTESIAN_POINT ( 'NONE',  ( -2.842170943040398900E-014, -8.587290537171568900, -0.3524075314650074700 ) ) ;
#152 = CARTESIAN_POINT ( 'NONE',  ( 8.538745841638188900, -8.587290537171568900, -0.3524075314650076400 ) ) ;
#153 = CARTESIAN_POINT ( 'NONE',  ( 25.39999999999999900, 4.884981308350691100E-015, 1.029998240956920200 ) ) ;
#154 = CC_DESIGN_PERSON_AND_ORGANIZATION_ASSIGNMENT ( #158, #90, ( #167 ) ) ;
#155 = DATE_AND_TIME ( #220, #53 ) ;
#156 = CARTESIAN_POINT ( 'NONE',  ( -1.075528555105620400E-013, -25.70412009407234800, 1.054852572138138300 ) ) ;
#157 = CARTESIAN_POINT ( 'NONE',  ( -1.075528555105620300E-013, -8.587290537171567100, -0.3524075314649786600 ) ) ;
#158 = PERSON_AND_ORGANIZATION ( #176, #211 ) ;
#159 = PERSON_AND_ORGANIZATION ( #176, #211 ) ;
#160 = DESIGN_CONTEXT ( 'detailed design', #69, 'design' ) ;
#161 = FACE_OUTER_BOUND ( 'NONE', #235, .T. ) ;
#162 = LINE ( 'NONE', #57, #173 ) ;
#163 = DATE_AND_TIME ( #33, #92 ) ;
#164 = CALENDAR_DATE ( 2019, 3, 1 ) ;
#165 = DIRECTION ( 'NONE',  ( 1.000000000000000000, 0.0000000000000000000, 0.0000000000000000000 ) ) ;
#166 = CARTESIAN_POINT ( 'NONE',  ( 9.992007221626412800E-016, 4.884981308350691100E-015, 1.029998240956920200 ) ) ;
#167 = PRODUCT_DEFINITION ( 'UNKNOWN', '', #202, #160 ) ;
#168 = ORIENTED_EDGE ( 'NONE', *, *, #22, .F. ) ;
#169 = DIRECTION ( 'NONE',  ( -0.0000000000000000000, -0.0000000000000000000, -1.000000000000000000 ) ) ;
#170 = DIRECTION ( 'NONE',  ( 0.0000000000000000000, 0.0000000000000000000, 1.000000000000000000 ) ) ;
#171 = FACE_OUTER_BOUND ( 'NONE', #129, .T. ) ;
#172 = MECHANICAL_CONTEXT ( 'NONE', #67, 'mechanical' ) ;
#173 = VECTOR ( 'NONE', #23, 1000.000000000000000 ) ;
#174 = APPROVAL_STATUS ( 'not_yet_approved' ) ;
#175 = EDGE_LOOP ( 'NONE', ( #93, #95, #36 ) ) ;
#176 = PERSON ( 'UNSPECIFIED', 'UNSPECIFIED', 'UNSPECIFIED', ('UNSPECIFIED'), ('UNSPECIFIED'), ('UNSPECIFIED') ) ;
#177 = COORDINATED_UNIVERSAL_TIME_OFFSET ( 2, 0, .AHEAD. ) ;
#178 = ORIENTED_EDGE ( 'NONE', *, *, #32, .T. ) ;
#179 = VERTEX_POINT ( 'NONE', #28 ) ;
#180 = CARTESIAN_POINT ( 'NONE',  ( 9.992007221626412800E-016, 4.884981308350691100E-015, 1.029998240956920200 ) ) ;
#181 = CARTESIAN_POINT ( 'NONE',  ( 17.07039542097418300, 8.587290537171558200, -0.004361552448114416500 ) ) ;
#182 = CIRCLE ( 'NONE', #100, 25.39999999999999900 ) ;
#183 = CYLINDRICAL_SURFACE ( 'NONE', #38, 25.39999999999999900 ) ;
#184 = CC_DESIGN_APPROVAL ( #35, ( #148 ) ) ;
#185 = CARTESIAN_POINT ( 'NONE',  ( 0.0000000000000000000, 0.0000000000000000000, 0.0000000000000000000 ) ) ;
#186 = CIRCLE ( 'NONE', #65, 313.6999999999999900 ) ;
#187 = DIRECTION ( 'NONE',  ( 1.000000000000000000, 0.0000000000000000000, 0.0000000000000000000 ) ) ;
#188 = CARTESIAN_POINT ( 'NONE',  ( -25.58076800832966300, 8.587290537171558200, 0.6911519071491060200 ) ) ;
#189 = DIRECTION ( 'NONE',  ( -0.0000000000000000000, -0.0000000000000000000, -1.000000000000000000 ) ) ;
#190 = APPLICATION_PROTOCOL_DEFINITION ( 'international standard', 'config_control_design', 1994, #67 ) ;
#191 = PERSON_AND_ORGANIZATION_ROLE ( 'classification_officer' ) ;
#192 = AXIS2_PLACEMENT_3D ( 'NONE', #185, #170, #91 ) ;
#193 = MANIFOLD_SOLID_BREP ( 'Imported1', #234 ) ;
#194 = LOCAL_TIME ( 17, 1, 13.00000000000000000, #229 ) ;
#195 = PERSON_AND_ORGANIZATION ( #176, #211 ) ;
#196 = DIRECTION ( 'NONE',  ( 1.000000000000000000, 0.0000000000000000000, -0.0000000000000000000 ) ) ;
#197 = DATE_AND_TIME ( #164, #107 ) ;
#198 = DIRECTION ( 'NONE',  ( 0.0000000000000000000, 0.0000000000000000000, 1.000000000000000000 ) ) ;
#199 = CARTESIAN_POINT ( 'NONE',  ( 9.992007221626412800E-016, 4.884981308350691100E-015, 1.029998240956920200 ) ) ;
#200 = SHAPE_DEFINITION_REPRESENTATION ( #1, #143 ) ;
#201 = ORIENTED_EDGE ( 'NONE', *, *, #127, .F. ) ;
#202 = PRODUCT_DEFINITION_FORMATION_WITH_SPECIFIED_SOURCE ( 'ANY', '', #230, .NOT_KNOWN. ) ;
#203 = CARTESIAN_POINT ( 'NONE',  ( 25.39999999999999900, 4.884981308350691100E-015, 5.000000000000000000 ) ) ;
#204 = CARTESIAN_POINT ( 'NONE',  ( 9.992007221626412800E-016, 4.884981308350691100E-015, 1.029998240956920200 ) ) ;
#205 = COORDINATED_UNIVERSAL_TIME_OFFSET ( 2, 0, .AHEAD. ) ;
#206 = DIRECTION ( 'NONE',  ( 1.000000000000000000, 8.881784197001252300E-016, 0.0000000000000000000 ) ) ;
#207 = AXIS2_PLACEMENT_3D ( 'NONE', #10, #169, #138 ) ;
#208 = DATE_TIME_ROLE ( 'classification_date' ) ;
#209 = APPLICATION_PROTOCOL_DEFINITION ( 'international standard', 'config_control_design', 1994, #69 ) ;
#210 = APPROVAL ( #174, 'UNSPECIFIED' ) ;
#211 = ORGANIZATION ( 'UNSPECIFIED', 'UNSPECIFIED', '' ) ;
#212 = APPROVAL_ROLE ( '' ) ;
#213 = EDGE_CURVE ( 'NONE', #179, #214, #123, .T. ) ;
#214 = VERTEX_POINT ( 'NONE', #203 ) ;
#215 = CARTESIAN_POINT ( 'NONE',  ( 25.46614129834650000, 25.70412009407234100, 2.093735849931641600 ) ) ;
#216 = ORIENTED_EDGE ( 'NONE', *, *, #227, .T. ) ;
#217 = CARTESIAN_POINT ( 'NONE',  ( 8.500483959004661500, -25.70412009407235100, 1.054852572138109500 ) ) ;
#218 = AXIS2_PLACEMENT_3D ( 'NONE', #180, #112, #4 ) ;
#219 = PLANE ( 'NONE',  #8 ) ;
#220 = CALENDAR_DATE ( 2019, 3, 1 ) ;
#221 = EDGE_LOOP ( 'NONE', ( #226, #2, #216 ) ) ;
#222 = CARTESIAN_POINT ( 'NONE',  ( -8.538745841638251100, -8.587290537171567100, -0.3524075314649765000 ) ) ;
#223 = PRODUCT_RELATED_PRODUCT_CATEGORY ( 'detail', '', ( #230 ) ) ;
#224 = ADVANCED_FACE ( 'NONE', ( #72 ), #56, .T. ) ;
#225 = CARTESIAN_POINT ( 'NONE',  ( -25.46614129834641800, -25.70412009407234800, 2.093735849931721600 ) ) ;
#226 = ORIENTED_EDGE ( 'NONE', *, *, #99, .T. ) ;
#227 = EDGE_CURVE ( 'NONE', #50, #82, #182, .T. ) ;
#228 = CARTESIAN_POINT ( 'NONE',  ( -8.538745841638247600, 8.587290537171560000, -0.3524075314650319000 ) ) ;
#229 = COORDINATED_UNIVERSAL_TIME_OFFSET ( 2, 0, .AHEAD. ) ;
#230 = PRODUCT ( '110-5528E CaF2 pl-cx 50.8 F750', '110-5528E CaF2 pl-cx 50.8 F750', '', ( #172 ) ) ;
#231 = CC_DESIGN_PERSON_AND_ORGANIZATION_ASSIGNMENT ( #150, #31, ( #202 ) ) ;
#232 = PERSON_AND_ORGANIZATION_ROLE ( 'design_supplier' ) ;
#233 = AXIS2_PLACEMENT_3D ( 'NONE', #199, #63, #45 ) ;
#234 = CLOSED_SHELL ( 'NONE', ( #11, #74, #224, #84, #40 ) ) ;
#235 = EDGE_LOOP ( 'NONE', ( #62, #168, #136, #178, #18 ) ) ;
ENDSEC;
END-ISO-10303-21;
