ISO-10303-21;
HEADER;
FILE_DESCRIPTION (( 'STEP AP203' ),
    '1' );
FILE_NAME ('110-5524E CaF2 pl-cx 50.8 F400.STEP',
    '2019-01-03T14:55:24',
    ( '' ),
    ( '' ),
    'SwSTEP 2.0',
    'SolidWorks 2017',
    '' );
FILE_SCHEMA (( 'CONFIG_CONTROL_DESIGN' ));
ENDSEC;

DATA;
#1 = MECHANICAL_CONTEXT ( 'NONE', #197, 'mechanical' ) ;
#2 = CYLINDRICAL_SURFACE ( 'NONE', #110, 25.39999999999999900 ) ;
#3 = PERSON_AND_ORGANIZATION_ROLE ( 'classification_officer' ) ;
#4 = DATE_AND_TIME ( #199, #97 ) ;
#5 = AXIS2_PLACEMENT_3D ( 'NONE', #68, #179, #126 ) ;
#6 = CARTESIAN_POINT ( 'NONE',  ( -25.39999999999999900, 7.995584178184967200E-015, 1.939394050457110100 ) ) ;
#7 = PRODUCT ( '110-5524E CaF2 pl-cx 50.8 F400', '110-5524E CaF2 pl-cx 50.8 F400', '', ( #1 ) ) ;
#8 = PERSON_AND_ORGANIZATION ( #203, #72 ) ;
#9 = DATE_AND_TIME ( #107, #152 ) ;
#10 = EDGE_CURVE ( 'NONE', #67, #210, #93, .T. ) ;
#11 = APPROVAL_DATE_TIME ( #4, #219 ) ;
#12 = CARTESIAN_POINT ( 'NONE',  ( 9.992007221626412800E-016, 4.884981308350691100E-015, 1.939394050457110100 ) ) ;
#13 = CIRCLE ( 'NONE', #23, 25.39999999999999900 ) ;
#14 = APPROVAL_PERSON_ORGANIZATION ( #121, #219, #36 ) ;
#15 = AXIS2_PLACEMENT_3D ( 'NONE', #180, #65, #106 ) ;
#16 = DIRECTION ( 'NONE',  ( 1.000000000000000000, 0.0000000000000000000, 0.0000000000000000000 ) ) ;
#17 =( NAMED_UNIT ( * ) PLANE_ANGLE_UNIT ( ) SI_UNIT ( $, .RADIAN. ) );
#18 = CARTESIAN_POINT ( 'NONE',  ( 5.846634728015246200E-014, -25.40000000000002000, 1.939394050457116100 ) ) ;
#19 = APPROVAL ( #145, 'UNSPECIFIED' ) ;
#20 = DATE_TIME_ROLE ( 'creation_date' ) ;
#21 = CC_DESIGN_PERSON_AND_ORGANIZATION_ASSIGNMENT ( #8, #3, ( #94 ) ) ;
#22 = AXIS2_PLACEMENT_3D ( 'NONE', #82, #98, #102 ) ;
#23 = AXIS2_PLACEMENT_3D ( 'NONE', #51, #66, #34 ) ;
#24 = CIRCLE ( 'NONE', #230, 25.39999999999999900 ) ;
#25 = ORIENTED_EDGE ( 'NONE', *, *, #119, .T. ) ;
#26 = CC_DESIGN_APPROVAL ( #219, ( #208 ) ) ;
#27 = ORIENTED_EDGE ( 'NONE', *, *, #10, .T. ) ;
#28 = CARTESIAN_POINT ( 'NONE',  ( 1.734723475976807100E-014, -25.70239356281367500, 1.986125914543307400 ) ) ;
#29 = CARTESIAN_POINT ( 'NONE',  ( 25.39999999999999900, 4.884981308350691100E-015, 1.939394050457110100 ) ) ;
#30 = PRODUCT_RELATED_PRODUCT_CATEGORY ( 'detail', '', ( #7 ) ) ;
#31 = CARTESIAN_POINT ( 'NONE',  ( 8.457310328655998100, 25.70239356281366500, 1.986125914543282100 ) ) ;
#32 = ORIENTED_EDGE ( 'NONE', *, *, #131, .F. ) ;
#33 = CARTESIAN_POINT ( 'NONE',  ( 5.855736427098785700E-014, -25.70239356281367500, 1.986125914543307400 ) ) ;
#34 = DIRECTION ( 'NONE',  ( 1.000000000000000000, 0.0000000000000000000, 0.0000000000000000000 ) ) ;
#35 = DATE_TIME_ROLE ( 'classification_date' ) ;
#36 = APPROVAL_ROLE ( '' ) ;
#37 = COORDINATED_UNIVERSAL_TIME_OFFSET ( 2, 0, .AHEAD. ) ;
#38 = LINE ( 'NONE', #170, #167 ) ;
#39 = CIRCLE ( 'NONE', #125, 25.39999999999999900 ) ;
#40 = CC_DESIGN_PERSON_AND_ORGANIZATION_ASSIGNMENT ( #232, #74, ( #208 ) ) ;
#41 = APPROVAL_PERSON_ORGANIZATION ( #144, #19, #132 ) ;
#42 = FACE_OUTER_BOUND ( 'NONE', #104, .T. ) ;
#43 = AXIS2_PLACEMENT_3D ( 'NONE', #12, #178, #209 ) ;
#44 = CARTESIAN_POINT ( 'NONE',  ( 3.469446951953613800E-015, 8.635812040711465800, -0.6673234555087388400 ) ) ;
#45 = CARTESIAN_POINT ( 'NONE',  ( -25.24787264573268800, 25.70239356281364700, 3.925516398652073600 ) ) ;
#46 = ORIENTED_EDGE ( 'NONE', *, *, #119, .F. ) ;
#47 = DATE_AND_TIME ( #146, #53 ) ;
#48 = CARTESIAN_POINT ( 'NONE',  ( 16.88977980419495500, 25.70239356281366800, 2.633857756661955700 ) ) ;
#49 = CARTESIAN_POINT ( 'NONE',  ( 9.992007221626412800E-016, 4.884981308350691100E-015, 1.939394050457110100 ) ) ;
#50 = ORIENTED_EDGE ( 'NONE', *, *, #168, .T. ) ;
#51 = CARTESIAN_POINT ( 'NONE',  ( 9.992007221626412800E-016, 4.884981308350691100E-015, 1.939394050457110100 ) ) ;
#52 = ADVANCED_FACE ( 'NONE', ( #116 ), #87, .T. ) ;
#53 = LOCAL_TIME ( 16, 55, 24.00000000000000000, #159 ) ;
#54 = PERSON_AND_ORGANIZATION_ROLE ( 'creator' ) ;
#55 = PERSON_AND_ORGANIZATION_ROLE ( 'design_supplier' ) ;
#56 = COORDINATED_UNIVERSAL_TIME_OFFSET ( 2, 0, .AHEAD. ) ;
#57 = EDGE_LOOP ( 'NONE', ( #173, #148, #80, #25, #155 ) ) ;
#58 = CARTESIAN_POINT ( 'NONE',  ( -25.65312569625608300, 8.635812040711456900, 1.303196142758272300 ) ) ;
#59 = CARTESIAN_POINT ( 'NONE',  ( -16.88977980419497300, -25.70239356281368600, 2.633857756661984500 ) ) ;
#60 = VERTEX_POINT ( 'NONE', #136 ) ;
#61 =( BOUNDED_SURFACE ( )  B_SPLINE_SURFACE ( 3, 3, ( 
 ( #120, #59, #169, #28 ),
 ( #153, #192, #156, #227 ),
 ( #58, #226, #222, #44 ),
 ( #45, #62, #195, #154 ) ),
 .UNSPECIFIED., .F., .F., .F. ) 
 B_SPLINE_SURFACE_WITH_KNOTS ( ( 4, 4 ),
 ( 4, 4 ),
 ( 0.0000000000000000000, 1.000000000000000000 ),
 ( 0.0000000000000000000, 1.000000000000000000 ),
 .UNSPECIFIED. ) 
 GEOMETRIC_REPRESENTATION_ITEM ( )  RATIONAL_B_SPLINE_SURFACE ( (
 ( 1.000000000000000000, 0.9980418634174327300, 0.9980418634174327300, 1.000000000000000000),
 ( 0.9920855711713756400, 0.9901429321214277900, 0.9901429321214277900, 0.9920855711713756400),
 ( 0.9920855711713756400, 0.9901429321214277900, 0.9901429321214277900, 0.9920855711713756400),
 ( 1.000000000000000000, 0.9980418634174327300, 0.9980418634174327300, 1.000000000000000000) ) ) 
 REPRESENTATION_ITEM ( '' )  SURFACE ( )  );
#62 = CARTESIAN_POINT ( 'NONE',  ( -16.88977980419499800, 25.70239356281365400, 2.633857756661957400 ) ) ;
#63 = AXIS2_PLACEMENT_3D ( 'NONE', #64, #86, #212 ) ;
#64 = CARTESIAN_POINT ( 'NONE',  ( 0.0000000000000000000, 0.0000000000000000000, 0.0000000000000000000 ) ) ;
#65 = DIRECTION ( 'NONE',  ( -0.0000000000000000000, -0.0000000000000000000, -1.000000000000000000 ) ) ;
#66 = DIRECTION ( 'NONE',  ( -0.0000000000000000000, -0.0000000000000000000, -1.000000000000000000 ) ) ;
#67 = VERTEX_POINT ( 'NONE', #211 ) ;
#68 = CARTESIAN_POINT ( 'NONE',  ( 0.0000000000000000000, 0.0000000000000000000, 167.3000000000000100 ) ) ;
#69 = CALENDAR_DATE ( 2019, 3, 1 ) ;
#70 = DIRECTION ( 'NONE',  ( 0.0000000000000000000, 0.0000000000000000000, 1.000000000000000000 ) ) ;
#71 = SECURITY_CLASSIFICATION_LEVEL ( 'unclassified' ) ;
#72 = ORGANIZATION ( 'UNSPECIFIED', 'UNSPECIFIED', '' ) ;
#73 = ORIENTED_EDGE ( 'NONE', *, *, #168, .F. ) ;
#74 = PERSON_AND_ORGANIZATION_ROLE ( 'creator' ) ;
#75 = MANIFOLD_SOLID_BREP ( 'Imported1', #190 ) ;
#76 = APPLICATION_CONTEXT ( 'configuration controlled 3d designs of mechanical parts and assemblies' ) ;
#77 = VECTOR ( 'NONE', #231, 1000.000000000000000 ) ;
#78 = PERSON_AND_ORGANIZATION_ROLE ( 'design_owner' ) ;
#79 = ORIENTED_EDGE ( 'NONE', *, *, #131, .T. ) ;
#80 = ORIENTED_EDGE ( 'NONE', *, *, #133, .F. ) ;
#81 = DESIGN_CONTEXT ( 'detailed design', #76, 'design' ) ;
#82 = CARTESIAN_POINT ( 'NONE',  ( 9.992007221626412800E-016, 4.884981308350691100E-015, 1.939394050457110100 ) ) ;
#83 = CIRCLE ( 'NONE', #15, 25.39999999999999900 ) ;
#84 = ORIENTED_EDGE ( 'NONE', *, *, #200, .F. ) ;
#85 = EDGE_LOOP ( 'NONE', ( #127, #151, #50, #46, #32 ) ) ;
#86 = DIRECTION ( 'NONE',  ( 0.0000000000000000000, 0.0000000000000000000, 1.000000000000000000 ) ) ;
#87 = CYLINDRICAL_SURFACE ( 'NONE', #43, 25.39999999999999900 ) ;
#88 = DIRECTION ( 'NONE',  ( 1.000000000000000000, 0.0000000000000000000, -0.0000000000000000000 ) ) ;
#89 = CARTESIAN_POINT ( 'NONE',  ( 25.65312569625601900, -8.635812040711480000, 1.303196142758287000 ) ) ;
#90 = CARTESIAN_POINT ( 'NONE',  ( 25.24787264573261000, 25.70239356281366800, 3.925516398652063400 ) ) ;
#91 = ADVANCED_FACE ( 'NONE', ( #193 ), #2, .T. ) ;
#92 = PERSON_AND_ORGANIZATION ( #203, #72 ) ;
#93 = CIRCLE ( 'NONE', #22, 25.39999999999999900 ) ;
#94 = SECURITY_CLASSIFICATION ( '', '', #71 ) ;
#95 = DIRECTION ( 'NONE',  ( -0.0000000000000000000, -0.0000000000000000000, -1.000000000000000000 ) ) ;
#96 = UNCERTAINTY_MEASURE_WITH_UNIT (LENGTH_MEASURE( 1.000000000000000100E-005 ), #213, 'distance_accuracy_value', 'NONE');
#97 = LOCAL_TIME ( 16, 55, 24.00000000000000000, #172 ) ;
#98 = DIRECTION ( 'NONE',  ( -0.0000000000000000000, -0.0000000000000000000, -1.000000000000000000 ) ) ;
#99 =( GEOMETRIC_REPRESENTATION_CONTEXT ( 3 ) GLOBAL_UNCERTAINTY_ASSIGNED_CONTEXT ( ( #96 ) ) GLOBAL_UNIT_ASSIGNED_CONTEXT ( ( #213, #17, #157 ) ) REPRESENTATION_CONTEXT ( 'NONE', 'WORKASPACE' ) );
#100 = APPROVAL ( #165, 'UNSPECIFIED' ) ;
#101 = PERSON_AND_ORGANIZATION ( #203, #72 ) ;
#102 = DIRECTION ( 'NONE',  ( 1.000000000000000000, 0.0000000000000000000, 0.0000000000000000000 ) ) ;
#103 = DIRECTION ( 'NONE',  ( 0.0000000000000000000, 0.0000000000000000000, 1.000000000000000000 ) ) ;
#104 = EDGE_LOOP ( 'NONE', ( #84, #161, #27 ) ) ;
#105 = CARTESIAN_POINT ( 'NONE',  ( 0.0000000000000000000, 52.02000000000000300, 5.599999999999999600 ) ) ;
#106 = DIRECTION ( 'NONE',  ( 1.000000000000000000, 0.0000000000000000000, 0.0000000000000000000 ) ) ;
#107 = CALENDAR_DATE ( 2019, 3, 1 ) ;
#108 = ORIENTED_EDGE ( 'NONE', *, *, #133, .T. ) ;
#109 = CARTESIAN_POINT ( 'NONE',  ( 4.742545097892129400E-014, 8.635812040711467600, -0.6673234555087383900 ) ) ;
#110 = AXIS2_PLACEMENT_3D ( 'NONE', #138, #150, #191 ) ;
#111 = DIRECTION ( 'NONE',  ( -0.0000000000000000000, -0.0000000000000000000, -1.000000000000000000 ) ) ;
#112 = LOCAL_TIME ( 16, 55, 24.00000000000000000, #216 ) ;
#113 = APPLICATION_PROTOCOL_DEFINITION ( 'international standard', 'config_control_design', 1994, #197 ) ;
#114 = PRODUCT_DEFINITION_SHAPE ( 'NONE', 'NONE',  #123 ) ;
#115 = FACE_OUTER_BOUND ( 'NONE', #122, .T. ) ;
#116 = FACE_OUTER_BOUND ( 'NONE', #85, .T. ) ;
#117 = CC_DESIGN_SECURITY_CLASSIFICATION ( #94, ( #208 ) ) ;
#118 = APPROVAL_PERSON_ORGANIZATION ( #206, #100, #186 ) ;
#119 = EDGE_CURVE ( 'NONE', #224, #60, #38, .T. ) ;
#120 = CARTESIAN_POINT ( 'NONE',  ( -25.24787264573266300, -25.70239356281368600, 3.925516398652101600 ) ) ;
#121 = PERSON_AND_ORGANIZATION ( #203, #72 ) ;
#122 = EDGE_LOOP ( 'NONE', ( #108, #220, #79 ) ) ;
#123 = PRODUCT_DEFINITION ( 'UNKNOWN', '', #208, #81 ) ;
#124 = APPROVAL_DATE_TIME ( #47, #100 ) ;
#125 = AXIS2_PLACEMENT_3D ( 'NONE', #49, #181, #229 ) ;
#126 = DIRECTION ( 'NONE',  ( 3.473828569973949900E-016, -1.000000000000000000, 0.0000000000000000000 ) ) ;
#127 = ORIENTED_EDGE ( 'NONE', *, *, #10, .F. ) ;
#128 = CARTESIAN_POINT ( 'NONE',  ( 17.16087728968847200, 8.635812040711472900, -0.009194883787417075200 ) ) ;
#129 = CARTESIAN_POINT ( 'NONE',  ( 25.24787264573262400, -25.70239356281366500, 3.925516398652090000 ) ) ;
#130 = ADVANCED_FACE ( 'NONE', ( #42 ), #61, .T. ) ;
#131 = EDGE_CURVE ( 'NONE', #210, #224, #228, .T. ) ;
#132 = APPROVAL_ROLE ( '' ) ;
#133 = EDGE_CURVE ( 'NONE', #224, #176, #39, .T. ) ;
#134 = DIRECTION ( 'NONE',  ( 1.000000000000000000, 8.881784197001252300E-016, 0.0000000000000000000 ) ) ;
#135 = AXIS2_PLACEMENT_3D ( 'NONE', #105, #70, #88 ) ;
#136 = CARTESIAN_POINT ( 'NONE',  ( 25.39999999999999900, 4.884981308350691100E-015, 5.599999999999999600 ) ) ;
#137 = EDGE_LOOP ( 'NONE', ( #204, #73 ) ) ;
#138 = CARTESIAN_POINT ( 'NONE',  ( 9.992007221626412800E-016, 4.884981308350691100E-015, 1.939394050457110100 ) ) ;
#139 = LINE ( 'NONE', #6, #77 ) ;
#140 = CARTESIAN_POINT ( 'NONE',  ( 16.88977980419496900, -25.70239356281367200, 2.633857756661981900 ) ) ;
#141 = CARTESIAN_POINT ( 'NONE',  ( 4.081929814468477400E-014, 25.40000000000002000, 1.939394050457116100 ) ) ;
#142 = PLANE ( 'NONE',  #135 ) ;
#143 = CC_DESIGN_DATE_AND_TIME_ASSIGNMENT ( #182, #35, ( #94 ) ) ;
#144 = PERSON_AND_ORGANIZATION ( #203, #72 ) ;
#145 = APPROVAL_STATUS ( 'not_yet_approved' ) ;
#146 = CALENDAR_DATE ( 2019, 3, 1 ) ;
#147 = APPROVAL_DATE_TIME ( #9, #19 ) ;
#148 = ORIENTED_EDGE ( 'NONE', *, *, #177, .F. ) ;
#149 = CC_DESIGN_APPROVAL ( #100, ( #94 ) ) ;
#150 = DIRECTION ( 'NONE',  ( 0.0000000000000000000, 0.0000000000000000000, 1.000000000000000000 ) ) ;
#151 = ORIENTED_EDGE ( 'NONE', *, *, #158, .T. ) ;
#152 = LOCAL_TIME ( 16, 55, 24.00000000000000000, #37 ) ;
#153 = CARTESIAN_POINT ( 'NONE',  ( -25.65312569625607300, -8.635812040711499500, 1.303196142758298800 ) ) ;
#154 = CARTESIAN_POINT ( 'NONE',  ( -3.469446951953614200E-015, 25.70239356281365800, 1.986125914543278800 ) ) ;
#155 = ORIENTED_EDGE ( 'NONE', *, *, #202, .T. ) ;
#156 = CARTESIAN_POINT ( 'NONE',  ( -8.593058431397237100, -8.635812040711494200, -0.6673234555087145200 ) ) ;
#157 =( NAMED_UNIT ( * ) SI_UNIT ( $, .STERADIAN. ) SOLID_ANGLE_UNIT ( ) );
#158 = EDGE_CURVE ( 'NONE', #67, #223, #139, .T. ) ;
#159 = COORDINATED_UNIVERSAL_TIME_OFFSET ( 2, 0, .AHEAD. ) ;
#160 = CARTESIAN_POINT ( 'NONE',  ( 4.070022245594453000E-014, 25.70239356281365800, 1.986125914543279700 ) ) ;
#161 = ORIENTED_EDGE ( 'NONE', *, *, #177, .T. ) ;
#162 = ADVANCED_FACE ( 'NONE', ( #115 ), #221, .T. ) ;
#163 = APPLICATION_PROTOCOL_DEFINITION ( 'international standard', 'config_control_design', 1994, #76 ) ;
#164 = APPROVAL_STATUS ( 'not_yet_approved' ) ;
#165 = APPROVAL_STATUS ( 'not_yet_approved' ) ;
#166 = PERSON_AND_ORGANIZATION ( #203, #72 ) ;
#167 = VECTOR ( 'NONE', #103, 1000.000000000000000 ) ;
#168 = EDGE_CURVE ( 'NONE', #223, #60, #83, .T. ) ;
#169 = CARTESIAN_POINT ( 'NONE',  ( -8.457310328655976800, -25.70239356281368300, 1.986125914543306800 ) ) ;
#170 = CARTESIAN_POINT ( 'NONE',  ( 25.39999999999999900, 4.884981308350691100E-015, 1.939394050457110100 ) ) ;
#171 = CC_DESIGN_PERSON_AND_ORGANIZATION_ASSIGNMENT ( #92, #78, ( #7 ) ) ;
#172 = COORDINATED_UNIVERSAL_TIME_OFFSET ( 2, 0, .AHEAD. ) ;
#173 = ORIENTED_EDGE ( 'NONE', *, *, #158, .F. ) ;
#174 = CC_DESIGN_PERSON_AND_ORGANIZATION_ASSIGNMENT ( #166, #54, ( #123 ) ) ;
#175 = FACE_OUTER_BOUND ( 'NONE', #137, .T. ) ;
#176 = VERTEX_POINT ( 'NONE', #18 ) ;
#177 = EDGE_CURVE ( 'NONE', #176, #67, #13, .T. ) ;
#178 = DIRECTION ( 'NONE',  ( 0.0000000000000000000, 0.0000000000000000000, 1.000000000000000000 ) ) ;
#179 = DIRECTION ( 'NONE',  ( 1.000000000000000000, 3.473828569973949900E-016, 3.002094871832189900E-016 ) ) ;
#180 = CARTESIAN_POINT ( 'NONE',  ( 9.992007221626412800E-016, 4.884981308350691100E-015, 5.599999999999999600 ) ) ;
#181 = DIRECTION ( 'NONE',  ( -0.0000000000000000000, -0.0000000000000000000, -1.000000000000000000 ) ) ;
#182 = DATE_AND_TIME ( #69, #112 ) ;
#183 = CARTESIAN_POINT ( 'NONE',  ( -25.39999999999999900, 7.995584178184967200E-015, 5.599999999999999600 ) ) ;
#184 = CARTESIAN_POINT ( 'NONE',  ( 9.992007221626412800E-016, 4.884981308350691100E-015, 5.599999999999999600 ) ) ;
#185 = CALENDAR_DATE ( 2019, 3, 1 ) ;
#186 = APPROVAL_ROLE ( '' ) ;
#187 = CC_DESIGN_APPROVAL ( #19, ( #123 ) ) ;
#188 = CC_DESIGN_DATE_AND_TIME_ASSIGNMENT ( #218, #20, ( #123 ) ) ;
#189 = LOCAL_TIME ( 16, 55, 24.00000000000000000, #56 ) ;
#190 = CLOSED_SHELL ( 'NONE', ( #162, #52, #130, #91, #205 ) ) ;
#191 = DIRECTION ( 'NONE',  ( 1.000000000000000000, 0.0000000000000000000, 0.0000000000000000000 ) ) ;
#192 = CARTESIAN_POINT ( 'NONE',  ( -17.16087728968849300, -8.635812040711496000, -0.009194883787388672500 ) ) ;
#193 = FACE_OUTER_BOUND ( 'NONE', #57, .T. ) ;
#194 = SHAPE_DEFINITION_REPRESENTATION ( #114, #201 ) ;
#195 = CARTESIAN_POINT ( 'NONE',  ( -8.457310328655999900, 25.70239356281365800, 1.986125914543278400 ) ) ;
#196 = CIRCLE ( 'NONE', #5, 167.3000000000000100 ) ;
#197 = APPLICATION_CONTEXT ( 'configuration controlled 3d designs of mechanical parts and assemblies' ) ;
#198 = CARTESIAN_POINT ( 'NONE',  ( 25.65312569625601900, 8.635812040711478200, 1.303196142758261900 ) ) ;
#199 = CALENDAR_DATE ( 2019, 3, 1 ) ;
#200 = EDGE_CURVE ( 'NONE', #176, #210, #196, .T. ) ;
#201 = ADVANCED_BREP_SHAPE_REPRESENTATION ( '110-5524E CaF2 pl-cx 50.8 F400', ( #75, #63 ), #99 ) ;
#202 = EDGE_CURVE ( 'NONE', #60, #223, #24, .T. ) ;
#203 = PERSON ( 'UNSPECIFIED', 'UNSPECIFIED', 'UNSPECIFIED', ('UNSPECIFIED'), ('UNSPECIFIED'), ('UNSPECIFIED') ) ;
#204 = ORIENTED_EDGE ( 'NONE', *, *, #202, .F. ) ;
#205 = ADVANCED_FACE ( 'NONE', ( #175 ), #142, .T. ) ;
#206 = PERSON_AND_ORGANIZATION ( #203, #72 ) ;
#207 = CARTESIAN_POINT ( 'NONE',  ( 9.992007221626412800E-016, 4.884981308350691100E-015, 1.939394050457110100 ) ) ;
#208 = PRODUCT_DEFINITION_FORMATION_WITH_SPECIFIED_SOURCE ( 'ANY', '', #7, .NOT_KNOWN. ) ;
#209 = DIRECTION ( 'NONE',  ( 1.000000000000000000, 0.0000000000000000000, 0.0000000000000000000 ) ) ;
#210 = VERTEX_POINT ( 'NONE', #141 ) ;
#211 = CARTESIAN_POINT ( 'NONE',  ( -25.39999999999999900, 7.995584178184967200E-015, 1.939394050457110100 ) ) ;
#212 = DIRECTION ( 'NONE',  ( 1.000000000000000000, 0.0000000000000000000, 0.0000000000000000000 ) ) ;
#213 =( LENGTH_UNIT ( ) NAMED_UNIT ( * ) SI_UNIT ( .MILLI., .METRE. ) );
#214 = CARTESIAN_POINT ( 'NONE',  ( 8.457310328656015800, -25.70239356281367500, 1.986125914543309900 ) ) ;
#215 = CARTESIAN_POINT ( 'NONE',  ( 5.342531709731100000E-014, -8.635812040711488900, -0.6673234555087128600 ) ) ;
#216 = COORDINATED_UNIVERSAL_TIME_OFFSET ( 2, 0, .AHEAD. ) ;
#217 = CARTESIAN_POINT ( 'NONE',  ( 8.593058431397260200, -8.635812040711485300, -0.6673234555087101900 ) ) ;
#218 = DATE_AND_TIME ( #185, #189 ) ;
#219 = APPROVAL ( #164, 'UNSPECIFIED' ) ;
#220 = ORIENTED_EDGE ( 'NONE', *, *, #200, .T. ) ;
#221 =( BOUNDED_SURFACE ( )  B_SPLINE_SURFACE ( 3, 3, ( 
 ( #33, #214, #140, #129 ),
 ( #215, #217, #233, #89 ),
 ( #109, #235, #128, #198 ),
 ( #160, #31, #48, #90 ) ),
 .UNSPECIFIED., .F., .F., .F. ) 
 B_SPLINE_SURFACE_WITH_KNOTS ( ( 4, 4 ),
 ( 4, 4 ),
 ( 0.0000000000000000000, 1.000000000000000000 ),
 ( 0.0000000000000000000, 1.000000000000000000 ),
 .UNSPECIFIED. ) 
 GEOMETRIC_REPRESENTATION_ITEM ( )  RATIONAL_B_SPLINE_SURFACE ( (
 ( 1.000000000000000000, 0.9980418634174327300, 0.9980418634174327300, 1.000000000000000000),
 ( 0.9920855711713756400, 0.9901429321214277900, 0.9901429321214277900, 0.9920855711713756400),
 ( 0.9920855711713756400, 0.9901429321214277900, 0.9901429321214277900, 0.9920855711713756400),
 ( 1.000000000000000000, 0.9980418634174327300, 0.9980418634174327300, 1.000000000000000000) ) ) 
 REPRESENTATION_ITEM ( '' )  SURFACE ( )  );
#222 = CARTESIAN_POINT ( 'NONE',  ( -8.593058431397242500, 8.635812040711462200, -0.6673234555087391700 ) ) ;
#223 = VERTEX_POINT ( 'NONE', #183 ) ;
#224 = VERTEX_POINT ( 'NONE', #29 ) ;
#225 = AXIS2_PLACEMENT_3D ( 'NONE', #207, #95, #134 ) ;
#226 = CARTESIAN_POINT ( 'NONE',  ( -17.16087728968850000, 8.635812040711460500, -0.009194883787414908500 ) ) ;
#227 = CARTESIAN_POINT ( 'NONE',  ( 1.040834085586084300E-014, -8.635812040711490700, -0.6673234555087141900 ) ) ;
#228 = CIRCLE ( 'NONE', #225, 25.39999999999999900 ) ;
#229 = DIRECTION ( 'NONE',  ( 1.000000000000000000, 0.0000000000000000000, 0.0000000000000000000 ) ) ;
#230 = AXIS2_PLACEMENT_3D ( 'NONE', #184, #111, #16 ) ;
#231 = DIRECTION ( 'NONE',  ( 0.0000000000000000000, 0.0000000000000000000, 1.000000000000000000 ) ) ;
#232 = PERSON_AND_ORGANIZATION ( #203, #72 ) ;
#233 = CARTESIAN_POINT ( 'NONE',  ( 17.16087728968847500, -8.635812040711483600, -0.009194883787391272900 ) ) ;
#234 = CC_DESIGN_PERSON_AND_ORGANIZATION_ASSIGNMENT ( #101, #55, ( #208 ) ) ;
#235 = CARTESIAN_POINT ( 'NONE',  ( 8.593058431397253100, 8.635812040711471100, -0.6673234555087358400 ) ) ;
ENDSEC;
END-ISO-10303-21;
