ISO-10303-21;
HEADER;
FILE_DESCRIPTION (( 'STEP AP203' ),
    '1' );
FILE_NAME ('110-5523E CaF2 pl-cx 50.8 F500.STEP',
    '2019-01-03T14:38:00',
    ( '' ),
    ( '' ),
    'SwSTEP 2.0',
    'SolidWorks 2017',
    '' );
FILE_SCHEMA (( 'CONFIG_CONTROL_DESIGN' ));
ENDSEC;

DATA;
#1 = CARTESIAN_POINT ( 'NONE',  ( 25.39999999999999900, 4.884981308350691100E-015, 5.000000000000000000 ) ) ;
#2 = CIRCLE ( 'NONE', #101, 25.39999999999999900 ) ;
#3 = FACE_OUTER_BOUND ( 'NONE', #199, .T. ) ;
#4 = CALENDAR_DATE ( 2019, 3, 1 ) ;
#5 = DIRECTION ( 'NONE',  ( 1.000000000000000000, 0.0000000000000000000, 0.0000000000000000000 ) ) ;
#6 = CC_DESIGN_PERSON_AND_ORGANIZATION_ASSIGNMENT ( #67, #66, ( #176 ) ) ;
#7 = VERTEX_POINT ( 'NONE', #180 ) ;
#8 = CARTESIAN_POINT ( 'NONE',  ( 9.992007221626412800E-016, 4.884981308350691100E-015, 1.548440140768879900 ) ) ;
#9 = DIRECTION ( 'NONE',  ( -0.0000000000000000000, -0.0000000000000000000, -1.000000000000000000 ) ) ;
#10 = DIRECTION ( 'NONE',  ( 0.0000000000000000000, -1.000000000000000000, -7.964297163738569400E-016 ) ) ;
#11 = DIRECTION ( 'NONE',  ( 0.0000000000000000000, 0.0000000000000000000, 1.000000000000000000 ) ) ;
#12 = ORIENTED_EDGE ( 'NONE', *, *, #40, .F. ) ;
#13 = MECHANICAL_CONTEXT ( 'NONE', #130, 'mechanical' ) ;
#14 = CC_DESIGN_APPROVAL ( #209, ( #22 ) ) ;
#15 = CARTESIAN_POINT ( 'NONE',  ( -8.326672684688674100E-014, -8.611292596264867400, -0.5312788696750186900 ) ) ;
#16 = CARTESIAN_POINT ( 'NONE',  ( 25.61656046625499900, 8.611292596264901200, 1.039756535723173100 ) ) ;
#17 = DIRECTION ( 'NONE',  ( 0.0000000000000000000, 0.0000000000000000000, 1.000000000000000000 ) ) ;
#18 = COORDINATED_UNIVERSAL_TIME_OFFSET ( 2, 0, .AHEAD. ) ;
#19 = DIRECTION ( 'NONE',  ( 1.000000000000000000, 0.0000000000000000000, 0.0000000000000000000 ) ) ;
#20 = CARTESIAN_POINT ( 'NONE',  ( -9.020562075079396900E-014, -25.70326467160964900, 1.585778354298862400 ) ) ;
#21 = VERTEX_POINT ( 'NONE', #107 ) ;
#22 = PRODUCT_DEFINITION_FORMATION_WITH_SPECIFIED_SOURCE ( 'ANY', '', #176, .NOT_KNOWN. ) ;
#23 = CARTESIAN_POINT ( 'NONE',  ( -8.673617379884032900E-014, 8.611292596264901200, -0.5312788696749895000 ) ) ;
#24 = PERSON_AND_ORGANIZATION ( #61, #82 ) ;
#25 = EDGE_CURVE ( 'NONE', #7, #71, #216, .T. ) ;
#26 = DATE_TIME_ROLE ( 'creation_date' ) ;
#27 = DIRECTION ( 'NONE',  ( -0.0000000000000000000, -0.0000000000000000000, -1.000000000000000000 ) ) ;
#28 = APPROVAL_ROLE ( '' ) ;
#29 = AXIS2_PLACEMENT_3D ( 'NONE', #128, #103, #5 ) ;
#30 = DATE_AND_TIME ( #183, #53 ) ;
#31 = PERSON_AND_ORGANIZATION_ROLE ( 'design_supplier' ) ;
#32 = CC_DESIGN_PERSON_AND_ORGANIZATION_ASSIGNMENT ( #85, #185, ( #202 ) ) ;
#33 = DIRECTION ( 'NONE',  ( 1.000000000000000000, 0.0000000000000000000, -0.0000000000000000000 ) ) ;
#34 = ORIENTED_EDGE ( 'NONE', *, *, #77, .F. ) ;
#35 = EDGE_CURVE ( 'NONE', #21, #97, #96, .T. ) ;
#36 = CARTESIAN_POINT ( 'NONE',  ( 25.61656046625500200, -8.611292596264867400, 1.039756535723144000 ) ) ;
#37 = UNCERTAINTY_MEASURE_WITH_UNIT (LENGTH_MEASURE( 1.000000000000000100E-005 ), #200, 'distance_accuracy_value', 'NONE');
#38 = CARTESIAN_POINT ( 'NONE',  ( 25.35785992938443600, 25.70326467160968800, 3.140947941046083900 ) ) ;
#39 = EDGE_LOOP ( 'NONE', ( #208, #178, #89 ) ) ;
#40 = EDGE_CURVE ( 'NONE', #71, #203, #115, .T. ) ;
#41 = PLANE ( 'NONE',  #144 ) ;
#42 = CARTESIAN_POINT ( 'NONE',  ( -16.94230275971898800, 25.70326467160968400, 2.104817128621188100 ) ) ;
#43 = AXIS2_PLACEMENT_3D ( 'NONE', #108, #11, #228 ) ;
#44 = APPROVAL_STATUS ( 'not_yet_approved' ) ;
#45 = ORIENTED_EDGE ( 'NONE', *, *, #196, .T. ) ;
#46 = APPROVAL_STATUS ( 'not_yet_approved' ) ;
#47 = DATE_AND_TIME ( #162, #215 ) ;
#48 = DIRECTION ( 'NONE',  ( 1.000000000000000000, 0.0000000000000000000, 0.0000000000000000000 ) ) ;
#49 = SECURITY_CLASSIFICATION_LEVEL ( 'unclassified' ) ;
#50 = EDGE_LOOP ( 'NONE', ( #225, #221, #227, #234, #159 ) ) ;
#51 = CC_DESIGN_PERSON_AND_ORGANIZATION_ASSIGNMENT ( #24, #31, ( #22 ) ) ;
#52 = CLOSED_SHELL ( 'NONE', ( #142, #126, #156, #59, #213 ) ) ;
#53 = LOCAL_TIME ( 16, 38, 0.0000000000000000000, #78 ) ;
#54 = DIRECTION ( 'NONE',  ( -0.0000000000000000000, -0.0000000000000000000, -1.000000000000000000 ) ) ;
#55 = CARTESIAN_POINT ( 'NONE',  ( 17.11514789854247800, 8.611292596264906500, -0.006944868943690269900 ) ) ;
#56 = PRODUCT_RELATED_PRODUCT_CATEGORY ( 'detail', '', ( #176 ) ) ;
#57 = DATE_AND_TIME ( #75, #198 ) ;
#58 = CIRCLE ( 'NONE', #110, 25.39999999999999900 ) ;
#59 = ADVANCED_FACE ( 'NONE', ( #134 ), #119, .T. ) ;
#60 = ORIENTED_EDGE ( 'NONE', *, *, #223, .T. ) ;
#61 = PERSON ( 'UNSPECIFIED', 'UNSPECIFIED', 'UNSPECIFIED', ('UNSPECIFIED'), ('UNSPECIFIED'), ('UNSPECIFIED') ) ;
#62 = ADVANCED_BREP_SHAPE_REPRESENTATION ( '110-5523E CaF2 pl-cx 50.8 F500', ( #187, #43 ), #205 ) ;
#63 = ORIENTED_EDGE ( 'NONE', *, *, #92, .F. ) ;
#64 = EDGE_CURVE ( 'NONE', #21, #7, #163, .T. ) ;
#65 = DIRECTION ( 'NONE',  ( 1.000000000000000000, 0.0000000000000000000, 0.0000000000000000000 ) ) ;
#66 = PERSON_AND_ORGANIZATION_ROLE ( 'design_owner' ) ;
#67 = PERSON_AND_ORGANIZATION ( #61, #82 ) ;
#68 = FACE_OUTER_BOUND ( 'NONE', #39, .T. ) ;
#69 = DATE_AND_TIME ( #87, #150 ) ;
#70 = DATE_TIME_ROLE ( 'classification_date' ) ;
#71 = VERTEX_POINT ( 'NONE', #219 ) ;
#72 = CARTESIAN_POINT ( 'NONE',  ( -4.263256414560599900E-014, -25.70326467160964900, 1.585778354298850200 ) ) ;
#73 = CARTESIAN_POINT ( 'NONE',  ( 16.94230275971892000, 25.70326467160968800, 2.104817128621187200 ) ) ;
#74 = APPROVAL_PERSON_ORGANIZATION ( #175, #155, #220 ) ;
#75 = CALENDAR_DATE ( 2019, 3, 1 ) ;
#76 = CARTESIAN_POINT ( 'NONE',  ( -16.94230275971898800, -25.70326467160965200, 2.104817128621160100 ) ) ;
#77 = EDGE_CURVE ( 'NONE', #97, #7, #2, .T. ) ;
#78 = COORDINATED_UNIVERSAL_TIME_OFFSET ( 2, 0, .AHEAD. ) ;
#79 = PRODUCT_DEFINITION_SHAPE ( 'NONE', 'NONE',  #133 ) ;
#80 = EDGE_CURVE ( 'NONE', #124, #203, #58, .T. ) ;
#81 = CARTESIAN_POINT ( 'NONE',  ( 0.0000000000000000000, 52.02000000000000300, 5.000000000000000000 ) ) ;
#82 = ORGANIZATION ( 'UNSPECIFIED', 'UNSPECIFIED', '' ) ;
#83 = CARTESIAN_POINT ( 'NONE',  ( 9.992007221626412800E-016, 4.884981308350691100E-015, 1.548440140768879900 ) ) ;
#84 = EDGE_LOOP ( 'NONE', ( #63, #166 ) ) ;
#85 = PERSON_AND_ORGANIZATION ( #61, #82 ) ;
#86 = AXIS2_PLACEMENT_3D ( 'NONE', #231, #161, #10 ) ;
#87 = CALENDAR_DATE ( 2019, 3, 1 ) ;
#88 = CARTESIAN_POINT ( 'NONE',  ( -25.39999999999999900, 7.995584178184967200E-015, 5.000000000000000000 ) ) ;
#89 = ORIENTED_EDGE ( 'NONE', *, *, #77, .T. ) ;
#90 = APPROVAL_PERSON_ORGANIZATION ( #125, #209, #28 ) ;
#91 = APPROVAL ( #44, 'UNSPECIFIED' ) ;
#92 = EDGE_CURVE ( 'NONE', #203, #124, #158, .T. ) ;
#93 = DIRECTION ( 'NONE',  ( 1.000000000000000000, 0.0000000000000000000, 0.0000000000000000000 ) ) ;
#94 = AXIS2_PLACEMENT_3D ( 'NONE', #83, #104, #65 ) ;
#95 =( BOUNDED_SURFACE ( )  B_SPLINE_SURFACE ( 3, 3, ( 
 ( #72, #152, #151, #222 ),
 ( #114, #171, #138, #36 ),
 ( #210, #117, #55, #16 ),
 ( #135, #140, #73, #38 ) ),
 .UNSPECIFIED., .F., .F., .F. ) 
 B_SPLINE_SURFACE_WITH_KNOTS ( ( 4, 4 ),
 ( 4, 4 ),
 ( 0.0000000000000000000, 1.000000000000000000 ),
 ( 0.0000000000000000000, 1.000000000000000000 ),
 .UNSPECIFIED. ) 
 GEOMETRIC_REPRESENTATION_ITEM ( )  RATIONAL_B_SPLINE_SURFACE ( (
 ( 1.000000000000000000, 0.9987497811236000200, 0.9987497811236000200, 1.000000000000000000),
 ( 0.9949441149233258000, 0.9937002170098855300, 0.9937002170098855300, 0.9949441149233258000),
 ( 0.9949441149233258000, 0.9937002170098855300, 0.9937002170098855300, 0.9949441149233258000),
 ( 1.000000000000000000, 0.9987497811236000200, 0.9987497811236000200, 1.000000000000000000) ) ) 
 REPRESENTATION_ITEM ( '' )  SURFACE ( )  );
#96 = CIRCLE ( 'NONE', #29, 25.39999999999999900 ) ;
#97 = VERTEX_POINT ( 'NONE', #189 ) ;
#98 = CC_DESIGN_APPROVAL ( #91, ( #202 ) ) ;
#99 = CARTESIAN_POINT ( 'NONE',  ( -8.479101929825231900, 25.70326467160968800, 1.585778354298891000 ) ) ;
#100 = ORIENTED_EDGE ( 'NONE', *, *, #64, .T. ) ;
#101 = AXIS2_PLACEMENT_3D ( 'NONE', #186, #206, #93 ) ;
#102 = COORDINATED_UNIVERSAL_TIME_OFFSET ( 2, 0, .AHEAD. ) ;
#103 = DIRECTION ( 'NONE',  ( -0.0000000000000000000, -0.0000000000000000000, -1.000000000000000000 ) ) ;
#104 = DIRECTION ( 'NONE',  ( 0.0000000000000000000, 0.0000000000000000000, 1.000000000000000000 ) ) ;
#105 =( NAMED_UNIT ( * ) SI_UNIT ( $, .STERADIAN. ) SOLID_ANGLE_UNIT ( ) );
#106 = CC_DESIGN_SECURITY_CLASSIFICATION ( #202, ( #22 ) ) ;
#107 = CARTESIAN_POINT ( 'NONE',  ( -4.263256414560599900E-014, -25.39999999999997000, 1.548440140768866600 ) ) ;
#108 = CARTESIAN_POINT ( 'NONE',  ( 0.0000000000000000000, 0.0000000000000000000, 0.0000000000000000000 ) ) ;
#109 = DIRECTION ( 'NONE',  ( 1.000000000000000000, 0.0000000000000000000, 0.0000000000000000000 ) ) ;
#110 = AXIS2_PLACEMENT_3D ( 'NONE', #188, #224, #116 ) ;
#111 =( NAMED_UNIT ( * ) PLANE_ANGLE_UNIT ( ) SI_UNIT ( $, .RADIAN. ) );
#112 = LINE ( 'NONE', #146, #118 ) ;
#113 = FACE_OUTER_BOUND ( 'NONE', #170, .T. ) ;
#114 = CARTESIAN_POINT ( 'NONE',  ( -4.263256414560599900E-014, -8.611292596264863900, -0.5312788696750306800 ) ) ;
#115 = LINE ( 'NONE', #131, #173 ) ;
#116 = DIRECTION ( 'NONE',  ( 1.000000000000000000, 0.0000000000000000000, 0.0000000000000000000 ) ) ;
#117 = CARTESIAN_POINT ( 'NONE',  ( 8.565605610637877700, 8.611292596264906500, -0.5312788696750011500 ) ) ;
#118 = VECTOR ( 'NONE', #197, 1000.000000000000000 ) ;
#119 = CYLINDRICAL_SURFACE ( 'NONE', #94, 25.39999999999999900 ) ;
#120 = CARTESIAN_POINT ( 'NONE',  ( -25.35785992938447100, -25.70326467160965200, 3.140947941046051500 ) ) ;
#121 = ORIENTED_EDGE ( 'NONE', *, *, #80, .T. ) ;
#122 = DIRECTION ( 'NONE',  ( 0.0000000000000000000, 0.0000000000000000000, 1.000000000000000000 ) ) ;
#123 = AXIS2_PLACEMENT_3D ( 'NONE', #141, #54, #137 ) ;
#124 = VERTEX_POINT ( 'NONE', #88 ) ;
#125 = PERSON_AND_ORGANIZATION ( #61, #82 ) ;
#126 = ADVANCED_FACE ( 'NONE', ( #113 ), #193, .T. ) ;
#127 = CC_DESIGN_DATE_AND_TIME_ASSIGNMENT ( #69, #70, ( #202 ) ) ;
#128 = CARTESIAN_POINT ( 'NONE',  ( 9.992007221626412800E-016, 4.884981308350691100E-015, 1.548440140768879900 ) ) ;
#129 = AXIS2_PLACEMENT_3D ( 'NONE', #211, #17, #19 ) ;
#130 = APPLICATION_CONTEXT ( 'configuration controlled 3d designs of mechanical parts and assemblies' ) ;
#131 = CARTESIAN_POINT ( 'NONE',  ( 25.39999999999999900, 4.884981308350691100E-015, 1.548440140768879900 ) ) ;
#132 = PERSON_AND_ORGANIZATION_ROLE ( 'creator' ) ;
#133 = PRODUCT_DEFINITION ( 'UNKNOWN', '', #22, #191 ) ;
#134 = FACE_OUTER_BOUND ( 'NONE', #50, .T. ) ;
#135 = CARTESIAN_POINT ( 'NONE',  ( -4.263256414560599900E-014, 25.70326467160968800, 1.585778354298877900 ) ) ;
#136 = CARTESIAN_POINT ( 'NONE',  ( -8.565605610637979000, -8.611292596264867400, -0.5312788696750168100 ) ) ;
#137 = DIRECTION ( 'NONE',  ( 1.000000000000000000, 0.0000000000000000000, 0.0000000000000000000 ) ) ;
#138 = CARTESIAN_POINT ( 'NONE',  ( 17.11514789854248500, -8.611292596264865700, -0.006944868943719759300 ) ) ;
#139 = FACE_OUTER_BOUND ( 'NONE', #84, .T. ) ;
#140 = CARTESIAN_POINT ( 'NONE',  ( 8.479101929825127100, 25.70326467160968800, 1.585778354298877700 ) ) ;
#141 = CARTESIAN_POINT ( 'NONE',  ( 9.992007221626412800E-016, 4.884981308350691100E-015, 5.000000000000000000 ) ) ;
#142 = ADVANCED_FACE ( 'NONE', ( #3 ), #95, .T. ) ;
#143 = APPROVAL_DATE_TIME ( #57, #209 ) ;
#144 = AXIS2_PLACEMENT_3D ( 'NONE', #81, #122, #33 ) ;
#145 = PERSON_AND_ORGANIZATION ( #61, #82 ) ;
#146 = CARTESIAN_POINT ( 'NONE',  ( -25.39999999999999900, 7.995584178184967200E-015, 1.548440140768879900 ) ) ;
#147 = CARTESIAN_POINT ( 'NONE',  ( -25.35785992938447500, 25.70326467160968400, 3.140947941046079400 ) ) ;
#148 = APPLICATION_PROTOCOL_DEFINITION ( 'international standard', 'config_control_design', 1994, #232 ) ;
#149 = APPROVAL_PERSON_ORGANIZATION ( #195, #91, #204 ) ;
#150 = LOCAL_TIME ( 16, 38, 0.0000000000000000000, #179 ) ;
#151 = CARTESIAN_POINT ( 'NONE',  ( 16.94230275971892000, -25.70326467160964900, 2.104817128621159700 ) ) ;
#152 = CARTESIAN_POINT ( 'NONE',  ( 8.479101929825127100, -25.70326467160964900, 1.585778354298849700 ) ) ;
#153 = ORIENTED_EDGE ( 'NONE', *, *, #25, .T. ) ;
#154 = PERSON_AND_ORGANIZATION ( #61, #82 ) ;
#155 = APPROVAL ( #46, 'UNSPECIFIED' ) ;
#156 = ADVANCED_FACE ( 'NONE', ( #68 ), #167, .T. ) ;
#157 = CARTESIAN_POINT ( 'NONE',  ( -8.565605610637980800, 8.611292596264904700, -0.5312788696749878300 ) ) ;
#158 = CIRCLE ( 'NONE', #123, 25.39999999999999900 ) ;
#159 = ORIENTED_EDGE ( 'NONE', *, *, #92, .T. ) ;
#160 = PERSON_AND_ORGANIZATION_ROLE ( 'creator' ) ;
#161 = DIRECTION ( 'NONE',  ( 1.000000000000000000, 0.0000000000000000000, 0.0000000000000000000 ) ) ;
#162 = CALENDAR_DATE ( 2019, 3, 1 ) ;
#163 = CIRCLE ( 'NONE', #86, 209.0999999999999900 ) ;
#164 = APPROVAL_DATE_TIME ( #47, #155 ) ;
#165 = CC_DESIGN_APPROVAL ( #155, ( #133 ) ) ;
#166 = ORIENTED_EDGE ( 'NONE', *, *, #80, .F. ) ;
#167 =( BOUNDED_SURFACE ( )  B_SPLINE_SURFACE ( 3, 3, ( 
 ( #120, #76, #212, #20 ),
 ( #174, #207, #136, #15 ),
 ( #168, #172, #157, #23 ),
 ( #147, #42, #99, #214 ) ),
 .UNSPECIFIED., .F., .F., .F. ) 
 B_SPLINE_SURFACE_WITH_KNOTS ( ( 4, 4 ),
 ( 4, 4 ),
 ( 0.0000000000000000000, 1.000000000000000000 ),
 ( 0.0000000000000000000, 1.000000000000000000 ),
 .UNSPECIFIED. ) 
 GEOMETRIC_REPRESENTATION_ITEM ( )  RATIONAL_B_SPLINE_SURFACE ( (
 ( 1.000000000000000000, 0.9987497811236000200, 0.9987497811236000200, 1.000000000000000000),
 ( 0.9949441149233258000, 0.9937002170098855300, 0.9937002170098855300, 0.9949441149233258000),
 ( 0.9949441149233258000, 0.9937002170098855300, 0.9937002170098855300, 0.9949441149233258000),
 ( 1.000000000000000000, 0.9987497811236000200, 0.9987497811236000200, 1.000000000000000000) ) ) 
 REPRESENTATION_ITEM ( '' )  SURFACE ( )  );
#168 = CARTESIAN_POINT ( 'NONE',  ( -25.61656046625504100, 8.611292596264899400, 1.039756535723168400 ) ) ;
#169 = CIRCLE ( 'NONE', #233, 25.39999999999999900 ) ;
#170 = EDGE_LOOP ( 'NONE', ( #34, #45, #121, #12, #218 ) ) ;
#171 = CARTESIAN_POINT ( 'NONE',  ( 8.565605610637879500, -8.611292596264865700, -0.5312788696750308000 ) ) ;
#172 = CARTESIAN_POINT ( 'NONE',  ( -17.11514789854255300, 8.611292596264904700, -0.006944868943689617600 ) ) ;
#173 = VECTOR ( 'NONE', #217, 1000.000000000000000 ) ;
#174 = CARTESIAN_POINT ( 'NONE',  ( -25.61656046625504100, -8.611292596264869200, 1.039756535723139500 ) ) ;
#175 = PERSON_AND_ORGANIZATION ( #61, #82 ) ;
#176 = PRODUCT ( '110-5523E CaF2 pl-cx 50.8 F500', '110-5523E CaF2 pl-cx 50.8 F500', '', ( #13 ) ) ;
#177 = CC_DESIGN_PERSON_AND_ORGANIZATION_ASSIGNMENT ( #154, #132, ( #133 ) ) ;
#178 = ORIENTED_EDGE ( 'NONE', *, *, #35, .T. ) ;
#179 = COORDINATED_UNIVERSAL_TIME_OFFSET ( 2, 0, .AHEAD. ) ;
#180 = CARTESIAN_POINT ( 'NONE',  ( -4.263256414560599900E-014, 25.40000000000000600, 1.548440140768866600 ) ) ;
#181 = CC_DESIGN_DATE_AND_TIME_ASSIGNMENT ( #230, #26, ( #133 ) ) ;
#182 = SHAPE_DEFINITION_REPRESENTATION ( #79, #62 ) ;
#183 = CALENDAR_DATE ( 2019, 3, 1 ) ;
#184 = CARTESIAN_POINT ( 'NONE',  ( 9.992007221626412800E-016, 4.884981308350691100E-015, 1.548440140768879900 ) ) ;
#185 = PERSON_AND_ORGANIZATION_ROLE ( 'classification_officer' ) ;
#186 = CARTESIAN_POINT ( 'NONE',  ( 9.992007221626412800E-016, 4.884981308350691100E-015, 1.548440140768879900 ) ) ;
#187 = MANIFOLD_SOLID_BREP ( 'Imported1', #52 ) ;
#188 = CARTESIAN_POINT ( 'NONE',  ( 9.992007221626412800E-016, 4.884981308350691100E-015, 5.000000000000000000 ) ) ;
#189 = CARTESIAN_POINT ( 'NONE',  ( -25.39999999999999900, 7.995584178184967200E-015, 1.548440140768879900 ) ) ;
#190 = AXIS2_PLACEMENT_3D ( 'NONE', #8, #27, #48 ) ;
#191 = DESIGN_CONTEXT ( 'detailed design', #232, 'design' ) ;
#192 = APPROVAL_DATE_TIME ( #30, #91 ) ;
#193 = CYLINDRICAL_SURFACE ( 'NONE', #129, 25.39999999999999900 ) ;
#194 = CC_DESIGN_PERSON_AND_ORGANIZATION_ASSIGNMENT ( #145, #160, ( #22 ) ) ;
#195 = PERSON_AND_ORGANIZATION ( #61, #82 ) ;
#196 = EDGE_CURVE ( 'NONE', #97, #124, #112, .T. ) ;
#197 = DIRECTION ( 'NONE',  ( 0.0000000000000000000, 0.0000000000000000000, 1.000000000000000000 ) ) ;
#198 = LOCAL_TIME ( 16, 38, 0.0000000000000000000, #235 ) ;
#199 = EDGE_LOOP ( 'NONE', ( #60, #100, #153 ) ) ;
#200 =( LENGTH_UNIT ( ) NAMED_UNIT ( * ) SI_UNIT ( .MILLI., .METRE. ) );
#201 = APPLICATION_PROTOCOL_DEFINITION ( 'international standard', 'config_control_design', 1994, #130 ) ;
#202 = SECURITY_CLASSIFICATION ( '', '', #49 ) ;
#203 = VERTEX_POINT ( 'NONE', #1 ) ;
#204 = APPROVAL_ROLE ( '' ) ;
#205 =( GEOMETRIC_REPRESENTATION_CONTEXT ( 3 ) GLOBAL_UNCERTAINTY_ASSIGNED_CONTEXT ( ( #37 ) ) GLOBAL_UNIT_ASSIGNED_CONTEXT ( ( #200, #111, #105 ) ) REPRESENTATION_CONTEXT ( 'NONE', 'WORKASPACE' ) );
#206 = DIRECTION ( 'NONE',  ( -0.0000000000000000000, -0.0000000000000000000, -1.000000000000000000 ) ) ;
#207 = CARTESIAN_POINT ( 'NONE',  ( -17.11514789854255300, -8.611292596264867400, -0.006944868943718674300 ) ) ;
#208 = ORIENTED_EDGE ( 'NONE', *, *, #64, .F. ) ;
#209 = APPROVAL ( #229, 'UNSPECIFIED' ) ;
#210 = CARTESIAN_POINT ( 'NONE',  ( -4.263256414560599900E-014, 8.611292596264903000, -0.5312788696750013800 ) ) ;
#211 = CARTESIAN_POINT ( 'NONE',  ( 9.992007221626412800E-016, 4.884981308350691100E-015, 1.548440140768879900 ) ) ;
#212 = CARTESIAN_POINT ( 'NONE',  ( -8.479101929825230100, -25.70326467160964900, 1.585778354298863900 ) ) ;
#213 = ADVANCED_FACE ( 'NONE', ( #139 ), #41, .T. ) ;
#214 = CARTESIAN_POINT ( 'NONE',  ( -9.020562075079396900E-014, 25.70326467160968800, 1.585778354298889200 ) ) ;
#215 = LOCAL_TIME ( 16, 38, 0.0000000000000000000, #18 ) ;
#216 = CIRCLE ( 'NONE', #190, 25.39999999999999900 ) ;
#217 = DIRECTION ( 'NONE',  ( 0.0000000000000000000, 0.0000000000000000000, 1.000000000000000000 ) ) ;
#218 = ORIENTED_EDGE ( 'NONE', *, *, #25, .F. ) ;
#219 = CARTESIAN_POINT ( 'NONE',  ( 25.39999999999999900, 4.884981308350691100E-015, 1.548440140768879900 ) ) ;
#220 = APPROVAL_ROLE ( '' ) ;
#221 = ORIENTED_EDGE ( 'NONE', *, *, #35, .F. ) ;
#222 = CARTESIAN_POINT ( 'NONE',  ( 25.35785992938443200, -25.70326467160964900, 3.140947941046055900 ) ) ;
#223 = EDGE_CURVE ( 'NONE', #71, #21, #169, .T. ) ;
#224 = DIRECTION ( 'NONE',  ( -0.0000000000000000000, -0.0000000000000000000, -1.000000000000000000 ) ) ;
#225 = ORIENTED_EDGE ( 'NONE', *, *, #196, .F. ) ;
#226 = LOCAL_TIME ( 16, 38, 0.0000000000000000000, #102 ) ;
#227 = ORIENTED_EDGE ( 'NONE', *, *, #223, .F. ) ;
#228 = DIRECTION ( 'NONE',  ( 1.000000000000000000, 0.0000000000000000000, 0.0000000000000000000 ) ) ;
#229 = APPROVAL_STATUS ( 'not_yet_approved' ) ;
#230 = DATE_AND_TIME ( #4, #226 ) ;
#231 = CARTESIAN_POINT ( 'NONE',  ( -4.263256414560599900E-014, 2.842170943040400100E-014, 209.0999999999999900 ) ) ;
#232 = APPLICATION_CONTEXT ( 'configuration controlled 3d designs of mechanical parts and assemblies' ) ;
#233 = AXIS2_PLACEMENT_3D ( 'NONE', #184, #9, #109 ) ;
#234 = ORIENTED_EDGE ( 'NONE', *, *, #40, .T. ) ;
#235 = COORDINATED_UNIVERSAL_TIME_OFFSET ( 2, 0, .AHEAD. ) ;
ENDSEC;
END-ISO-10303-21;
