ISO-10303-21;
HEADER;
FILE_DESCRIPTION (( 'STEP AP203' ),
    '1' );
FILE_NAME ('110-5522E CaF2 pl-cx 50.8 F300.STEP',
    '2019-01-03T14:20:16',
    ( '' ),
    ( '' ),
    'SwSTEP 2.0',
    'SolidWorks 2017',
    '' );
FILE_SCHEMA (( 'CONFIG_CONTROL_DESIGN' ));
ENDSEC;

DATA;
#1 = ORIENTED_EDGE ( 'NONE', *, *, #226, .T. ) ;
#2 = DIRECTION ( 'NONE',  ( -0.0000000000000000000, -0.0000000000000000000, -1.000000000000000000 ) ) ;
#3 = PLANE ( 'NONE',  #98 ) ;
#4 = ORIENTED_EDGE ( 'NONE', *, *, #150, .F. ) ;
#5 = CC_DESIGN_APPROVAL ( #221, ( #143 ) ) ;
#6 = FACE_OUTER_BOUND ( 'NONE', #105, .T. ) ;
#7 = LOCAL_TIME ( 16, 20, 16.00000000000000000, #186 ) ;
#8 = PERSON_AND_ORGANIZATION ( #180, #128 ) ;
#9 = CARTESIAN_POINT ( 'NONE',  ( -1.421085471520200100E-014, 2.842170943040400100E-014, 125.5000000000000000 ) ) ;
#10 = PERSON_AND_ORGANIZATION ( #180, #128 ) ;
#11 = APPROVAL_STATUS ( 'not_yet_approved' ) ;
#12 = VERTEX_POINT ( 'NONE', #32 ) ;
#13 = PERSON_AND_ORGANIZATION_ROLE ( 'design_supplier' ) ;
#14 = DIRECTION ( 'NONE',  ( 0.0000000000000000000, 0.0000000000000000000, 1.000000000000000000 ) ) ;
#15 = ORIENTED_EDGE ( 'NONE', *, *, #91, .T. ) ;
#16 =( LENGTH_UNIT ( ) NAMED_UNIT ( * ) SI_UNIT ( .MILLI., .METRE. ) );
#17 = PERSON_AND_ORGANIZATION ( #180, #128 ) ;
#18 = AXIS2_PLACEMENT_3D ( 'NONE', #49, #116, #120 ) ;
#19 = ORIENTED_EDGE ( 'NONE', *, *, #198, .T. ) ;
#20 = APPROVAL_DATE_TIME ( #161, #191 ) ;
#21 = SHAPE_DEFINITION_REPRESENTATION ( #152, #220 ) ;
#22 = DIRECTION ( 'NONE',  ( 0.0000000000000000000, 0.0000000000000000000, 1.000000000000000000 ) ) ;
#23 = CARTESIAN_POINT ( 'NONE',  ( -16.77522118687477000, 25.70049218566124000, 3.520290841305330000 ) ) ;
#24 = DESIGN_CONTEXT ( 'detailed design', #181, 'design' ) ;
#25 = VERTEX_POINT ( 'NONE', #63 ) ;
#26 = CALENDAR_DATE ( 2019, 3, 1 ) ;
#27 = DIRECTION ( 'NONE',  ( 1.000000000000000000, 0.0000000000000000000, -0.0000000000000000000 ) ) ;
#28 = ORIENTED_EDGE ( 'NONE', *, *, #230, .F. ) ;
#29 = AXIS2_PLACEMENT_3D ( 'NONE', #9, #30, #192 ) ;
#30 = DIRECTION ( 'NONE',  ( 1.000000000000000000, 2.315424381500570000E-016, -3.391301625933740000E-017 ) ) ;
#31 = PERSON_AND_ORGANIZATION ( #180, #128 ) ;
#32 = CARTESIAN_POINT ( 'NONE',  ( 25.39999999999999900, 4.884981308350691100E-015, 2.597233554325559800 ) ) ;
#33 = PERSON_AND_ORGANIZATION_ROLE ( 'classification_officer' ) ;
#34 = DIRECTION ( 'NONE',  ( 1.000000000000000000, 0.0000000000000000000, 0.0000000000000000000 ) ) ;
#35 = CARTESIAN_POINT ( 'NONE',  ( -5.204170427930421300E-014, 25.70049218566124300, 2.659718734387586100 ) ) ;
#36 = CARTESIAN_POINT ( 'NONE',  ( -16.77522118687475600, -25.70049218566120400, 3.520290841305344200 ) ) ;
#37 = ADVANCED_FACE ( 'NONE', ( #149 ), #187, .T. ) ;
#38 = AXIS2_PLACEMENT_3D ( 'NONE', #140, #75, #175 ) ;
#39 = CARTESIAN_POINT ( 'NONE',  ( 17.26124226457324800, 8.689603106652869600, -0.01377342182629711000 ) ) ;
#40 = CARTESIAN_POINT ( 'NONE',  ( -1.648542361242227900E-014, -8.689603106652828800, -0.8992785044813913500 ) ) ;
#41 = CALENDAR_DATE ( 2019, 3, 1 ) ;
#42 = AXIS2_PLACEMENT_3D ( 'NONE', #79, #14, #34 ) ;
#43 = DIRECTION ( 'NONE',  ( -0.0000000000000000000, -0.0000000000000000000, -1.000000000000000000 ) ) ;
#44 = CIRCLE ( 'NONE', #176, 25.39999999999999900 ) ;
#45 = AXIS2_PLACEMENT_3D ( 'NONE', #114, #61, #118 ) ;
#46 = PERSON_AND_ORGANIZATION_ROLE ( 'creator' ) ;
#47 = APPROVAL_ROLE ( '' ) ;
#48 =( NAMED_UNIT ( * ) SI_UNIT ( $, .STERADIAN. ) SOLID_ANGLE_UNIT ( ) );
#49 = CARTESIAN_POINT ( 'NONE',  ( 9.992007221626412800E-016, 4.884981308350691100E-015, 2.597233554325559800 ) ) ;
#50 = AXIS2_PLACEMENT_3D ( 'NONE', #210, #43, #213 ) ;
#51 = ORIENTED_EDGE ( 'NONE', *, *, #102, .F. ) ;
#52 = CARTESIAN_POINT ( 'NONE',  ( -25.00877898716983300, 25.70049218566123600, 5.232399728831119000 ) ) ;
#53 = FACE_OUTER_BOUND ( 'NONE', #134, .T. ) ;
#54 = CARTESIAN_POINT ( 'NONE',  ( -4.857225732735060500E-014, 8.689603106652867800, -0.8992785044814009000 ) ) ;
#55 = COORDINATED_UNIVERSAL_TIME_OFFSET ( 2, 0, .AHEAD. ) ;
#56 = CC_DESIGN_PERSON_AND_ORGANIZATION_ASSIGNMENT ( #225, #13, ( #160 ) ) ;
#57 = CARTESIAN_POINT ( 'NONE',  ( -4.510281037539698400E-014, -8.689603106652830500, -0.8992785044813884600 ) ) ;
#58 = CARTESIAN_POINT ( 'NONE',  ( 25.73334730015147900, 8.689603106652873200, 1.747939640653894100 ) ) ;
#59 = CARTESIAN_POINT ( 'NONE',  ( 25.39999999999999900, 4.884981308350691100E-015, 5.599999999999999600 ) ) ;
#60 = ORIENTED_EDGE ( 'NONE', *, *, #102, .T. ) ;
#61 = DIRECTION ( 'NONE',  ( 0.0000000000000000000, 0.0000000000000000000, 1.000000000000000000 ) ) ;
#62 = APPROVAL_STATUS ( 'not_yet_approved' ) ;
#63 = CARTESIAN_POINT ( 'NONE',  ( -1.249768030298024900E-014, -25.40000000000000600, 2.597233554325561100 ) ) ;
#64 = MECHANICAL_CONTEXT ( 'NONE', #93, 'mechanical' ) ;
#65 = APPROVAL_STATUS ( 'not_yet_approved' ) ;
#66 = APPROVAL_ROLE ( '' ) ;
#67 = CC_DESIGN_PERSON_AND_ORGANIZATION_ASSIGNMENT ( #8, #33, ( #143 ) ) ;
#68 = LOCAL_TIME ( 16, 20, 16.00000000000000000, #117 ) ;
#69 = CARTESIAN_POINT ( 'NONE',  ( 9.992007221626412800E-016, 4.884981308350691100E-015, 2.597233554325559800 ) ) ;
#70 = CIRCLE ( 'NONE', #38, 25.39999999999999900 ) ;
#71 = CARTESIAN_POINT ( 'NONE',  ( 8.409684351599906900, -25.70049218566119700, 2.659718734387597600 ) ) ;
#72 = DIRECTION ( 'NONE',  ( 1.000000000000000000, 0.0000000000000000000, 0.0000000000000000000 ) ) ;
#73 = VERTEX_POINT ( 'NONE', #211 ) ;
#74 = APPROVAL ( #62, 'UNSPECIFIED' ) ;
#75 = DIRECTION ( 'NONE',  ( -0.0000000000000000000, -0.0000000000000000000, -1.000000000000000000 ) ) ;
#76 = AXIS2_PLACEMENT_3D ( 'NONE', #69, #233, #87 ) ;
#77 = DIRECTION ( 'NONE',  ( -0.0000000000000000000, -0.0000000000000000000, -1.000000000000000000 ) ) ;
#78 = APPROVAL_ROLE ( '' ) ;
#79 = CARTESIAN_POINT ( 'NONE',  ( 9.992007221626412800E-016, 4.884981308350691100E-015, 2.597233554325559800 ) ) ;
#80 = CC_DESIGN_PERSON_AND_ORGANIZATION_ASSIGNMENT ( #17, #46, ( #157 ) ) ;
#81 = APPROVAL_DATE_TIME ( #218, #74 ) ;
#82 = LOCAL_TIME ( 16, 20, 16.00000000000000000, #147 ) ;
#83 = PERSON_AND_ORGANIZATION ( #180, #128 ) ;
#84 = ORIENTED_EDGE ( 'NONE', *, *, #226, .F. ) ;
#85 = CARTESIAN_POINT ( 'NONE',  ( -8.653334423699576000, -8.689603106652834100, -0.8992785044813861300 ) ) ;
#86 = LOCAL_TIME ( 16, 20, 16.00000000000000000, #199 ) ;
#87 = DIRECTION ( 'NONE',  ( 1.000000000000000000, 0.0000000000000000000, 0.0000000000000000000 ) ) ;
#88 = FACE_OUTER_BOUND ( 'NONE', #156, .T. ) ;
#89 = CARTESIAN_POINT ( 'NONE',  ( 8.653334423699520900, -8.689603106652828800, -0.8992785044813917900 ) ) ;
#90 = CARTESIAN_POINT ( 'NONE',  ( 25.00877898716978000, 25.70049218566124700, 5.232399728831103900 ) ) ;
#91 = EDGE_CURVE ( 'NONE', #166, #178, #234, .T. ) ;
#92 = FACE_OUTER_BOUND ( 'NONE', #212, .T. ) ;
#93 = APPLICATION_CONTEXT ( 'configuration controlled 3d designs of mechanical parts and assemblies' ) ;
#94 = CARTESIAN_POINT ( 'NONE',  ( 9.992007221626412800E-016, 4.884981308350691100E-015, 2.597233554325559800 ) ) ;
#95 = ORIENTED_EDGE ( 'NONE', *, *, #146, .T. ) ;
#96 = APPLICATION_PROTOCOL_DEFINITION ( 'international standard', 'config_control_design', 1994, #181 ) ;
#97 = SECURITY_CLASSIFICATION_LEVEL ( 'unclassified' ) ;
#98 = AXIS2_PLACEMENT_3D ( 'NONE', #219, #136, #27 ) ;
#99 = ORIENTED_EDGE ( 'NONE', *, *, #130, .T. ) ;
#100 = CALENDAR_DATE ( 2019, 3, 1 ) ;
#101 = DIRECTION ( 'NONE',  ( 0.0000000000000000000, 0.0000000000000000000, 1.000000000000000000 ) ) ;
#102 = EDGE_CURVE ( 'NONE', #12, #25, #182, .T. ) ;
#103 = CARTESIAN_POINT ( 'NONE',  ( -8.409684351599969100, 25.70049218566124000, 2.659718734387588300 ) ) ;
#104 = ADVANCED_FACE ( 'NONE', ( #53 ), #162, .T. ) ;
#105 = EDGE_LOOP ( 'NONE', ( #227, #224 ) ) ;
#106 = CARTESIAN_POINT ( 'NONE',  ( -25.73334730015153200, 8.689603106652862500, 1.747939640653909400 ) ) ;
#107 = CIRCLE ( 'NONE', #76, 25.39999999999999900 ) ;
#108 =( GEOMETRIC_REPRESENTATION_CONTEXT ( 3 ) GLOBAL_UNCERTAINTY_ASSIGNED_CONTEXT ( ( #174 ) ) GLOBAL_UNIT_ASSIGNED_CONTEXT ( ( #16, #122, #48 ) ) REPRESENTATION_CONTEXT ( 'NONE', 'WORKASPACE' ) );
#109 = CARTESIAN_POINT ( 'NONE',  ( 25.39999999999999900, 4.884981308350691100E-015, 2.597233554325559800 ) ) ;
#110 = LINE ( 'NONE', #109, #141 ) ;
#111 = CARTESIAN_POINT ( 'NONE',  ( -25.39999999999999900, 7.995584178184967200E-015, 5.599999999999999600 ) ) ;
#112 = APPROVAL_DATE_TIME ( #163, #221 ) ;
#113 = CARTESIAN_POINT ( 'NONE',  ( 9.992007221626412800E-016, 4.884981308350691100E-015, 5.599999999999999600 ) ) ;
#114 = CARTESIAN_POINT ( 'NONE',  ( 0.0000000000000000000, 0.0000000000000000000, 0.0000000000000000000 ) ) ;
#115 = CC_DESIGN_DATE_AND_TIME_ASSIGNMENT ( #139, #196, ( #157 ) ) ;
#116 = DIRECTION ( 'NONE',  ( -0.0000000000000000000, -0.0000000000000000000, -1.000000000000000000 ) ) ;
#117 = COORDINATED_UNIVERSAL_TIME_OFFSET ( 2, 0, .AHEAD. ) ;
#118 = DIRECTION ( 'NONE',  ( 1.000000000000000000, 0.0000000000000000000, 0.0000000000000000000 ) ) ;
#119 = EDGE_CURVE ( 'NONE', #25, #73, #107, .T. ) ;
#120 = DIRECTION ( 'NONE',  ( 1.000000000000000000, 0.0000000000000000000, 0.0000000000000000000 ) ) ;
#121 = PERSON_AND_ORGANIZATION_ROLE ( 'creator' ) ;
#122 =( NAMED_UNIT ( * ) PLANE_ANGLE_UNIT ( ) SI_UNIT ( $, .RADIAN. ) );
#123 = PRODUCT_RELATED_PRODUCT_CATEGORY ( 'detail', '', ( #229 ) ) ;
#124 = MANIFOLD_SOLID_BREP ( 'Imported1', #127 ) ;
#125 = ORIENTED_EDGE ( 'NONE', *, *, #119, .T. ) ;
#126 = CARTESIAN_POINT ( 'NONE',  ( -8.409684351599958400, -25.70049218566120400, 2.659718734387603400 ) ) ;
#127 = CLOSED_SHELL ( 'NONE', ( #165, #37, #132, #104, #183 ) ) ;
#128 = ORGANIZATION ( 'UNSPECIFIED', 'UNSPECIFIED', '' ) ;
#129 = CARTESIAN_POINT ( 'NONE',  ( -2.426003616100315800E-014, 25.40000000000003800, 2.597233554325561100 ) ) ;
#130 = EDGE_CURVE ( 'NONE', #73, #166, #155, .T. ) ;
#131 = CARTESIAN_POINT ( 'NONE',  ( -25.39999999999999900, 7.995584178184967200E-015, 2.597233554325559800 ) ) ;
#132 = ADVANCED_FACE ( 'NONE', ( #92 ), #194, .T. ) ;
#133 = CARTESIAN_POINT ( 'NONE',  ( -2.050944739216370300E-014, 8.689603106652869600, -0.8992785044814032300 ) ) ;
#134 = EDGE_LOOP ( 'NONE', ( #202, #200, #51, #217, #95 ) ) ;
#135 = CALENDAR_DATE ( 2019, 3, 1 ) ;
#136 = DIRECTION ( 'NONE',  ( 0.0000000000000000000, 0.0000000000000000000, 1.000000000000000000 ) ) ;
#137 = CARTESIAN_POINT ( 'NONE',  ( 25.00877898716978700, -25.70049218566119400, 5.232399728831117300 ) ) ;
#138 = CC_DESIGN_SECURITY_CLASSIFICATION ( #143, ( #160 ) ) ;
#139 = DATE_AND_TIME ( #100, #82 ) ;
#140 = CARTESIAN_POINT ( 'NONE',  ( 9.992007221626412800E-016, 4.884981308350691100E-015, 2.597233554325559800 ) ) ;
#141 = VECTOR ( 'NONE', #153, 1000.000000000000000 ) ;
#142 = DIRECTION ( 'NONE',  ( 1.000000000000000000, 0.0000000000000000000, 0.0000000000000000000 ) ) ;
#143 = SECURITY_CLASSIFICATION ( '', '', #97 ) ;
#144 = VERTEX_POINT ( 'NONE', #129 ) ;
#145 = PERSON_AND_ORGANIZATION_ROLE ( 'design_owner' ) ;
#146 = EDGE_CURVE ( 'NONE', #178, #166, #44, .T. ) ;
#147 = COORDINATED_UNIVERSAL_TIME_OFFSET ( 2, 0, .AHEAD. ) ;
#148 = CC_DESIGN_PERSON_AND_ORGANIZATION_ASSIGNMENT ( #10, #145, ( #229 ) ) ;
#149 = FACE_OUTER_BOUND ( 'NONE', #171, .T. ) ;
#150 = EDGE_CURVE ( 'NONE', #12, #178, #110, .T. ) ;
#151 = LOCAL_TIME ( 16, 20, 16.00000000000000000, #55 ) ;
#152 = PRODUCT_DEFINITION_SHAPE ( 'NONE', 'NONE',  #157 ) ;
#153 = DIRECTION ( 'NONE',  ( 0.0000000000000000000, 0.0000000000000000000, 1.000000000000000000 ) ) ;
#154 = ORIENTED_EDGE ( 'NONE', *, *, #198, .F. ) ;
#155 = LINE ( 'NONE', #131, #170 ) ;
#156 = EDGE_LOOP ( 'NONE', ( #60, #19, #1 ) ) ;
#157 = PRODUCT_DEFINITION ( 'UNKNOWN', '', #160, #24 ) ;
#158 = DATE_TIME_ROLE ( 'classification_date' ) ;
#159 = ORIENTED_EDGE ( 'NONE', *, *, #230, .T. ) ;
#160 = PRODUCT_DEFINITION_FORMATION_WITH_SPECIFIED_SOURCE ( 'ANY', '', #229, .NOT_KNOWN. ) ;
#161 = DATE_AND_TIME ( #41, #86 ) ;
#162 = CYLINDRICAL_SURFACE ( 'NONE', #42, 25.39999999999999900 ) ;
#163 = DATE_AND_TIME ( #214, #68 ) ;
#164 = CARTESIAN_POINT ( 'NONE',  ( -25.00877898716981900, -25.70049218566120800, 5.232399728831133200 ) ) ;
#165 = ADVANCED_FACE ( 'NONE', ( #88 ), #204, .T. ) ;
#166 = VERTEX_POINT ( 'NONE', #111 ) ;
#167 = CARTESIAN_POINT ( 'NONE',  ( -17.26124226457329100, -8.689603106652835900, -0.01377342182626979000 ) ) ;
#168 = CARTESIAN_POINT ( 'NONE',  ( -1.242598454873980500E-014, -25.70049218566120100, 2.659718734387597600 ) ) ;
#169 = CARTESIAN_POINT ( 'NONE',  ( 25.73334730015147900, -8.689603106652823400, 1.747939640653905400 ) ) ;
#170 = VECTOR ( 'NONE', #22, 1000.000000000000000 ) ;
#171 = EDGE_LOOP ( 'NONE', ( #28, #99, #15, #4, #84 ) ) ;
#172 = APPROVAL_PERSON_ORGANIZATION ( #31, #221, #47 ) ;
#173 = CARTESIAN_POINT ( 'NONE',  ( 16.77522118687470600, 25.70049218566124700, 3.520290841305314400 ) ) ;
#174 = UNCERTAINTY_MEASURE_WITH_UNIT (LENGTH_MEASURE( 1.000000000000000100E-005 ), #16, 'distance_accuracy_value', 'NONE');
#175 = DIRECTION ( 'NONE',  ( 1.000000000000000000, 8.881784197001252300E-016, 0.0000000000000000000 ) ) ;
#176 = AXIS2_PLACEMENT_3D ( 'NONE', #113, #2, #72 ) ;
#177 = DIRECTION ( 'NONE',  ( 1.000000000000000000, 0.0000000000000000000, 0.0000000000000000000 ) ) ;
#178 = VERTEX_POINT ( 'NONE', #59 ) ;
#179 = DATE_AND_TIME ( #135, #151 ) ;
#180 = PERSON ( 'UNSPECIFIED', 'UNSPECIFIED', 'UNSPECIFIED', ('UNSPECIFIED'), ('UNSPECIFIED'), ('UNSPECIFIED') ) ;
#181 = APPLICATION_CONTEXT ( 'configuration controlled 3d designs of mechanical parts and assemblies' ) ;
#182 = CIRCLE ( 'NONE', #18, 25.39999999999999900 ) ;
#183 = ADVANCED_FACE ( 'NONE', ( #6 ), #3, .T. ) ;
#184 = CARTESIAN_POINT ( 'NONE',  ( -4.163336342344337000E-014, -25.70049218566120100, 2.659718734387600800 ) ) ;
#185 = CARTESIAN_POINT ( 'NONE',  ( -17.26124226457329800, 8.689603106652862500, -0.01377342182628171400 ) ) ;
#186 = COORDINATED_UNIVERSAL_TIME_OFFSET ( 2, 0, .AHEAD. ) ;
#187 = CYLINDRICAL_SURFACE ( 'NONE', #235, 25.39999999999999900 ) ;
#188 = CARTESIAN_POINT ( 'NONE',  ( 8.409684351599896200, 25.70049218566124700, 2.659718734387583400 ) ) ;
#189 = CARTESIAN_POINT ( 'NONE',  ( -2.432749379338878000E-014, 25.70049218566124300, 2.659718734387583900 ) ) ;
#190 = CARTESIAN_POINT ( 'NONE',  ( 17.26124226457325200, -8.689603106652827000, -0.01377342182628561700 ) ) ;
#191 = APPROVAL ( #11, 'UNSPECIFIED' ) ;
#192 = DIRECTION ( 'NONE',  ( 2.315424381500570500E-016, -1.000000000000000000, 0.0000000000000000000 ) ) ;
#193 = PERSON_AND_ORGANIZATION ( #180, #128 ) ;
#194 =( BOUNDED_SURFACE ( )  B_SPLINE_SURFACE ( 3, 3, ( 
 ( #164, #36, #126, #184 ),
 ( #203, #167, #85, #57 ),
 ( #106, #185, #205, #54 ),
 ( #52, #23, #103, #35 ) ),
 .UNSPECIFIED., .F., .F., .F. ) 
 B_SPLINE_SURFACE_WITH_KNOTS ( ( 4, 4 ),
 ( 4, 4 ),
 ( 0.0000000000000000000, 1.000000000000000000 ),
 ( 0.0000000000000000000, 1.000000000000000000 ),
 .UNSPECIFIED. ) 
 GEOMETRIC_REPRESENTATION_ITEM ( )  RATIONAL_B_SPLINE_SURFACE ( (
 ( 1.000000000000000000, 0.9965002637055607700, 0.9965002637055607700, 1.000000000000000000),
 ( 0.9858713480245013800, 0.9824210582861723200, 0.9824210582861723200, 0.9858713480245013800),
 ( 0.9858713480245013800, 0.9824210582861723200, 0.9824210582861723200, 0.9858713480245013800),
 ( 1.000000000000000000, 0.9965002637055607700, 0.9965002637055607700, 1.000000000000000000) ) ) 
 REPRESENTATION_ITEM ( '' )  SURFACE ( )  );
#195 = APPLICATION_PROTOCOL_DEFINITION ( 'international standard', 'config_control_design', 1994, #93 ) ;
#196 = DATE_TIME_ROLE ( 'creation_date' ) ;
#197 = CC_DESIGN_DATE_AND_TIME_ASSIGNMENT ( #179, #158, ( #143 ) ) ;
#198 = EDGE_CURVE ( 'NONE', #25, #144, #223, .T. ) ;
#199 = COORDINATED_UNIVERSAL_TIME_OFFSET ( 2, 0, .AHEAD. ) ;
#200 = ORIENTED_EDGE ( 'NONE', *, *, #119, .F. ) ;
#201 = CC_DESIGN_APPROVAL ( #74, ( #160 ) ) ;
#202 = ORIENTED_EDGE ( 'NONE', *, *, #130, .F. ) ;
#203 = CARTESIAN_POINT ( 'NONE',  ( -25.73334730015152500, -8.689603106652835900, 1.747939640653921200 ) ) ;
#204 =( BOUNDED_SURFACE ( )  B_SPLINE_SURFACE ( 3, 3, ( 
 ( #168, #71, #206, #137 ),
 ( #40, #89, #190, #169 ),
 ( #133, #222, #39, #58 ),
 ( #189, #188, #173, #90 ) ),
 .UNSPECIFIED., .F., .F., .F. ) 
 B_SPLINE_SURFACE_WITH_KNOTS ( ( 4, 4 ),
 ( 4, 4 ),
 ( 0.0000000000000000000, 1.000000000000000000 ),
 ( 0.0000000000000000000, 1.000000000000000000 ),
 .UNSPECIFIED. ) 
 GEOMETRIC_REPRESENTATION_ITEM ( )  RATIONAL_B_SPLINE_SURFACE ( (
 ( 1.000000000000000000, 0.9965002637055607700, 0.9965002637055607700, 1.000000000000000000),
 ( 0.9858713480245013800, 0.9824210582861723200, 0.9824210582861723200, 0.9858713480245013800),
 ( 0.9858713480245013800, 0.9824210582861723200, 0.9824210582861723200, 0.9858713480245013800),
 ( 1.000000000000000000, 0.9965002637055607700, 0.9965002637055607700, 1.000000000000000000) ) ) 
 REPRESENTATION_ITEM ( '' )  SURFACE ( )  );
#205 = CARTESIAN_POINT ( 'NONE',  ( -8.653334423699581300, 8.689603106652862500, -0.8992785044813987900 ) ) ;
#206 = CARTESIAN_POINT ( 'NONE',  ( 16.77522118687471300, -25.70049218566119700, 3.520290841305328700 ) ) ;
#207 = CC_DESIGN_APPROVAL ( #191, ( #157 ) ) ;
#208 = APPROVAL_PERSON_ORGANIZATION ( #83, #191, #66 ) ;
#209 = AXIS2_PLACEMENT_3D ( 'NONE', #231, #77, #142 ) ;
#210 = CARTESIAN_POINT ( 'NONE',  ( 9.992007221626412800E-016, 4.884981308350691100E-015, 2.597233554325559800 ) ) ;
#211 = CARTESIAN_POINT ( 'NONE',  ( -25.39999999999999900, 7.995584178184967200E-015, 2.597233554325559800 ) ) ;
#212 = EDGE_LOOP ( 'NONE', ( #154, #125, #159 ) ) ;
#213 = DIRECTION ( 'NONE',  ( 1.000000000000000000, 0.0000000000000000000, 0.0000000000000000000 ) ) ;
#214 = CALENDAR_DATE ( 2019, 3, 1 ) ;
#215 = CC_DESIGN_PERSON_AND_ORGANIZATION_ASSIGNMENT ( #228, #121, ( #160 ) ) ;
#216 = CIRCLE ( 'NONE', #50, 25.39999999999999900 ) ;
#217 = ORIENTED_EDGE ( 'NONE', *, *, #150, .T. ) ;
#218 = DATE_AND_TIME ( #26, #7 ) ;
#219 = CARTESIAN_POINT ( 'NONE',  ( 0.0000000000000000000, 52.02000000000000300, 5.599999999999999600 ) ) ;
#220 = ADVANCED_BREP_SHAPE_REPRESENTATION ( '110-5522E CaF2 pl-cx 50.8 F300', ( #124, #45 ), #108 ) ;
#221 = APPROVAL ( #65, 'UNSPECIFIED' ) ;
#222 = CARTESIAN_POINT ( 'NONE',  ( 8.653334423699517300, 8.689603106652867800, -0.8992785044814034500 ) ) ;
#223 = CIRCLE ( 'NONE', #29, 125.5000000000000000 ) ;
#224 = ORIENTED_EDGE ( 'NONE', *, *, #91, .F. ) ;
#225 = PERSON_AND_ORGANIZATION ( #180, #128 ) ;
#226 = EDGE_CURVE ( 'NONE', #144, #12, #70, .T. ) ;
#227 = ORIENTED_EDGE ( 'NONE', *, *, #146, .F. ) ;
#228 = PERSON_AND_ORGANIZATION ( #180, #128 ) ;
#229 = PRODUCT ( '110-5522E CaF2 pl-cx 50.8 F300', '110-5522E CaF2 pl-cx 50.8 F300', '', ( #64 ) ) ;
#230 = EDGE_CURVE ( 'NONE', #73, #144, #216, .T. ) ;
#231 = CARTESIAN_POINT ( 'NONE',  ( 9.992007221626412800E-016, 4.884981308350691100E-015, 5.599999999999999600 ) ) ;
#232 = APPROVAL_PERSON_ORGANIZATION ( #193, #74, #78 ) ;
#233 = DIRECTION ( 'NONE',  ( -0.0000000000000000000, -0.0000000000000000000, -1.000000000000000000 ) ) ;
#234 = CIRCLE ( 'NONE', #209, 25.39999999999999900 ) ;
#235 = AXIS2_PLACEMENT_3D ( 'NONE', #94, #101, #177 ) ;
ENDSEC;
END-ISO-10303-21;
