ISO-10303-21;
HEADER;
FILE_DESCRIPTION (( 'STEP AP203' ),
    '1' );
FILE_NAME ('110-5520E CaF2 pl-cx 50.8 F250.STEP',
    '2019-01-03T14:07:27',
    ( '' ),
    ( '' ),
    'SwSTEP 2.0',
    'SolidWorks 2017',
    '' );
FILE_SCHEMA (( 'CONFIG_CONTROL_DESIGN' ));
ENDSEC;

DATA;
#1 = APPROVAL_STATUS ( 'not_yet_approved' ) ;
#2 = CC_DESIGN_PERSON_AND_ORGANIZATION_ASSIGNMENT ( #18, #144, ( #180 ) ) ;
#3 = EDGE_CURVE ( 'NONE', #176, #47, #45, .T. ) ;
#4 = APPROVAL_ROLE ( '' ) ;
#5 = COORDINATED_UNIVERSAL_TIME_OFFSET ( 2, 0, .AHEAD. ) ;
#6 = ORIENTED_EDGE ( 'NONE', *, *, #3, .F. ) ;
#7 = CC_DESIGN_DATE_AND_TIME_ASSIGNMENT ( #135, #126, ( #49 ) ) ;
#8 = CARTESIAN_POINT ( 'NONE',  ( 17.36442491719062200, -8.744871203151149100, -0.01841210149840970300 ) ) ;
#9 = AXIS2_PLACEMENT_3D ( 'NONE', #157, #37, #163 ) ;
#10 = LOCAL_TIME ( 16, 7, 27.00000000000000000, #5 ) ;
#11 = FACE_OUTER_BOUND ( 'NONE', #111, .T. ) ;
#12 = CARTESIAN_POINT ( 'NONE',  ( 25.81577784183630800, 8.744871203151152600, 2.110371590584537500 ) ) ;
#13 = ADVANCED_FACE ( 'NONE', ( #11 ), #214, .T. ) ;
#14 = CARTESIAN_POINT ( 'NONE',  ( 25.39999999999999900, 4.884981308350691100E-015, 5.599999999999999600 ) ) ;
#15 = UNCERTAINTY_MEASURE_WITH_UNIT (LENGTH_MEASURE( 1.000000000000000100E-005 ), #32, 'distance_accuracy_value', 'NONE');
#16 = CALENDAR_DATE ( 2019, 3, 1 ) ;
#17 = DIRECTION ( 'NONE',  ( -0.0000000000000000000, -0.0000000000000000000, -1.000000000000000000 ) ) ;
#18 = PERSON_AND_ORGANIZATION ( #213, #101 ) ;
#19 = ORIENTED_EDGE ( 'NONE', *, *, #143, .T. ) ;
#20 = CARTESIAN_POINT ( 'NONE',  ( -4.510281037539699100E-014, -8.744871203151145500, -1.090956647572749900 ) ) ;
#21 = PERSON_AND_ORGANIZATION ( #213, #101 ) ;
#22 = PERSON_AND_ORGANIZATION ( #213, #101 ) ;
#23 = CARTESIAN_POINT ( 'NONE',  ( -3.093734476690406100E-015, 25.39999999999999100, 3.130792848273425700 ) ) ;
#24 = CARTESIAN_POINT ( 'NONE',  ( 16.65846025430220200, -25.69855230036960600, 4.234933597156903300 ) ) ;
#25 = ORIENTED_EDGE ( 'NONE', *, *, #143, .F. ) ;
#26 = ADVANCED_FACE ( 'NONE', ( #93 ), #39, .T. ) ;
#27 = DIRECTION ( 'NONE',  ( -0.0000000000000000000, -0.0000000000000000000, -1.000000000000000000 ) ) ;
#28 = DIRECTION ( 'NONE',  ( 0.0000000000000000000, 0.0000000000000000000, 1.000000000000000000 ) ) ;
#29 = LINE ( 'NONE', #224, #199 ) ;
#30 = AXIS2_PLACEMENT_3D ( 'NONE', #207, #81, #186 ) ;
#31 = CARTESIAN_POINT ( 'NONE',  ( 0.0000000000000000000, 52.02000000000000300, 5.599999999999999600 ) ) ;
#32 =( LENGTH_UNIT ( ) NAMED_UNIT ( * ) SI_UNIT ( .MILLI., .METRE. ) );
#33 = CARTESIAN_POINT ( 'NONE',  ( -8.361007261455140900, 25.69855230036962000, 3.205994212354122700 ) ) ;
#34 = CIRCLE ( 'NONE', #72, 25.39999999999999900 ) ;
#35 = EDGE_LOOP ( 'NONE', ( #6, #19, #56, #62, #108 ) ) ;
#36 = AXIS2_PLACEMENT_3D ( 'NONE', #73, #220, #54 ) ;
#37 = DIRECTION ( 'NONE',  ( -0.0000000000000000000, -0.0000000000000000000, -1.000000000000000000 ) ) ;
#38 = DESIGN_CONTEXT ( 'detailed design', #40, 'design' ) ;
#39 = CYLINDRICAL_SURFACE ( 'NONE', #192, 25.39999999999999900 ) ;
#40 = APPLICATION_CONTEXT ( 'configuration controlled 3d designs of mechanical parts and assemblies' ) ;
#41 = EDGE_CURVE ( 'NONE', #184, #127, #29, .T. ) ;
#42 = COORDINATED_UNIVERSAL_TIME_OFFSET ( 2, 0, .AHEAD. ) ;
#43 = APPROVAL_DATE_TIME ( #149, #57 ) ;
#44 = CARTESIAN_POINT ( 'NONE',  ( -8.734203975641003800E-015, 8.744871203151156200, -1.090956647572771200 ) ) ;
#45 = CIRCLE ( 'NONE', #66, 25.39999999999999900 ) ;
#46 = CC_DESIGN_PERSON_AND_ORGANIZATION_ASSIGNMENT ( #21, #77, ( #85 ) ) ;
#47 = VERTEX_POINT ( 'NONE', #23 ) ;
#48 = ADVANCED_BREP_SHAPE_REPRESENTATION ( '110-5520E CaF2 pl-cx 50.8 F250', ( #138, #177 ), #88 ) ;
#49 = PRODUCT_DEFINITION ( 'UNKNOWN', '', #180, #38 ) ;
#50 = FACE_OUTER_BOUND ( 'NONE', #169, .T. ) ;
#51 =( NAMED_UNIT ( * ) SI_UNIT ( $, .STERADIAN. ) SOLID_ANGLE_UNIT ( ) );
#52 = EDGE_CURVE ( 'NONE', #228, #47, #142, .T. ) ;
#53 = PERSON_AND_ORGANIZATION_ROLE ( 'design_owner' ) ;
#54 = DIRECTION ( 'NONE',  ( 1.000000000000000000, 8.881784197001252300E-016, 0.0000000000000000000 ) ) ;
#55 = PERSON_AND_ORGANIZATION ( #213, #101 ) ;
#56 = ORIENTED_EDGE ( 'NONE', *, *, #226, .T. ) ;
#57 = APPROVAL ( #78, 'UNSPECIFIED' ) ;
#58 = APPROVAL_ROLE ( '' ) ;
#59 = DATE_AND_TIME ( #16, #203 ) ;
#60 = DATE_TIME_ROLE ( 'classification_date' ) ;
#61 = APPROVAL_STATUS ( 'not_yet_approved' ) ;
#62 = ORIENTED_EDGE ( 'NONE', *, *, #41, .F. ) ;
#63 = CARTESIAN_POINT ( 'NONE',  ( 8.715336268015999400, 8.744871203151152600, -1.090956647572773400 ) ) ;
#64 = APPROVAL ( #1, 'UNSPECIFIED' ) ;
#65 = APPROVAL_PERSON_ORGANIZATION ( #234, #64, #58 ) ;
#66 = AXIS2_PLACEMENT_3D ( 'NONE', #154, #68, #84 ) ;
#67 = EDGE_LOOP ( 'NONE', ( #227, #134, #123 ) ) ;
#68 = DIRECTION ( 'NONE',  ( -0.0000000000000000000, -0.0000000000000000000, -1.000000000000000000 ) ) ;
#69 = CARTESIAN_POINT ( 'NONE',  ( 9.992007221626412800E-016, 4.884981308350691100E-015, 3.130792848273420000 ) ) ;
#70 = PERSON_AND_ORGANIZATION ( #213, #101 ) ;
#71 = CARTESIAN_POINT ( 'NONE',  ( -16.65846025430221300, -25.69855230036959900, 4.234933597156916600 ) ) ;
#72 = AXIS2_PLACEMENT_3D ( 'NONE', #141, #17, #160 ) ;
#73 = CARTESIAN_POINT ( 'NONE',  ( 9.992007221626412800E-016, 4.884981308350691100E-015, 3.130792848273420000 ) ) ;
#74 = PERSON_AND_ORGANIZATION_ROLE ( 'creator' ) ;
#75 = APPLICATION_PROTOCOL_DEFINITION ( 'international standard', 'config_control_design', 1994, #40 ) ;
#76 = CALENDAR_DATE ( 2019, 3, 1 ) ;
#77 = PERSON_AND_ORGANIZATION_ROLE ( 'classification_officer' ) ;
#78 = APPROVAL_STATUS ( 'not_yet_approved' ) ;
#79 = CARTESIAN_POINT ( 'NONE',  ( 8.715336268015992300, -8.744871203151145500, -1.090956647572761900 ) ) ;
#80 = DIRECTION ( 'NONE',  ( 1.000000000000000000, 0.0000000000000000000, 0.0000000000000000000 ) ) ;
#81 = DIRECTION ( 'NONE',  ( 1.000000000000000000, -2.778066538033659800E-016, -2.400814875991999800E-016 ) ) ;
#82 = DIRECTION ( 'NONE',  ( 0.0000000000000000000, 0.0000000000000000000, 1.000000000000000000 ) ) ;
#83 = VECTOR ( 'NONE', #28, 1000.000000000000000 ) ;
#84 = DIRECTION ( 'NONE',  ( 1.000000000000000000, 0.0000000000000000000, 0.0000000000000000000 ) ) ;
#85 = SECURITY_CLASSIFICATION ( '', '', #166 ) ;
#86 = CARTESIAN_POINT ( 'NONE',  ( -25.39999999999999900, 7.995584178184967200E-015, 3.130792848273420000 ) ) ;
#87 = CARTESIAN_POINT ( 'NONE',  ( 0.0000000000000000000, 0.0000000000000000000, 0.0000000000000000000 ) ) ;
#88 =( GEOMETRIC_REPRESENTATION_CONTEXT ( 3 ) GLOBAL_UNCERTAINTY_ASSIGNED_CONTEXT ( ( #15 ) ) GLOBAL_UNIT_ASSIGNED_CONTEXT ( ( #32, #120, #51 ) ) REPRESENTATION_CONTEXT ( 'NONE', 'WORKASPACE' ) );
#89 = ORIENTED_EDGE ( 'NONE', *, *, #153, .F. ) ;
#90 = CARTESIAN_POINT ( 'NONE',  ( -3.816391647148976200E-014, 8.744871203151156200, -1.090956647572763200 ) ) ;
#91 = CARTESIAN_POINT ( 'NONE',  ( -16.65846025430220200, 25.69855230036962000, 4.234933597156903300 ) ) ;
#92 = CARTESIAN_POINT ( 'NONE',  ( -3.122502256758252800E-014, 25.69855230036961700, 3.205994212354118700 ) ) ;
#93 = FACE_OUTER_BOUND ( 'NONE', #35, .T. ) ;
#94 = CC_DESIGN_DATE_AND_TIME_ASSIGNMENT ( #59, #60, ( #85 ) ) ;
#95 = COORDINATED_UNIVERSAL_TIME_OFFSET ( 2, 0, .AHEAD. ) ;
#96 = AXIS2_PLACEMENT_3D ( 'NONE', #200, #106, #179 ) ;
#97 = APPROVAL_PERSON_ORGANIZATION ( #22, #57, #222 ) ;
#98 =( BOUNDED_SURFACE ( )  B_SPLINE_SURFACE ( 3, 3, ( 
 ( #225, #100, #24, #133 ),
 ( #170, #79, #8, #130 ),
 ( #44, #63, #185, #12 ),
 ( #116, #211, #193, #191 ) ),
 .UNSPECIFIED., .F., .F., .T. ) 
 B_SPLINE_SURFACE_WITH_KNOTS ( ( 4, 4 ),
 ( 4, 4 ),
 ( 0.0000000000000000000, 1.000000000000000000 ),
 ( 0.0000000000000000000, 1.000000000000000000 ),
 .UNSPECIFIED. ) 
 GEOMETRIC_REPRESENTATION_ITEM ( )  RATIONAL_B_SPLINE_SURFACE ( (
 ( 1.000000000000000000, 0.9949324870699864900, 0.9949324870699864900, 1.000000000000000000),
 ( 0.9795666398192853800, 0.9746026732061913200, 0.9746026732061913200, 0.9795666398192853800),
 ( 0.9795666398192853800, 0.9746026732061913200, 0.9746026732061913200, 0.9795666398192853800),
 ( 1.000000000000000000, 0.9949324870699864900, 0.9949324870699864900, 1.000000000000000000) ) ) 
 REPRESENTATION_ITEM ( '' )  SURFACE ( )  );
#99 = CC_DESIGN_APPROVAL ( #64, ( #49 ) ) ;
#100 = CARTESIAN_POINT ( 'NONE',  ( 8.361007261455112500, -25.69855230036960600, 3.205994212354121400 ) ) ;
#101 = ORGANIZATION ( 'UNSPECIFIED', 'UNSPECIFIED', '' ) ;
#102 = CYLINDRICAL_SURFACE ( 'NONE', #96, 25.39999999999999900 ) ;
#103 = DIRECTION ( 'NONE',  ( 1.000000000000000000, 0.0000000000000000000, -0.0000000000000000000 ) ) ;
#104 = COORDINATED_UNIVERSAL_TIME_OFFSET ( 2, 0, .AHEAD. ) ;
#105 = CARTESIAN_POINT ( 'NONE',  ( -8.715336268016024200, 8.744871203151156200, -1.090956647572758300 ) ) ;
#106 = DIRECTION ( 'NONE',  ( 0.0000000000000000000, 0.0000000000000000000, 1.000000000000000000 ) ) ;
#107 = SHAPE_DEFINITION_REPRESENTATION ( #223, #48 ) ;
#108 = ORIENTED_EDGE ( 'NONE', *, *, #159, .F. ) ;
#109 = PERSON_AND_ORGANIZATION ( #213, #101 ) ;
#110 = ORIENTED_EDGE ( 'NONE', *, *, #171, .F. ) ;
#111 = EDGE_LOOP ( 'NONE', ( #110, #165 ) ) ;
#112 = APPROVAL_DATE_TIME ( #187, #64 ) ;
#113 = ORIENTED_EDGE ( 'NONE', *, *, #129, .F. ) ;
#114 = AXIS2_PLACEMENT_3D ( 'NONE', #31, #175, #103 ) ;
#115 = ADVANCED_FACE ( 'NONE', ( #136 ), #98, .T. ) ;
#116 = CARTESIAN_POINT ( 'NONE',  ( -2.992740205781454400E-015, 25.69855230036961700, 3.205994212354110300 ) ) ;
#117 = CC_DESIGN_PERSON_AND_ORGANIZATION_ASSIGNMENT ( #70, #74, ( #49 ) ) ;
#118 = CARTESIAN_POINT ( 'NONE',  ( -8.361007261455149800, -25.69855230036959900, 3.205994212354137400 ) ) ;
#119 = CARTESIAN_POINT ( 'NONE',  ( -17.36442491719062500, -8.744871203151138400, -0.01841210149839496400 ) ) ;
#120 =( NAMED_UNIT ( * ) PLANE_ANGLE_UNIT ( ) SI_UNIT ( $, .RADIAN. ) );
#121 = CARTESIAN_POINT ( 'NONE',  ( -25.81577784183627600, -8.744871203151138400, 2.110371590584557500 ) ) ;
#122 = PRODUCT_RELATED_PRODUCT_CATEGORY ( 'detail', '', ( #151 ) ) ;
#123 = ORIENTED_EDGE ( 'NONE', *, *, #3, .T. ) ;
#124 = AXIS2_PLACEMENT_3D ( 'NONE', #212, #27, #137 ) ;
#125 = CIRCLE ( 'NONE', #9, 25.39999999999999900 ) ;
#126 = DATE_TIME_ROLE ( 'creation_date' ) ;
#127 = VERTEX_POINT ( 'NONE', #14 ) ;
#128 = CLOSED_SHELL ( 'NONE', ( #115, #26, #194, #190, #13 ) ) ;
#129 = EDGE_CURVE ( 'NONE', #184, #228, #174, .T. ) ;
#130 = CARTESIAN_POINT ( 'NONE',  ( 25.81577784183630100, -8.744871203151152600, 2.110371590584549000 ) ) ;
#131 = DIRECTION ( 'NONE',  ( 0.0000000000000000000, 0.0000000000000000000, 1.000000000000000000 ) ) ;
#132 = CC_DESIGN_APPROVAL ( #57, ( #180 ) ) ;
#133 = CARTESIAN_POINT ( 'NONE',  ( 24.76621662755895100, -25.69855230036960900, 6.277169875852394800 ) ) ;
#134 = ORIENTED_EDGE ( 'NONE', *, *, #153, .T. ) ;
#135 = DATE_AND_TIME ( #210, #10 ) ;
#136 = FACE_OUTER_BOUND ( 'NONE', #219, .T. ) ;
#137 = DIRECTION ( 'NONE',  ( 1.000000000000000000, 0.0000000000000000000, 0.0000000000000000000 ) ) ;
#138 = MANIFOLD_SOLID_BREP ( 'Imported1', #128 ) ;
#139 = LOCAL_TIME ( 16, 7, 27.00000000000000000, #95 ) ;
#140 = APPLICATION_PROTOCOL_DEFINITION ( 'international standard', 'config_control_design', 1994, #218 ) ;
#141 = CARTESIAN_POINT ( 'NONE',  ( 9.992007221626412800E-016, 4.884981308350691100E-015, 5.599999999999999600 ) ) ;
#142 = CIRCLE ( 'NONE', #30, 104.5999999999999900 ) ;
#143 = EDGE_CURVE ( 'NONE', #176, #173, #150, .T. ) ;
#144 = PERSON_AND_ORGANIZATION_ROLE ( 'design_supplier' ) ;
#145 = CC_DESIGN_PERSON_AND_ORGANIZATION_ASSIGNMENT ( #109, #202, ( #180 ) ) ;
#146 = APPROVAL_PERSON_ORGANIZATION ( #195, #201, #4 ) ;
#147 = CIRCLE ( 'NONE', #36, 25.39999999999999900 ) ;
#148 = ORIENTED_EDGE ( 'NONE', *, *, #159, .T. ) ;
#149 = DATE_AND_TIME ( #161, #189 ) ;
#150 = LINE ( 'NONE', #229, #83 ) ;
#151 = PRODUCT ( '110-5520E CaF2 pl-cx 50.8 F250', '110-5520E CaF2 pl-cx 50.8 F250', '', ( #158 ) ) ;
#152 = CARTESIAN_POINT ( 'NONE',  ( 25.39999999999999900, 4.884981308350691100E-015, 3.130792848273420000 ) ) ;
#153 = EDGE_CURVE ( 'NONE', #228, #176, #208, .T. ) ;
#154 = CARTESIAN_POINT ( 'NONE',  ( 9.992007221626412800E-016, 4.884981308350691100E-015, 3.130792848273420000 ) ) ;
#155 = COORDINATED_UNIVERSAL_TIME_OFFSET ( 2, 0, .AHEAD. ) ;
#156 = CARTESIAN_POINT ( 'NONE',  ( -24.76621662755892900, 25.69855230036962400, 6.277169875852389500 ) ) ;
#157 = CARTESIAN_POINT ( 'NONE',  ( 9.992007221626412800E-016, 4.884981308350691100E-015, 5.599999999999999600 ) ) ;
#158 = MECHANICAL_CONTEXT ( 'NONE', #218, 'mechanical' ) ;
#159 = EDGE_CURVE ( 'NONE', #47, #184, #147, .T. ) ;
#160 = DIRECTION ( 'NONE',  ( 1.000000000000000000, 0.0000000000000000000, 0.0000000000000000000 ) ) ;
#161 = CALENDAR_DATE ( 2019, 3, 1 ) ;
#162 = ORIENTED_EDGE ( 'NONE', *, *, #129, .T. ) ;
#163 = DIRECTION ( 'NONE',  ( 1.000000000000000000, 0.0000000000000000000, 0.0000000000000000000 ) ) ;
#164 = CC_DESIGN_PERSON_AND_ORGANIZATION_ASSIGNMENT ( #55, #53, ( #151 ) ) ;
#165 = ORIENTED_EDGE ( 'NONE', *, *, #226, .F. ) ;
#166 = SECURITY_CLASSIFICATION_LEVEL ( 'unclassified' ) ;
#167 = APPROVAL_DATE_TIME ( #209, #201 ) ;
#168 = CALENDAR_DATE ( 2019, 3, 1 ) ;
#169 = EDGE_LOOP ( 'NONE', ( #25, #89, #113, #181, #235 ) ) ;
#170 = CARTESIAN_POINT ( 'NONE',  ( -1.359297078941866700E-014, -8.744871203151145500, -1.090956647572760100 ) ) ;
#171 = EDGE_CURVE ( 'NONE', #127, #173, #34, .T. ) ;
#172 = CARTESIAN_POINT ( 'NONE',  ( 9.992007221626412800E-016, 4.884981308350691100E-015, 3.130792848273420000 ) ) ;
#173 = VERTEX_POINT ( 'NONE', #188 ) ;
#174 = CIRCLE ( 'NONE', #124, 25.39999999999999900 ) ;
#175 = DIRECTION ( 'NONE',  ( 0.0000000000000000000, 0.0000000000000000000, 1.000000000000000000 ) ) ;
#176 = VERTEX_POINT ( 'NONE', #86 ) ;
#177 = AXIS2_PLACEMENT_3D ( 'NONE', #87, #217, #221 ) ;
#178 = CARTESIAN_POINT ( 'NONE',  ( -24.76621662755894000, -25.69855230036959500, 6.277169875852403700 ) ) ;
#179 = DIRECTION ( 'NONE',  ( 1.000000000000000000, 0.0000000000000000000, 0.0000000000000000000 ) ) ;
#180 = PRODUCT_DEFINITION_FORMATION_WITH_SPECIFIED_SOURCE ( 'ANY', '', #151, .NOT_KNOWN. ) ;
#181 = ORIENTED_EDGE ( 'NONE', *, *, #41, .T. ) ;
#182 = CC_DESIGN_APPROVAL ( #201, ( #85 ) ) ;
#183 = LOCAL_TIME ( 16, 7, 27.00000000000000000, #42 ) ;
#184 = VERTEX_POINT ( 'NONE', #152 ) ;
#185 = CARTESIAN_POINT ( 'NONE',  ( 17.36442491719062900, 8.744871203151150900, -0.01841210149842054800 ) ) ;
#186 = DIRECTION ( 'NONE',  ( -2.778066538033659800E-016, -1.000000000000000000, 0.0000000000000000000 ) ) ;
#187 = DATE_AND_TIME ( #168, #183 ) ;
#188 = CARTESIAN_POINT ( 'NONE',  ( -25.39999999999999900, 7.995584178184967200E-015, 5.599999999999999600 ) ) ;
#189 = LOCAL_TIME ( 16, 7, 27.00000000000000000, #104 ) ;
#190 = ADVANCED_FACE ( 'NONE', ( #50 ), #102, .T. ) ;
#191 = CARTESIAN_POINT ( 'NONE',  ( 24.76621662755896800, 25.69855230036960900, 6.277169875852381500 ) ) ;
#192 = AXIS2_PLACEMENT_3D ( 'NONE', #172, #131, #80 ) ;
#193 = CARTESIAN_POINT ( 'NONE',  ( 16.65846025430221600, 25.69855230036961300, 4.234933597156890000 ) ) ;
#194 = ADVANCED_FACE ( 'NONE', ( #198 ), #216, .T. ) ;
#195 = PERSON_AND_ORGANIZATION ( #213, #101 ) ;
#196 = CARTESIAN_POINT ( 'NONE',  ( -8.715336268016031300, -8.744871203151142000, -1.090956647572744600 ) ) ;
#197 = DIRECTION ( 'NONE',  ( 1.000000000000000000, 0.0000000000000000000, 0.0000000000000000000 ) ) ;
#198 = FACE_OUTER_BOUND ( 'NONE', #67, .T. ) ;
#199 = VECTOR ( 'NONE', #82, 1000.000000000000000 ) ;
#200 = CARTESIAN_POINT ( 'NONE',  ( 9.992007221626412800E-016, 4.884981308350691100E-015, 3.130792848273420000 ) ) ;
#201 = APPROVAL ( #61, 'UNSPECIFIED' ) ;
#202 = PERSON_AND_ORGANIZATION_ROLE ( 'creator' ) ;
#203 = LOCAL_TIME ( 16, 7, 27.00000000000000000, #155 ) ;
#204 = CC_DESIGN_SECURITY_CLASSIFICATION ( #85, ( #180 ) ) ;
#205 = ORIENTED_EDGE ( 'NONE', *, *, #52, .T. ) ;
#206 = AXIS2_PLACEMENT_3D ( 'NONE', #69, #231, #197 ) ;
#207 = CARTESIAN_POINT ( 'NONE',  ( 1.421085471520200100E-014, 1.421085471520200100E-014, 104.5999999999999900 ) ) ;
#208 = CIRCLE ( 'NONE', #206, 25.39999999999999900 ) ;
#209 = DATE_AND_TIME ( #76, #139 ) ;
#210 = CALENDAR_DATE ( 2019, 3, 1 ) ;
#211 = CARTESIAN_POINT ( 'NONE',  ( 8.361007261455130300, 25.69855230036961300, 3.205994212354107200 ) ) ;
#212 = CARTESIAN_POINT ( 'NONE',  ( 9.992007221626412800E-016, 4.884981308350691100E-015, 3.130792848273420000 ) ) ;
#213 = PERSON ( 'UNSPECIFIED', 'UNSPECIFIED', 'UNSPECIFIED', ('UNSPECIFIED'), ('UNSPECIFIED'), ('UNSPECIFIED') ) ;
#214 = PLANE ( 'NONE',  #114 ) ;
#215 = CARTESIAN_POINT ( 'NONE',  ( -1.720631248990138900E-014, -25.39999999999997700, 3.130792848273425700 ) ) ;
#216 =( BOUNDED_SURFACE ( )  B_SPLINE_SURFACE ( 3, 3, ( 
 ( #178, #71, #118, #233 ),
 ( #121, #119, #196, #20 ),
 ( #232, #230, #105, #90 ),
 ( #156, #91, #33, #92 ) ),
 .UNSPECIFIED., .F., .F., .F. ) 
 B_SPLINE_SURFACE_WITH_KNOTS ( ( 4, 4 ),
 ( 4, 4 ),
 ( 0.0000000000000000000, 1.000000000000000000 ),
 ( 0.0000000000000000000, 1.000000000000000000 ),
 .UNSPECIFIED. ) 
 GEOMETRIC_REPRESENTATION_ITEM ( )  RATIONAL_B_SPLINE_SURFACE ( (
 ( 1.000000000000000000, 0.9949324870699864900, 0.9949324870699864900, 1.000000000000000000),
 ( 0.9795666398192853800, 0.9746026732061913200, 0.9746026732061913200, 0.9795666398192853800),
 ( 0.9795666398192853800, 0.9746026732061913200, 0.9746026732061913200, 0.9795666398192853800),
 ( 1.000000000000000000, 0.9949324870699864900, 0.9949324870699864900, 1.000000000000000000) ) ) 
 REPRESENTATION_ITEM ( '' )  SURFACE ( )  );
#217 = DIRECTION ( 'NONE',  ( 0.0000000000000000000, 0.0000000000000000000, 1.000000000000000000 ) ) ;
#218 = APPLICATION_CONTEXT ( 'configuration controlled 3d designs of mechanical parts and assemblies' ) ;
#219 = EDGE_LOOP ( 'NONE', ( #162, #205, #148 ) ) ;
#220 = DIRECTION ( 'NONE',  ( -0.0000000000000000000, -0.0000000000000000000, -1.000000000000000000 ) ) ;
#221 = DIRECTION ( 'NONE',  ( 1.000000000000000000, 0.0000000000000000000, 0.0000000000000000000 ) ) ;
#222 = APPROVAL_ROLE ( '' ) ;
#223 = PRODUCT_DEFINITION_SHAPE ( 'NONE', 'NONE',  #49 ) ;
#224 = CARTESIAN_POINT ( 'NONE',  ( 25.39999999999999900, 4.884981308350691100E-015, 3.130792848273420000 ) ) ;
#225 = CARTESIAN_POINT ( 'NONE',  ( -1.727119785009439700E-014, -25.69855230036960200, 3.205994212354124100 ) ) ;
#226 = EDGE_CURVE ( 'NONE', #173, #127, #125, .T. ) ;
#227 = ORIENTED_EDGE ( 'NONE', *, *, #52, .F. ) ;
#228 = VERTEX_POINT ( 'NONE', #215 ) ;
#229 = CARTESIAN_POINT ( 'NONE',  ( -25.39999999999999900, 7.995584178184967200E-015, 3.130792848273420000 ) ) ;
#230 = CARTESIAN_POINT ( 'NONE',  ( -17.36442491719062200, 8.744871203151159700, -0.01841210149840710700 ) ) ;
#231 = DIRECTION ( 'NONE',  ( -0.0000000000000000000, -0.0000000000000000000, -1.000000000000000000 ) ) ;
#232 = CARTESIAN_POINT ( 'NONE',  ( -25.81577784183627200, 8.744871203151163300, 2.110371590584545900 ) ) ;
#233 = CARTESIAN_POINT ( 'NONE',  ( -4.510281037539698400E-014, -25.69855230036960200, 3.205994212354133000 ) ) ;
#234 = PERSON_AND_ORGANIZATION ( #213, #101 ) ;
#235 = ORIENTED_EDGE ( 'NONE', *, *, #171, .T. ) ;
ENDSEC;
END-ISO-10303-21;
