ISO-10303-21;
HEADER;
FILE_DESCRIPTION (( 'STEP AP203' ),
    '1' );
FILE_NAME ('110-5517E CaF2 pl-cx 50.8 F150.STEP',
    '2019-01-03T13:45:12',
    ( '' ),
    ( '' ),
    'SwSTEP 2.0',
    'SolidWorks 2017',
    '' );
FILE_SCHEMA (( 'CONFIG_CONTROL_DESIGN' ));
ENDSEC;

DATA;
#1 = CARTESIAN_POINT ( 'NONE',  ( 7.105427357601000300E-015, 25.68662220479296800, 5.499236206107129400 ) ) ;
#2 = CARTESIAN_POINT ( 'NONE',  ( 23.30448214213088000, 25.68662220479296800, 10.45801312310959500 ) ) ;
#3 = ORIENTED_EDGE ( 'NONE', *, *, #79, .T. ) ;
#4 = DIRECTION ( 'NONE',  ( 1.000000000000000000, 0.0000000000000000000, 0.0000000000000000000 ) ) ;
#5 = CARTESIAN_POINT ( 'NONE',  ( 7.105427357600999500E-015, 9.093583037367869400, -1.946840681644935700 ) ) ;
#6 = LOCAL_TIME ( 15, 45, 12.00000000000000000, #138 ) ;
#7 = FACE_OUTER_BOUND ( 'NONE', #31, .T. ) ;
#8 = PRODUCT_DEFINITION_SHAPE ( 'NONE', 'NONE',  #152 ) ;
#9 = ADVANCED_FACE ( 'NONE', ( #54 ), #77, .T. ) ;
#10 = AXIS2_PLACEMENT_3D ( 'NONE', #20, #64, #4 ) ;
#11 = EDGE_LOOP ( 'NONE', ( #98, #143 ) ) ;
#12 = APPROVAL_PERSON_ORGANIZATION ( #35, #112, #59 ) ;
#13 = ORIENTED_EDGE ( 'NONE', *, *, #165, .T. ) ;
#14 = DIRECTION ( 'NONE',  ( -0.0000000000000000000, -0.0000000000000000000, -1.000000000000000000 ) ) ;
#15 = CARTESIAN_POINT ( 'NONE',  ( 9.992007221626412800E-016, 4.884981308350691100E-015, 5.371475528823300000 ) ) ;
#16 = ORIENTED_EDGE ( 'NONE', *, *, #93, .T. ) ;
#17 = CARTESIAN_POINT ( 'NONE',  ( 18.01688650040639700, 9.093583037367867700, -0.05122417546794996700 ) ) ;
#18 = DIRECTION ( 'NONE',  ( -0.0000000000000000000, -0.0000000000000000000, -1.000000000000000000 ) ) ;
#19 = APPROVAL_DATE_TIME ( #72, #112 ) ;
#20 = CARTESIAN_POINT ( 'NONE',  ( 9.992007221626412800E-016, 4.884981308350691100E-015, 8.400000000000000400 ) ) ;
#21 = CIRCLE ( 'NONE', #60, 62.74000000000000200 ) ;
#22 =( LENGTH_UNIT ( ) NAMED_UNIT ( * ) SI_UNIT ( .MILLI., .METRE. ) );
#23 = ADVANCED_FACE ( 'NONE', ( #139 ), #115, .T. ) ;
#24 = AXIS2_PLACEMENT_3D ( 'NONE', #140, #39, #159 ) ;
#25 = APPROVAL_ROLE ( '' ) ;
#26 = EDGE_CURVE ( 'NONE', #151, #47, #45, .T. ) ;
#27 = VECTOR ( 'NONE', #32, 1000.000000000000000 ) ;
#28 = COORDINATED_UNIVERSAL_TIME_OFFSET ( 2, 0, .AHEAD. ) ;
#29 = ADVANCED_BREP_SHAPE_REPRESENTATION ( '110-5517E CaF2 pl-cx 50.8 F150', ( #43, #142 ), #114 ) ;
#30 = CARTESIAN_POINT ( 'NONE',  ( 25.39999999999999900, 4.884981308350691100E-015, 5.371475528823300000 ) ) ;
#31 = EDGE_LOOP ( 'NONE', ( #156, #219, #205 ) ) ;
#32 = DIRECTION ( 'NONE',  ( 0.0000000000000000000, 0.0000000000000000000, 1.000000000000000000 ) ) ;
#33 = DIRECTION ( 'NONE',  ( 1.000000000000000000, -8.881784197001252300E-016, 0.0000000000000000000 ) ) ;
#34 = CARTESIAN_POINT ( 'NONE',  ( -18.01688650040641800, 9.093583037367867700, -0.05122417546793738700 ) ) ;
#35 = PERSON_AND_ORGANIZATION ( #211, #223 ) ;
#36 = CARTESIAN_POINT ( 'NONE',  ( -23.30448214213090500, 25.68662220479296800, 10.45801312310961400 ) ) ;
#37 = EDGE_CURVE ( 'NONE', #210, #214, #229, .T. ) ;
#38 = DIRECTION ( 'NONE',  ( 1.000000000000000000, 0.0000000000000000000, 0.0000000000000000000 ) ) ;
#39 = DIRECTION ( 'NONE',  ( -0.0000000000000000000, -0.0000000000000000000, -1.000000000000000000 ) ) ;
#40 = MECHANICAL_CONTEXT ( 'NONE', #204, 'mechanical' ) ;
#41 = CIRCLE ( 'NONE', #10, 25.39999999999999900 ) ;
#42 = ORIENTED_EDGE ( 'NONE', *, *, #109, .T. ) ;
#43 = MANIFOLD_SOLID_BREP ( 'Imported1', #185 ) ;
#44 = DIRECTION ( 'NONE',  ( 1.000000000000000000, 0.0000000000000000000, 0.0000000000000000000 ) ) ;
#45 = CIRCLE ( 'NONE', #131, 25.39999999999999900 ) ;
#46 = APPROVAL_PERSON_ORGANIZATION ( #150, #89, #25 ) ;
#47 = VERTEX_POINT ( 'NONE', #30 ) ;
#48 = CARTESIAN_POINT ( 'NONE',  ( 9.992007221626412800E-016, 4.884981308350691100E-015, 8.400000000000000400 ) ) ;
#49 = CARTESIAN_POINT ( 'NONE',  ( -26.33600992684690200, 9.093583037367869400, 3.656991118380442900 ) ) ;
#50 = CARTESIAN_POINT ( 'NONE',  ( 7.105427357600999500E-015, -9.093583037367878300, -1.946840681644930600 ) ) ;
#51 = CARTESIAN_POINT ( 'NONE',  ( -18.01688650040641100, -9.093583037367881900, -0.05122417546793087800 ) ) ;
#52 = LOCAL_TIME ( 15, 45, 12.00000000000000000, #198 ) ;
#53 = PERSON_AND_ORGANIZATION ( #211, #223 ) ;
#54 = FACE_OUTER_BOUND ( 'NONE', #11, .T. ) ;
#55 = DIRECTION ( 'NONE',  ( 0.0000000000000000000, 0.0000000000000000000, 1.000000000000000000 ) ) ;
#56 = CARTESIAN_POINT ( 'NONE',  ( -1.040834085586084100E-014, 9.093583037367869400, -1.946840681644940000 ) ) ;
#57 = ORIENTED_EDGE ( 'NONE', *, *, #26, .T. ) ;
#58 = APPLICATION_PROTOCOL_DEFINITION ( 'international standard', 'config_control_design', 1994, #231 ) ;
#59 = APPROVAL_ROLE ( '' ) ;
#60 = AXIS2_PLACEMENT_3D ( 'NONE', #228, #110, #68 ) ;
#61 = CARTESIAN_POINT ( 'NONE',  ( 0.0000000000000000000, 52.02000000000000300, 8.400000000000000400 ) ) ;
#62 = CARTESIAN_POINT ( 'NONE',  ( 9.992007221626412800E-016, 4.884981308350691100E-015, 5.371475528823300000 ) ) ;
#63 = VECTOR ( 'NONE', #191, 1000.000000000000000 ) ;
#64 = DIRECTION ( 'NONE',  ( -0.0000000000000000000, -0.0000000000000000000, -1.000000000000000000 ) ) ;
#65 =( BOUNDED_SURFACE ( )  B_SPLINE_SURFACE ( 3, 3, ( 
 ( #82, #80, #87, #235 ),
 ( #50, #108, #177, #66 ),
 ( #5, #224, #17, #81 ),
 ( #1, #135, #225, #2 ) ),
 .UNSPECIFIED., .F., .F., .F. ) 
 B_SPLINE_SURFACE_WITH_KNOTS ( ( 4, 4 ),
 ( 4, 4 ),
 ( 0.0000000000000000000, 1.000000000000000000 ),
 ( 0.0000000000000000000, 1.000000000000000000 ),
 .UNSPECIFIED. ) 
 GEOMETRIC_REPRESENTATION_ITEM ( )  RATIONAL_B_SPLINE_SURFACE ( (
 ( 1.000000000000000000, 0.9854018084644069500, 0.9854018084644069500, 1.000000000000000000),
 ( 0.9415658675368490100, 0.9278207086591692100, 0.9278207086591692100, 0.9415658675368490100),
 ( 0.9415658675368490100, 0.9278207086591692100, 0.9278207086591692100, 0.9415658675368490100),
 ( 1.000000000000000000, 0.9854018084644069500, 0.9854018084644069500, 1.000000000000000000) ) ) 
 REPRESENTATION_ITEM ( '' )  SURFACE ( )  );
#66 = CARTESIAN_POINT ( 'NONE',  ( 26.33600992684686300, -9.093583037367878300, 3.656991118380424200 ) ) ;
#67 = CARTESIAN_POINT ( 'NONE',  ( -6.938893903907227600E-015, -9.093583037367878300, -1.946840681644933100 ) ) ;
#68 = DIRECTION ( 'NONE',  ( 0.0000000000000000000, -1.000000000000000000, 0.0000000000000000000 ) ) ;
#69 = FACE_OUTER_BOUND ( 'NONE', #127, .T. ) ;
#70 = SECURITY_CLASSIFICATION_LEVEL ( 'unclassified' ) ;
#71 = PERSON_AND_ORGANIZATION_ROLE ( 'creator' ) ;
#72 = DATE_AND_TIME ( #122, #169 ) ;
#73 = CC_DESIGN_PERSON_AND_ORGANIZATION_ASSIGNMENT ( #76, #162, ( #128 ) ) ;
#74 = ORIENTED_EDGE ( 'NONE', *, *, #95, .T. ) ;
#75 = CC_DESIGN_DATE_AND_TIME_ASSIGNMENT ( #168, #182, ( #186 ) ) ;
#76 = PERSON_AND_ORGANIZATION ( #211, #223 ) ;
#77 = PLANE ( 'NONE',  #116 ) ;
#78 = ORIENTED_EDGE ( 'NONE', *, *, #95, .F. ) ;
#79 = EDGE_CURVE ( 'NONE', #47, #189, #166, .T. ) ;
#80 = CARTESIAN_POINT ( 'NONE',  ( 8.059727966448607000, -25.68662220479297500, 5.499236206107135600 ) ) ;
#81 = CARTESIAN_POINT ( 'NONE',  ( 26.33600992684686700, 9.093583037367869400, 3.656991118380419300 ) ) ;
#82 = CARTESIAN_POINT ( 'NONE',  ( 7.105427357601000300E-015, -25.68662220479297200, 5.499236206107135600 ) ) ;
#83 = CARTESIAN_POINT ( 'NONE',  ( -8.059727966448614100, 25.68662220479296800, 5.499236206107128500 ) ) ;
#84 = LINE ( 'NONE', #99, #63 ) ;
#85 = CC_DESIGN_APPROVAL ( #112, ( #152 ) ) ;
#86 = ADVANCED_FACE ( 'NONE', ( #69 ), #133, .T. ) ;
#87 = CARTESIAN_POINT ( 'NONE',  ( 15.94296975402871300, -25.68662220479297500, 7.176649038925701200 ) ) ;
#88 =( NAMED_UNIT ( * ) SI_UNIT ( $, .STERADIAN. ) SOLID_ANGLE_UNIT ( ) );
#89 = APPROVAL ( #208, 'UNSPECIFIED' ) ;
#90 = APPROVAL_ROLE ( '' ) ;
#91 = PERSON_AND_ORGANIZATION_ROLE ( 'creator' ) ;
#92 = ORIENTED_EDGE ( 'NONE', *, *, #26, .F. ) ;
#93 = EDGE_CURVE ( 'NONE', #47, #210, #84, .T. ) ;
#94 = ORIENTED_EDGE ( 'NONE', *, *, #79, .F. ) ;
#95 = EDGE_CURVE ( 'NONE', #160, #214, #183, .T. ) ;
#96 = LOCAL_TIME ( 15, 45, 12.00000000000000000, #194 ) ;
#97 = DATE_AND_TIME ( #146, #209 ) ;
#98 = ORIENTED_EDGE ( 'NONE', *, *, #37, .F. ) ;
#99 = CARTESIAN_POINT ( 'NONE',  ( 25.39999999999999900, 4.884981308350691100E-015, 5.371475528823300000 ) ) ;
#100 = PRODUCT_DEFINITION_FORMATION_WITH_SPECIFIED_SOURCE ( 'ANY', '', #128, .NOT_KNOWN. ) ;
#101 = DIRECTION ( 'NONE',  ( 1.000000000000000000, 0.0000000000000000000, 0.0000000000000000000 ) ) ;
#102 = APPROVAL_DATE_TIME ( #234, #89 ) ;
#103 = AXIS2_PLACEMENT_3D ( 'NONE', #106, #18, #38 ) ;
#104 = EDGE_LOOP ( 'NONE', ( #78, #201, #94, #16, #111 ) ) ;
#105 = CARTESIAN_POINT ( 'NONE',  ( -15.94296975402873800, 25.68662220479296800, 7.176649038925707400 ) ) ;
#106 = CARTESIAN_POINT ( 'NONE',  ( 9.992007221626412800E-016, 4.884981308350691100E-015, 5.371475528823300000 ) ) ;
#107 = CARTESIAN_POINT ( 'NONE',  ( -9.108165306464421500, 9.093583037367867700, -1.946840681644938000 ) ) ;
#108 = CARTESIAN_POINT ( 'NONE',  ( 9.108165306464407300, -9.093583037367881900, -1.946840681644931100 ) ) ;
#109 = EDGE_CURVE ( 'NONE', #214, #210, #41, .T. ) ;
#110 = DIRECTION ( 'NONE',  ( 1.000000000000000000, 0.0000000000000000000, 0.0000000000000000000 ) ) ;
#111 = ORIENTED_EDGE ( 'NONE', *, *, #37, .T. ) ;
#112 = APPROVAL ( #180, 'UNSPECIFIED' ) ;
#113 = ORIENTED_EDGE ( 'NONE', *, *, #93, .F. ) ;
#114 =( GEOMETRIC_REPRESENTATION_CONTEXT ( 3 ) GLOBAL_UNCERTAINTY_ASSIGNED_CONTEXT ( ( #149 ) ) GLOBAL_UNIT_ASSIGNED_CONTEXT ( ( #22, #130, #88 ) ) REPRESENTATION_CONTEXT ( 'NONE', 'WORKASPACE' ) );
#115 = CYLINDRICAL_SURFACE ( 'NONE', #179, 25.39999999999999900 ) ;
#116 = AXIS2_PLACEMENT_3D ( 'NONE', #61, #174, #119 ) ;
#117 = CARTESIAN_POINT ( 'NONE',  ( -25.39999999999999900, 7.995584178184967200E-015, 5.371475528823300000 ) ) ;
#118 = FACE_OUTER_BOUND ( 'NONE', #172, .T. ) ;
#119 = DIRECTION ( 'NONE',  ( 1.000000000000000000, 0.0000000000000000000, -0.0000000000000000000 ) ) ;
#120 = DIRECTION ( 'NONE',  ( 1.000000000000000000, 0.0000000000000000000, 0.0000000000000000000 ) ) ;
#121 = CALENDAR_DATE ( 2019, 3, 1 ) ;
#122 = CALENDAR_DATE ( 2019, 3, 1 ) ;
#123 = CARTESIAN_POINT ( 'NONE',  ( -9.108165306464414400, -9.093583037367881900, -1.946840681644931700 ) ) ;
#124 = CARTESIAN_POINT ( 'NONE',  ( -1.040834085586084300E-014, -25.68662220479297200, 5.499236206107133800 ) ) ;
#125 = ADVANCED_FACE ( 'NONE', ( #7 ), #197, .T. ) ;
#126 = CC_DESIGN_APPROVAL ( #89, ( #186 ) ) ;
#127 = EDGE_LOOP ( 'NONE', ( #195, #74, #42, #113, #92 ) ) ;
#128 = PRODUCT ( '110-5517E CaF2 pl-cx 50.8 F150', '110-5517E CaF2 pl-cx 50.8 F150', '', ( #40 ) ) ;
#129 = DATE_TIME_ROLE ( 'creation_date' ) ;
#130 =( NAMED_UNIT ( * ) PLANE_ANGLE_UNIT ( ) SI_UNIT ( $, .RADIAN. ) );
#131 = AXIS2_PLACEMENT_3D ( 'NONE', #15, #171, #33 ) ;
#132 = CIRCLE ( 'NONE', #24, 25.39999999999999900 ) ;
#133 = CYLINDRICAL_SURFACE ( 'NONE', #181, 25.39999999999999900 ) ;
#134 = PERSON_AND_ORGANIZATION ( #211, #223 ) ;
#135 = CARTESIAN_POINT ( 'NONE',  ( 8.059727966448607000, 25.68662220479296800, 5.499236206107130300 ) ) ;
#136 = CARTESIAN_POINT ( 'NONE',  ( -26.33600992684689900, -9.093583037367878300, 3.656991118380449100 ) ) ;
#137 = APPROVAL_DATE_TIME ( #148, #213 ) ;
#138 = COORDINATED_UNIVERSAL_TIME_OFFSET ( 2, 0, .AHEAD. ) ;
#139 = FACE_OUTER_BOUND ( 'NONE', #104, .T. ) ;
#140 = CARTESIAN_POINT ( 'NONE',  ( 9.992007221626412800E-016, 4.884981308350691100E-015, 5.371475528823300000 ) ) ;
#141 = PERSON_AND_ORGANIZATION_ROLE ( 'design_supplier' ) ;
#142 = AXIS2_PLACEMENT_3D ( 'NONE', #158, #55, #161 ) ;
#143 = ORIENTED_EDGE ( 'NONE', *, *, #109, .F. ) ;
#144 = APPLICATION_PROTOCOL_DEFINITION ( 'international standard', 'config_control_design', 1994, #204 ) ;
#145 = PERSON_AND_ORGANIZATION ( #211, #223 ) ;
#146 = CALENDAR_DATE ( 2019, 3, 1 ) ;
#147 = CC_DESIGN_PERSON_AND_ORGANIZATION_ASSIGNMENT ( #145, #141, ( #100 ) ) ;
#148 = DATE_AND_TIME ( #222, #6 ) ;
#149 = UNCERTAINTY_MEASURE_WITH_UNIT (LENGTH_MEASURE( 1.000000000000000100E-005 ), #22, 'distance_accuracy_value', 'NONE');
#150 = PERSON_AND_ORGANIZATION ( #211, #223 ) ;
#151 = VERTEX_POINT ( 'NONE', #202 ) ;
#152 = PRODUCT_DEFINITION ( 'UNKNOWN', '', #100, #216 ) ;
#153 = EDGE_CURVE ( 'NONE', #189, #160, #212, .T. ) ;
#154 = CC_DESIGN_PERSON_AND_ORGANIZATION_ASSIGNMENT ( #199, #91, ( #152 ) ) ;
#155 = COORDINATED_UNIVERSAL_TIME_OFFSET ( 2, 0, .AHEAD. ) ;
#156 = ORIENTED_EDGE ( 'NONE', *, *, #165, .F. ) ;
#157 = CARTESIAN_POINT ( 'NONE',  ( -15.94296975402873400, -25.68662220479297500, 7.176649038925715400 ) ) ;
#158 = CARTESIAN_POINT ( 'NONE',  ( 0.0000000000000000000, 0.0000000000000000000, 0.0000000000000000000 ) ) ;
#159 = DIRECTION ( 'NONE',  ( 1.000000000000000000, 0.0000000000000000000, 0.0000000000000000000 ) ) ;
#160 = VERTEX_POINT ( 'NONE', #220 ) ;
#161 = DIRECTION ( 'NONE',  ( 1.000000000000000000, 0.0000000000000000000, 0.0000000000000000000 ) ) ;
#162 = PERSON_AND_ORGANIZATION_ROLE ( 'design_owner' ) ;
#163 = CC_DESIGN_PERSON_AND_ORGANIZATION_ASSIGNMENT ( #134, #206, ( #186 ) ) ;
#164 = SHAPE_DEFINITION_REPRESENTATION ( #8, #29 ) ;
#165 = EDGE_CURVE ( 'NONE', #189, #151, #21, .T. ) ;
#166 = CIRCLE ( 'NONE', #170, 25.39999999999999900 ) ;
#167 = CC_DESIGN_DATE_AND_TIME_ASSIGNMENT ( #97, #129, ( #152 ) ) ;
#168 = DATE_AND_TIME ( #175, #96 ) ;
#169 = LOCAL_TIME ( 15, 45, 12.00000000000000000, #155 ) ;
#170 = AXIS2_PLACEMENT_3D ( 'NONE', #62, #14, #192 ) ;
#171 = DIRECTION ( 'NONE',  ( -0.0000000000000000000, -0.0000000000000000000, -1.000000000000000000 ) ) ;
#172 = EDGE_LOOP ( 'NONE', ( #3, #13, #57 ) ) ;
#173 = CARTESIAN_POINT ( 'NONE',  ( -23.30448214213090100, -25.68662220479297200, 10.45801312310962100 ) ) ;
#174 = DIRECTION ( 'NONE',  ( 0.0000000000000000000, 0.0000000000000000000, 1.000000000000000000 ) ) ;
#175 = CALENDAR_DATE ( 2019, 3, 1 ) ;
#176 = CARTESIAN_POINT ( 'NONE',  ( -8.059727966448615900, -25.68662220479297500, 5.499236206107136500 ) ) ;
#177 = CARTESIAN_POINT ( 'NONE',  ( 18.01688650040638600, -9.093583037367881900, -0.05122417546794432600 ) ) ;
#178 = CARTESIAN_POINT ( 'NONE',  ( -6.938893903907228400E-015, 25.68662220479296800, 5.499236206107125800 ) ) ;
#179 = AXIS2_PLACEMENT_3D ( 'NONE', #193, #217, #101 ) ;
#180 = APPROVAL_STATUS ( 'not_yet_approved' ) ;
#181 = AXIS2_PLACEMENT_3D ( 'NONE', #190, #215, #44 ) ;
#182 = DATE_TIME_ROLE ( 'classification_date' ) ;
#183 = LINE ( 'NONE', #117, #27 ) ;
#184 = PERSON_AND_ORGANIZATION ( #211, #223 ) ;
#185 = CLOSED_SHELL ( 'NONE', ( #230, #86, #125, #23, #9 ) ) ;
#186 = SECURITY_CLASSIFICATION ( '', '', #70 ) ;
#187 = APPROVAL_PERSON_ORGANIZATION ( #53, #213, #90 ) ;
#188 = CC_DESIGN_SECURITY_CLASSIFICATION ( #186, ( #100 ) ) ;
#189 = VERTEX_POINT ( 'NONE', #221 ) ;
#190 = CARTESIAN_POINT ( 'NONE',  ( 9.992007221626412800E-016, 4.884981308350691100E-015, 5.371475528823300000 ) ) ;
#191 = DIRECTION ( 'NONE',  ( 0.0000000000000000000, 0.0000000000000000000, 1.000000000000000000 ) ) ;
#192 = DIRECTION ( 'NONE',  ( 1.000000000000000000, 0.0000000000000000000, 0.0000000000000000000 ) ) ;
#193 = CARTESIAN_POINT ( 'NONE',  ( 9.992007221626412800E-016, 4.884981308350691100E-015, 5.371475528823300000 ) ) ;
#194 = COORDINATED_UNIVERSAL_TIME_OFFSET ( 2, 0, .AHEAD. ) ;
#195 = ORIENTED_EDGE ( 'NONE', *, *, #232, .F. ) ;
#196 = DIRECTION ( 'NONE',  ( -0.0000000000000000000, -0.0000000000000000000, -1.000000000000000000 ) ) ;
#197 =( BOUNDED_SURFACE ( )  B_SPLINE_SURFACE ( 3, 3, ( 
 ( #173, #157, #176, #124 ),
 ( #136, #51, #123, #67 ),
 ( #49, #34, #107, #56 ),
 ( #36, #105, #83, #178 ) ),
 .UNSPECIFIED., .F., .F., .T. ) 
 B_SPLINE_SURFACE_WITH_KNOTS ( ( 4, 4 ),
 ( 4, 4 ),
 ( 0.0000000000000000000, 1.000000000000000000 ),
 ( 0.0000000000000000000, 1.000000000000000000 ),
 .UNSPECIFIED. ) 
 GEOMETRIC_REPRESENTATION_ITEM ( )  RATIONAL_B_SPLINE_SURFACE ( (
 ( 1.000000000000000000, 0.9854018084644069500, 0.9854018084644069500, 1.000000000000000000),
 ( 0.9415658675368490100, 0.9278207086591692100, 0.9278207086591692100, 0.9415658675368490100),
 ( 0.9415658675368490100, 0.9278207086591692100, 0.9278207086591692100, 0.9415658675368490100),
 ( 1.000000000000000000, 0.9854018084644069500, 0.9854018084644069500, 1.000000000000000000) ) ) 
 REPRESENTATION_ITEM ( '' )  SURFACE ( )  );
#198 = COORDINATED_UNIVERSAL_TIME_OFFSET ( 2, 0, .AHEAD. ) ;
#199 = PERSON_AND_ORGANIZATION ( #211, #223 ) ;
#200 = CARTESIAN_POINT ( 'NONE',  ( -25.39999999999999900, 7.995584178184967200E-015, 8.400000000000000400 ) ) ;
#201 = ORIENTED_EDGE ( 'NONE', *, *, #153, .F. ) ;
#202 = CARTESIAN_POINT ( 'NONE',  ( 7.105427357601000300E-015, 25.39999999999999900, 5.371475528823295600 ) ) ;
#203 = CC_DESIGN_APPROVAL ( #213, ( #100 ) ) ;
#204 = APPLICATION_CONTEXT ( 'configuration controlled 3d designs of mechanical parts and assemblies' ) ;
#205 = ORIENTED_EDGE ( 'NONE', *, *, #232, .T. ) ;
#206 = PERSON_AND_ORGANIZATION_ROLE ( 'classification_officer' ) ;
#207 = APPROVAL_STATUS ( 'not_yet_approved' ) ;
#208 = APPROVAL_STATUS ( 'not_yet_approved' ) ;
#209 = LOCAL_TIME ( 15, 45, 12.00000000000000000, #28 ) ;
#210 = VERTEX_POINT ( 'NONE', #227 ) ;
#211 = PERSON ( 'UNSPECIFIED', 'UNSPECIFIED', 'UNSPECIFIED', ('UNSPECIFIED'), ('UNSPECIFIED'), ('UNSPECIFIED') ) ;
#212 = CIRCLE ( 'NONE', #103, 25.39999999999999900 ) ;
#213 = APPROVAL ( #207, 'UNSPECIFIED' ) ;
#214 = VERTEX_POINT ( 'NONE', #200 ) ;
#215 = DIRECTION ( 'NONE',  ( 0.0000000000000000000, 0.0000000000000000000, 1.000000000000000000 ) ) ;
#216 = DESIGN_CONTEXT ( 'detailed design', #231, 'design' ) ;
#217 = DIRECTION ( 'NONE',  ( 0.0000000000000000000, 0.0000000000000000000, 1.000000000000000000 ) ) ;
#218 = PRODUCT_RELATED_PRODUCT_CATEGORY ( 'detail', '', ( #128 ) ) ;
#219 = ORIENTED_EDGE ( 'NONE', *, *, #153, .T. ) ;
#220 = CARTESIAN_POINT ( 'NONE',  ( -25.39999999999999900, 7.995584178184967200E-015, 5.371475528823300000 ) ) ;
#221 = CARTESIAN_POINT ( 'NONE',  ( 7.105427357601000300E-015, -25.39999999999999500, 5.371475528823295600 ) ) ;
#222 = CALENDAR_DATE ( 2019, 3, 1 ) ;
#223 = ORGANIZATION ( 'UNSPECIFIED', 'UNSPECIFIED', '' ) ;
#224 = CARTESIAN_POINT ( 'NONE',  ( 9.108165306464409000, 9.093583037367867700, -1.946840681644936000 ) ) ;
#225 = CARTESIAN_POINT ( 'NONE',  ( 15.94296975402871700, 25.68662220479296800, 7.176649038925696700 ) ) ;
#226 = CC_DESIGN_PERSON_AND_ORGANIZATION_ASSIGNMENT ( #184, #71, ( #100 ) ) ;
#227 = CARTESIAN_POINT ( 'NONE',  ( 25.39999999999999900, 4.884981308350691100E-015, 8.400000000000000400 ) ) ;
#228 = CARTESIAN_POINT ( 'NONE',  ( 7.105427357601000300E-015, 0.0000000000000000000, 62.74000000000000200 ) ) ;
#229 = CIRCLE ( 'NONE', #233, 25.39999999999999900 ) ;
#230 = ADVANCED_FACE ( 'NONE', ( #118 ), #65, .T. ) ;
#231 = APPLICATION_CONTEXT ( 'configuration controlled 3d designs of mechanical parts and assemblies' ) ;
#232 = EDGE_CURVE ( 'NONE', #160, #151, #132, .T. ) ;
#233 = AXIS2_PLACEMENT_3D ( 'NONE', #48, #196, #120 ) ;
#234 = DATE_AND_TIME ( #121, #52 ) ;
#235 = CARTESIAN_POINT ( 'NONE',  ( 23.30448214213087600, -25.68662220479297200, 10.45801312310960000 ) ) ;
ENDSEC;
END-ISO-10303-21;
