ISO-10303-21;
HEADER;
FILE_DESCRIPTION (( 'STEP AP203' ),
    '1' );
FILE_NAME ('110-5511E CaF2 pl-cx 50.8 F100.STEP',
    '2019-01-03T13:50:27',
    ( '' ),
    ( '' ),
    'SwSTEP 2.0',
    'SolidWorks 2017',
    '' );
FILE_SCHEMA (( 'CONFIG_CONTROL_DESIGN' ));
ENDSEC;

DATA;
#1 = CARTESIAN_POINT ( 'NONE',  ( -1.387778780781445700E-014, 25.65947400098625400, 8.794560030283978600 ) ) ;
#2 = DIRECTION ( 'NONE',  ( -0.0000000000000000000, -0.0000000000000000000, -1.000000000000000000 ) ) ;
#3 = CIRCLE ( 'NONE', #195, 25.39999999999999900 ) ;
#4 = DIRECTION ( 'NONE',  ( 0.0000000000000000000, 0.0000000000000000000, 1.000000000000000000 ) ) ;
#5 =( NAMED_UNIT ( * ) PLANE_ANGLE_UNIT ( ) SI_UNIT ( $, .RADIAN. ) );
#6 = AXIS2_PLACEMENT_3D ( 'NONE', #149, #169, #225 ) ;
#7 = CARTESIAN_POINT ( 'NONE',  ( -7.361858441377852300, -25.65947400098625100, 8.794560030283987500 ) ) ;
#8 = ORIENTED_EDGE ( 'NONE', *, *, #162, .T. ) ;
#9 = CARTESIAN_POINT ( 'NONE',  ( 27.61077322842632100, 9.947423951164726200, 5.993596280862223400 ) ) ;
#10 = DIRECTION ( 'NONE',  ( 1.000000000000000000, 0.0000000000000000000, 0.0000000000000000000 ) ) ;
#11 = CARTESIAN_POINT ( 'NONE',  ( -7.105427357601000300E-015, 7.105427357601000300E-015, 41.82999999999999800 ) ) ;
#12 = CARTESIAN_POINT ( 'NONE',  ( 20.16238485941725500, -25.65947400098624000, 15.66096236439993700 ) ) ;
#13 = AXIS2_PLACEMENT_3D ( 'NONE', #83, #201, #82 ) ;
#14 = APPLICATION_PROTOCOL_DEFINITION ( 'international standard', 'config_control_design', 1994, #191 ) ;
#15 = APPLICATION_PROTOCOL_DEFINITION ( 'international standard', 'config_control_design', 1994, #211 ) ;
#16 = ORIENTED_EDGE ( 'NONE', *, *, #157, .F. ) ;
#17 = DATE_TIME_ROLE ( 'creation_date' ) ;
#18 = CIRCLE ( 'NONE', #123, 25.39999999999999900 ) ;
#19 = PERSON_AND_ORGANIZATION ( #69, #62 ) ;
#20 = SECURITY_CLASSIFICATION_LEVEL ( 'unclassified' ) ;
#21 = DATE_AND_TIME ( #218, #116 ) ;
#22 = CYLINDRICAL_SURFACE ( 'NONE', #213, 25.39999999999999900 ) ;
#23 = ORIENTED_EDGE ( 'NONE', *, *, #179, .T. ) ;
#24 = DIRECTION ( 'NONE',  ( 1.000000000000000000, 0.0000000000000000000, 0.0000000000000000000 ) ) ;
#25 = DIRECTION ( 'NONE',  ( 1.000000000000000000, 0.0000000000000000000, 0.0000000000000000000 ) ) ;
#26 = CARTESIAN_POINT ( 'NONE',  ( -14.33068560561635600, -25.65947400098625100, 11.16782943468325200 ) ) ;
#27 = PERSON_AND_ORGANIZATION ( #69, #62 ) ;
#28 = ORIENTED_EDGE ( 'NONE', *, *, #157, .T. ) ;
#29 = CARTESIAN_POINT ( 'NONE',  ( -19.62472759167354400, 9.947423951164719100, -0.1593898501230780800 ) ) ;
#30 = CARTESIAN_POINT ( 'NONE',  ( 27.61077322842633600, -9.947423951164712000, 5.993596280862225200 ) ) ;
#31 = DIRECTION ( 'NONE',  ( 1.000000000000000000, 0.0000000000000000000, 0.0000000000000000000 ) ) ;
#32 = EDGE_CURVE ( 'NONE', #178, #222, #18, .T. ) ;
#33 = EDGE_LOOP ( 'NONE', ( #156, #35, #205, #23, #210 ) ) ;
#34 = LINE ( 'NONE', #224, #80 ) ;
#35 = ORIENTED_EDGE ( 'NONE', *, *, #32, .F. ) ;
#36 = CC_DESIGN_PERSON_AND_ORGANIZATION_ASSIGNMENT ( #99, #235, ( #153 ) ) ;
#37 = CYLINDRICAL_SURFACE ( 'NONE', #143, 25.39999999999999900 ) ;
#38 = EDGE_CURVE ( 'NONE', #193, #178, #3, .T. ) ;
#39 = CC_DESIGN_DATE_AND_TIME_ASSIGNMENT ( #197, #17, ( #228 ) ) ;
#40 = ADVANCED_FACE ( 'NONE', ( #92 ), #87, .T. ) ;
#41 = APPROVAL_PERSON_ORGANIZATION ( #73, #105, #95 ) ;
#42 = PERSON_AND_ORGANIZATION ( #69, #62 ) ;
#43 = CARTESIAN_POINT ( 'NONE',  ( 9.992007221626412800E-016, 4.884981308350691100E-015, 8.594643826190161200 ) ) ;
#44 = CARTESIAN_POINT ( 'NONE',  ( -1.734723475976807100E-014, 9.947423951164715600, -3.409392456051136800 ) ) ;
#45 = CARTESIAN_POINT ( 'NONE',  ( 9.992007221626412800E-016, 4.884981308350691100E-015, 11.60000000000000000 ) ) ;
#46 = CARTESIAN_POINT ( 'NONE',  ( -10.08147624311020800, 9.947423951164719100, -3.409392456051135100 ) ) ;
#47 = AXIS2_PLACEMENT_3D ( 'NONE', #164, #184, #84 ) ;
#48 = CARTESIAN_POINT ( 'NONE',  ( 25.39999999999999900, 4.884981308350691100E-015, 11.60000000000000000 ) ) ;
#49 = SHAPE_DEFINITION_REPRESENTATION ( #230, #55 ) ;
#50 = CARTESIAN_POINT ( 'NONE',  ( 9.992007221626412800E-016, 4.884981308350691100E-015, 8.594643826190161200 ) ) ;
#51 = PERSON_AND_ORGANIZATION_ROLE ( 'creator' ) ;
#52 = EDGE_CURVE ( 'NONE', #222, #74, #146, .T. ) ;
#53 = CIRCLE ( 'NONE', #108, 41.82999999999999800 ) ;
#54 = CC_DESIGN_APPROVAL ( #105, ( #117 ) ) ;
#55 = ADVANCED_BREP_SHAPE_REPRESENTATION ( '110-5511E CaF2 pl-cx 50.8 F100', ( #65, #139 ), #79 ) ;
#56 = ORIENTED_EDGE ( 'NONE', *, *, #162, .F. ) ;
#57 = COORDINATED_UNIVERSAL_TIME_OFFSET ( 2, 0, .AHEAD. ) ;
#58 = APPROVAL_ROLE ( '' ) ;
#59 = ORIENTED_EDGE ( 'NONE', *, *, #38, .T. ) ;
#60 = ADVANCED_FACE ( 'NONE', ( #192 ), #182, .T. ) ;
#61 = DATE_AND_TIME ( #142, #145 ) ;
#62 = ORGANIZATION ( 'UNSPECIFIED', 'UNSPECIFIED', '' ) ;
#63 = EDGE_CURVE ( 'NONE', #222, #214, #216, .T. ) ;
#64 = CARTESIAN_POINT ( 'NONE',  ( -25.39999999999999900, 7.995584178184967200E-015, 8.594643826190161200 ) ) ;
#65 = MANIFOLD_SOLID_BREP ( 'Imported1', #199 ) ;
#66 = CARTESIAN_POINT ( 'NONE',  ( 7.361858441377833600, 25.65947400098625400, 8.794560030283983900 ) ) ;
#67 = CC_DESIGN_APPROVAL ( #133, ( #153 ) ) ;
#68 = CARTESIAN_POINT ( 'NONE',  ( 20.16238485941723400, 25.65947400098626100, 15.66096236439993000 ) ) ;
#69 = PERSON ( 'UNSPECIFIED', 'UNSPECIFIED', 'UNSPECIFIED', ('UNSPECIFIED'), ('UNSPECIFIED'), ('UNSPECIFIED') ) ;
#70 = AXIS2_PLACEMENT_3D ( 'NONE', #50, #206, #148 ) ;
#71 = PERSON_AND_ORGANIZATION_ROLE ( 'design_owner' ) ;
#72 = VERTEX_POINT ( 'NONE', #48 ) ;
#73 = PERSON_AND_ORGANIZATION ( #69, #62 ) ;
#74 = VERTEX_POINT ( 'NONE', #127 ) ;
#75 = ADVANCED_FACE ( 'NONE', ( #168 ), #173, .T. ) ;
#76 = CALENDAR_DATE ( 2019, 3, 1 ) ;
#77 = ORIENTED_EDGE ( 'NONE', *, *, #32, .T. ) ;
#78 = DATE_TIME_ROLE ( 'classification_date' ) ;
#79 =( GEOMETRIC_REPRESENTATION_CONTEXT ( 3 ) GLOBAL_UNCERTAINTY_ASSIGNED_CONTEXT ( ( #98 ) ) GLOBAL_UNIT_ASSIGNED_CONTEXT ( ( #120, #5, #124 ) ) REPRESENTATION_CONTEXT ( 'NONE', 'WORKASPACE' ) );
#80 = VECTOR ( 'NONE', #104, 1000.000000000000000 ) ;
#81 = CARTESIAN_POINT ( 'NONE',  ( -19.62472759167354400, -9.947423951164712000, -0.1593898501230728800 ) ) ;
#82 = DIRECTION ( 'NONE',  ( 1.000000000000000000, 0.0000000000000000000, -0.0000000000000000000 ) ) ;
#83 = CARTESIAN_POINT ( 'NONE',  ( 0.0000000000000000000, 52.02000000000000300, 11.60000000000000000 ) ) ;
#84 = DIRECTION ( 'NONE',  ( 1.000000000000000000, 0.0000000000000000000, 0.0000000000000000000 ) ) ;
#85 = EDGE_CURVE ( 'NONE', #74, #72, #114, .T. ) ;
#86 = DIRECTION ( 'NONE',  ( 1.000000000000000000, 0.0000000000000000000, 0.0000000000000000000 ) ) ;
#87 = PLANE ( 'NONE',  #13 ) ;
#88 = CARTESIAN_POINT ( 'NONE',  ( -7.105427357601000300E-015, -25.39999999999999900, 8.594643826190163000 ) ) ;
#89 = CARTESIAN_POINT ( 'NONE',  ( -7.105427357601000300E-015, -9.947423951164713800, -3.409392456051136800 ) ) ;
#90 = DIRECTION ( 'NONE',  ( 1.000000000000000000, 0.0000000000000000000, 0.0000000000000000000 ) ) ;
#91 = DIRECTION ( 'NONE',  ( 0.0000000000000000000, 0.0000000000000000000, 1.000000000000000000 ) ) ;
#92 = FACE_OUTER_BOUND ( 'NONE', #121, .T. ) ;
#93 = CALENDAR_DATE ( 2019, 3, 1 ) ;
#94 = PERSON_AND_ORGANIZATION ( #69, #62 ) ;
#95 = APPROVAL_ROLE ( '' ) ;
#96 = EDGE_CURVE ( 'NONE', #72, #74, #158, .T. ) ;
#97 = ORIENTED_EDGE ( 'NONE', *, *, #96, .F. ) ;
#98 = UNCERTAINTY_MEASURE_WITH_UNIT (LENGTH_MEASURE( 1.000000000000000100E-005 ), #120, 'distance_accuracy_value', 'NONE');
#99 = PERSON_AND_ORGANIZATION ( #69, #62 ) ;
#100 = FACE_OUTER_BOUND ( 'NONE', #33, .T. ) ;
#101 = CC_DESIGN_DATE_AND_TIME_ASSIGNMENT ( #226, #78, ( #153 ) ) ;
#102 = CARTESIAN_POINT ( 'NONE',  ( -1.734723475976807100E-014, -9.947423951164715600, -3.409392456051134600 ) ) ;
#103 = CARTESIAN_POINT ( 'NONE',  ( -14.33068560561635100, 25.65947400098625800, 11.16782943468324500 ) ) ;
#104 = DIRECTION ( 'NONE',  ( 0.0000000000000000000, 0.0000000000000000000, 1.000000000000000000 ) ) ;
#105 = APPROVAL ( #154, 'UNSPECIFIED' ) ;
#106 = CARTESIAN_POINT ( 'NONE',  ( 25.39999999999999900, 4.884981308350691100E-015, 8.594643826190161200 ) ) ;
#107 = CARTESIAN_POINT ( 'NONE',  ( -27.61077322842631400, -9.947423951164712000, 5.993596280862205600 ) ) ;
#108 = AXIS2_PLACEMENT_3D ( 'NONE', #11, #86, #167 ) ;
#109 = DIRECTION ( 'NONE',  ( 0.0000000000000000000, 0.0000000000000000000, 1.000000000000000000 ) ) ;
#110 = CARTESIAN_POINT ( 'NONE',  ( 10.08147624311019700, 9.947423951164720900, -3.409392456051134600 ) ) ;
#111 = VECTOR ( 'NONE', #4, 1000.000000000000000 ) ;
#112 = PRODUCT ( '110-5511E CaF2 pl-cx 50.8 F100', '110-5511E CaF2 pl-cx 50.8 F100', '', ( #141 ) ) ;
#113 = COORDINATED_UNIVERSAL_TIME_OFFSET ( 2, 0, .AHEAD. ) ;
#114 = CIRCLE ( 'NONE', #220, 25.39999999999999900 ) ;
#115 = ORIENTED_EDGE ( 'NONE', *, *, #52, .T. ) ;
#116 = LOCAL_TIME ( 15, 50, 27.00000000000000000, #150 ) ;
#117 = PRODUCT_DEFINITION_FORMATION_WITH_SPECIFIED_SOURCE ( 'ANY', '', #112, .NOT_KNOWN. ) ;
#118 = EDGE_LOOP ( 'NONE', ( #135, #115, #196, #172, #56 ) ) ;
#119 = CARTESIAN_POINT ( 'NONE',  ( -25.39999999999999900, 7.995584178184967200E-015, 8.594643826190161200 ) ) ;
#120 =( LENGTH_UNIT ( ) NAMED_UNIT ( * ) SI_UNIT ( .MILLI., .METRE. ) );
#121 = EDGE_LOOP ( 'NONE', ( #97, #152 ) ) ;
#122 = CARTESIAN_POINT ( 'NONE',  ( -7.105427357601000300E-015, -25.65947400098624700, 8.794560030283983900 ) ) ;
#123 = AXIS2_PLACEMENT_3D ( 'NONE', #43, #2, #24 ) ;
#124 =( NAMED_UNIT ( * ) SI_UNIT ( $, .STERADIAN. ) SOLID_ANGLE_UNIT ( ) );
#125 = CARTESIAN_POINT ( 'NONE',  ( 19.62472759167355100, 9.947423951164722700, -0.1593898501230702500 ) ) ;
#126 = CARTESIAN_POINT ( 'NONE',  ( 10.08147624311020100, -9.947423951164713800, -3.409392456051135900 ) ) ;
#127 = CARTESIAN_POINT ( 'NONE',  ( -25.39999999999999900, 7.995584178184967200E-015, 11.60000000000000000 ) ) ;
#128 = DATE_AND_TIME ( #76, #163 ) ;
#129 = DESIGN_CONTEXT ( 'detailed design', #211, 'design' ) ;
#130 = APPROVAL ( #229, 'UNSPECIFIED' ) ;
#131 = APPROVAL_STATUS ( 'not_yet_approved' ) ;
#132 = PERSON_AND_ORGANIZATION ( #69, #62 ) ;
#133 = APPROVAL ( #131, 'UNSPECIFIED' ) ;
#134 = CARTESIAN_POINT ( 'NONE',  ( -10.08147624311021000, -9.947423951164719100, -3.409392456051133700 ) ) ;
#135 = ORIENTED_EDGE ( 'NONE', *, *, #63, .F. ) ;
#136 = CARTESIAN_POINT ( 'NONE',  ( -7.105427357601000300E-015, 25.65947400098625400, 8.794560030283983900 ) ) ;
#137 = CALENDAR_DATE ( 2019, 3, 1 ) ;
#138 = CARTESIAN_POINT ( 'NONE',  ( 14.33068560561635800, -25.65947400098624000, 11.16782943468325200 ) ) ;
#139 = AXIS2_PLACEMENT_3D ( 'NONE', #231, #91, #170 ) ;
#140 = CARTESIAN_POINT ( 'NONE',  ( 9.992007221626412800E-016, 4.884981308350691100E-015, 8.594643826190161200 ) ) ;
#141 = MECHANICAL_CONTEXT ( 'NONE', #191, 'mechanical' ) ;
#142 = CALENDAR_DATE ( 2019, 3, 1 ) ;
#143 = AXIS2_PLACEMENT_3D ( 'NONE', #140, #166, #90 ) ;
#144 = CC_DESIGN_PERSON_AND_ORGANIZATION_ASSIGNMENT ( #174, #232, ( #117 ) ) ;
#145 = LOCAL_TIME ( 15, 50, 27.00000000000000000, #113 ) ;
#146 = LINE ( 'NONE', #119, #111 ) ;
#147 = CARTESIAN_POINT ( 'NONE',  ( -27.61077322842631100, 9.947423951164724400, 5.993596280862200300 ) ) ;
#148 = DIRECTION ( 'NONE',  ( 1.000000000000000000, 1.776356839400250500E-015, 0.0000000000000000000 ) ) ;
#149 = CARTESIAN_POINT ( 'NONE',  ( 9.992007221626412800E-016, 4.884981308350691100E-015, 8.594643826190161200 ) ) ;
#150 = COORDINATED_UNIVERSAL_TIME_OFFSET ( 2, 0, .AHEAD. ) ;
#151 = APPROVAL_ROLE ( '' ) ;
#152 = ORIENTED_EDGE ( 'NONE', *, *, #85, .F. ) ;
#153 = SECURITY_CLASSIFICATION ( '', '', #20 ) ;
#154 = APPROVAL_STATUS ( 'not_yet_approved' ) ;
#155 = APPROVAL_DATE_TIME ( #61, #133 ) ;
#156 = ORIENTED_EDGE ( 'NONE', *, *, #52, .F. ) ;
#157 = EDGE_CURVE ( 'NONE', #178, #214, #53, .T. ) ;
#158 = CIRCLE ( 'NONE', #47, 25.39999999999999900 ) ;
#159 = EDGE_LOOP ( 'NONE', ( #59, #28, #8 ) ) ;
#160 = CARTESIAN_POINT ( 'NONE',  ( 9.992007221626412800E-016, 4.884981308350691100E-015, 8.594643826190161200 ) ) ;
#161 = CARTESIAN_POINT ( 'NONE',  ( -7.361858441377847000, 25.65947400098625800, 8.794560030283978600 ) ) ;
#162 = EDGE_CURVE ( 'NONE', #214, #193, #212, .T. ) ;
#163 = LOCAL_TIME ( 15, 50, 27.00000000000000000, #171 ) ;
#164 = CARTESIAN_POINT ( 'NONE',  ( 9.992007221626412800E-016, 4.884981308350691100E-015, 11.60000000000000000 ) ) ;
#165 = CC_DESIGN_PERSON_AND_ORGANIZATION_ASSIGNMENT ( #94, #71, ( #112 ) ) ;
#166 = DIRECTION ( 'NONE',  ( 0.0000000000000000000, 0.0000000000000000000, 1.000000000000000000 ) ) ;
#167 = DIRECTION ( 'NONE',  ( 0.0000000000000000000, -1.000000000000000000, 6.635327663310761200E-016 ) ) ;
#168 = FACE_OUTER_BOUND ( 'NONE', #159, .T. ) ;
#169 = DIRECTION ( 'NONE',  ( -0.0000000000000000000, -0.0000000000000000000, -1.000000000000000000 ) ) ;
#170 = DIRECTION ( 'NONE',  ( 1.000000000000000000, 0.0000000000000000000, 0.0000000000000000000 ) ) ;
#171 = COORDINATED_UNIVERSAL_TIME_OFFSET ( 2, 0, .AHEAD. ) ;
#172 = ORIENTED_EDGE ( 'NONE', *, *, #179, .F. ) ;
#173 =( BOUNDED_SURFACE ( )  B_SPLINE_SURFACE ( 3, 3, ( 
 ( #122, #187, #138, #12 ),
 ( #89, #126, #207, #30 ),
 ( #189, #110, #125, #9 ),
 ( #136, #66, #183, #68 ) ),
 .UNSPECIFIED., .F., .F., .T. ) 
 B_SPLINE_SURFACE_WITH_KNOTS ( ( 4, 4 ),
 ( 4, 4 ),
 ( 0.0000000000000000000, 1.000000000000000000 ),
 ( 0.0000000000000000000, 1.000000000000000000 ),
 .UNSPECIFIED. ) 
 GEOMETRIC_REPRESENTATION_ITEM ( )  RATIONAL_B_SPLINE_SURFACE ( (
 ( 1.000000000000000000, 0.9644083279361206400, 0.9644083279361206400, 1.000000000000000000),
 ( 0.8598364805118496900, 0.8292334624689117200, 0.8292334624689117200, 0.8598364805118496900),
 ( 0.8598364805118496900, 0.8292334624689117200, 0.8292334624689117200, 0.8598364805118496900),
 ( 1.000000000000000000, 0.9644083279361206400, 0.9644083279361206400, 1.000000000000000000) ) ) 
 REPRESENTATION_ITEM ( '' )  SURFACE ( )  );
#174 = PERSON_AND_ORGANIZATION ( #69, #62 ) ;
#175 = LOCAL_TIME ( 15, 50, 27.00000000000000000, #186 ) ;
#176 = CC_DESIGN_PERSON_AND_ORGANIZATION_ASSIGNMENT ( #27, #51, ( #228 ) ) ;
#177 = ADVANCED_FACE ( 'NONE', ( #100 ), #22, .T. ) ;
#178 = VERTEX_POINT ( 'NONE', #88 ) ;
#179 = EDGE_CURVE ( 'NONE', #193, #72, #34, .T. ) ;
#180 = PRODUCT_RELATED_PRODUCT_CATEGORY ( 'detail', '', ( #112 ) ) ;
#181 = CARTESIAN_POINT ( 'NONE',  ( -1.387778780781445700E-014, -25.65947400098624700, 8.794560030283987500 ) ) ;
#182 =( BOUNDED_SURFACE ( )  B_SPLINE_SURFACE ( 3, 3, ( 
 ( #185, #26, #7, #181 ),
 ( #107, #81, #134, #102 ),
 ( #147, #29, #46, #44 ),
 ( #203, #103, #161, #1 ) ),
 .UNSPECIFIED., .F., .F., .F. ) 
 B_SPLINE_SURFACE_WITH_KNOTS ( ( 4, 4 ),
 ( 4, 4 ),
 ( 0.0000000000000000000, 1.000000000000000000 ),
 ( 0.0000000000000000000, 1.000000000000000000 ),
 .UNSPECIFIED. ) 
 GEOMETRIC_REPRESENTATION_ITEM ( )  RATIONAL_B_SPLINE_SURFACE ( (
 ( 1.000000000000000000, 0.9644083279361207500, 0.9644083279361207500, 1.000000000000000000),
 ( 0.8598364805118496900, 0.8292334624689118300, 0.8292334624689118300, 0.8598364805118496900),
 ( 0.8598364805118496900, 0.8292334624689118300, 0.8292334624689118300, 0.8598364805118496900),
 ( 1.000000000000000000, 0.9644083279361207500, 0.9644083279361207500, 1.000000000000000000) ) ) 
 REPRESENTATION_ITEM ( '' )  SURFACE ( )  );
#183 = CARTESIAN_POINT ( 'NONE',  ( 14.33068560561635100, 25.65947400098625800, 11.16782943468324900 ) ) ;
#184 = DIRECTION ( 'NONE',  ( -0.0000000000000000000, -0.0000000000000000000, -1.000000000000000000 ) ) ;
#185 = CARTESIAN_POINT ( 'NONE',  ( -20.16238485941724400, -25.65947400098624300, 15.66096236439992700 ) ) ;
#186 = COORDINATED_UNIVERSAL_TIME_OFFSET ( 2, 0, .AHEAD. ) ;
#187 = CARTESIAN_POINT ( 'NONE',  ( 7.361858441377845200, -25.65947400098624300, 8.794560030283983900 ) ) ;
#188 = CC_DESIGN_APPROVAL ( #130, ( #228 ) ) ;
#189 = CARTESIAN_POINT ( 'NONE',  ( -7.105427357601000300E-015, 9.947423951164719100, -3.409392456051134600 ) ) ;
#190 = LOCAL_TIME ( 15, 50, 27.00000000000000000, #57 ) ;
#191 = APPLICATION_CONTEXT ( 'configuration controlled 3d designs of mechanical parts and assemblies' ) ;
#192 = FACE_OUTER_BOUND ( 'NONE', #233, .T. ) ;
#193 = VERTEX_POINT ( 'NONE', #106 ) ;
#194 = CC_DESIGN_SECURITY_CLASSIFICATION ( #153, ( #117 ) ) ;
#195 = AXIS2_PLACEMENT_3D ( 'NONE', #160, #200, #25 ) ;
#196 = ORIENTED_EDGE ( 'NONE', *, *, #85, .T. ) ;
#197 = DATE_AND_TIME ( #137, #175 ) ;
#198 = FACE_OUTER_BOUND ( 'NONE', #118, .T. ) ;
#199 = CLOSED_SHELL ( 'NONE', ( #75, #234, #60, #177, #40 ) ) ;
#200 = DIRECTION ( 'NONE',  ( -0.0000000000000000000, -0.0000000000000000000, -1.000000000000000000 ) ) ;
#201 = DIRECTION ( 'NONE',  ( 0.0000000000000000000, 0.0000000000000000000, 1.000000000000000000 ) ) ;
#202 = DIRECTION ( 'NONE',  ( -0.0000000000000000000, -0.0000000000000000000, -1.000000000000000000 ) ) ;
#203 = CARTESIAN_POINT ( 'NONE',  ( -20.16238485941722700, 25.65947400098625800, 15.66096236439991400 ) ) ;
#204 = APPROVAL_DATE_TIME ( #21, #105 ) ;
#205 = ORIENTED_EDGE ( 'NONE', *, *, #38, .F. ) ;
#206 = DIRECTION ( 'NONE',  ( -0.0000000000000000000, -0.0000000000000000000, -1.000000000000000000 ) ) ;
#207 = CARTESIAN_POINT ( 'NONE',  ( 19.62472759167355100, -9.947423951164713800, -0.1593898501230711100 ) ) ;
#208 = CARTESIAN_POINT ( 'NONE',  ( 9.992007221626412800E-016, 4.884981308350691100E-015, 8.594643826190161200 ) ) ;
#209 = APPROVAL_PERSON_ORGANIZATION ( #132, #133, #58 ) ;
#210 = ORIENTED_EDGE ( 'NONE', *, *, #96, .T. ) ;
#211 = APPLICATION_CONTEXT ( 'configuration controlled 3d designs of mechanical parts and assemblies' ) ;
#212 = CIRCLE ( 'NONE', #70, 25.39999999999999900 ) ;
#213 = AXIS2_PLACEMENT_3D ( 'NONE', #208, #109, #31 ) ;
#214 = VERTEX_POINT ( 'NONE', #223 ) ;
#215 = PERSON_AND_ORGANIZATION_ROLE ( 'creator' ) ;
#216 = CIRCLE ( 'NONE', #6, 25.39999999999999900 ) ;
#217 = ORIENTED_EDGE ( 'NONE', *, *, #63, .T. ) ;
#218 = CALENDAR_DATE ( 2019, 3, 1 ) ;
#219 = CC_DESIGN_PERSON_AND_ORGANIZATION_ASSIGNMENT ( #19, #215, ( #117 ) ) ;
#220 = AXIS2_PLACEMENT_3D ( 'NONE', #45, #202, #10 ) ;
#221 = APPROVAL_PERSON_ORGANIZATION ( #42, #130, #151 ) ;
#222 = VERTEX_POINT ( 'NONE', #64 ) ;
#223 = CARTESIAN_POINT ( 'NONE',  ( -7.105427357601000300E-015, 25.40000000000000600, 8.594643826190163000 ) ) ;
#224 = CARTESIAN_POINT ( 'NONE',  ( 25.39999999999999900, 4.884981308350691100E-015, 8.594643826190161200 ) ) ;
#225 = DIRECTION ( 'NONE',  ( 1.000000000000000000, -8.881784197001252300E-016, 0.0000000000000000000 ) ) ;
#226 = DATE_AND_TIME ( #93, #190 ) ;
#227 = APPROVAL_DATE_TIME ( #128, #130 ) ;
#228 = PRODUCT_DEFINITION ( 'UNKNOWN', '', #117, #129 ) ;
#229 = APPROVAL_STATUS ( 'not_yet_approved' ) ;
#230 = PRODUCT_DEFINITION_SHAPE ( 'NONE', 'NONE',  #228 ) ;
#231 = CARTESIAN_POINT ( 'NONE',  ( 0.0000000000000000000, 0.0000000000000000000, 0.0000000000000000000 ) ) ;
#232 = PERSON_AND_ORGANIZATION_ROLE ( 'design_supplier' ) ;
#233 = EDGE_LOOP ( 'NONE', ( #16, #77, #217 ) ) ;
#234 = ADVANCED_FACE ( 'NONE', ( #198 ), #37, .T. ) ;
#235 = PERSON_AND_ORGANIZATION_ROLE ( 'classification_officer' ) ;
ENDSEC;
END-ISO-10303-21;
