ISO-10303-21;
HEADER;
FILE_DESCRIPTION (( 'STEP AP203' ),
    '1' );
FILE_NAME ('110-5509E CaF2 pl-cx 50.8 F75.STEP',
    '2019-01-03T12:24:43',
    ( '' ),
    ( '' ),
    'SwSTEP 2.0',
    'SolidWorks 2017',
    '' );
FILE_SCHEMA (( 'CONFIG_CONTROL_DESIGN' ));
ENDSEC;

DATA;
#1 = CARTESIAN_POINT ( 'NONE',  ( -25.39999999999999900, 7.995584178184967200E-015, 12.96030418502249900 ) ) ;
#2 = CARTESIAN_POINT ( 'NONE',  ( 12.34020178183950700, 11.88085692661697300, -6.147211835799143200 ) ) ;
#3 = ORIENTED_EDGE ( 'NONE', *, *, #222, .F. ) ;
#4 = CARTESIAN_POINT ( 'NONE',  ( 3.552713678800500500E-015, 11.88085692661697500, -6.147211835799141400 ) ) ;
#5 =( NAMED_UNIT ( * ) SI_UNIT ( $, .STERADIAN. ) SOLID_ANGLE_UNIT ( ) );
#6 = APPLICATION_PROTOCOL_DEFINITION ( 'international standard', 'config_control_design', 1994, #167 ) ;
#7 = APPLICATION_PROTOCOL_DEFINITION ( 'international standard', 'config_control_design', 1994, #228 ) ;
#8 = AXIS2_PLACEMENT_3D ( 'NONE', #232, #206, #116 ) ;
#9 = PRODUCT_DEFINITION_FORMATION_WITH_SPECIFIED_SOURCE ( 'ANY', '', #131, .NOT_KNOWN. ) ;
#10 = CALENDAR_DATE ( 2019, 3, 1 ) ;
#11 = VECTOR ( 'NONE', #101, 1000.000000000000000 ) ;
#12 = UNCERTAINTY_MEASURE_WITH_UNIT (LENGTH_MEASURE( 1.000000000000000100E-005 ), #106, 'distance_accuracy_value', 'NONE');
#13 = EDGE_CURVE ( 'NONE', #15, #55, #62, .T. ) ;
#14 = COORDINATED_UNIVERSAL_TIME_OFFSET ( 2, 0, .AHEAD. ) ;
#15 = VERTEX_POINT ( 'NONE', #1 ) ;
#16 = CARTESIAN_POINT ( 'NONE',  ( 3.552713678800500100E-015, 0.0000000000000000000, 31.37000000000000100 ) ) ;
#17 = ORIENTED_EDGE ( 'NONE', *, *, #58, .T. ) ;
#18 = CARTESIAN_POINT ( 'NONE',  ( 3.552713678800500500E-015, -11.88085692661696200, -6.147211835799137900 ) ) ;
#19 = AXIS2_PLACEMENT_3D ( 'NONE', #166, #211, #124 ) ;
#20 = CARTESIAN_POINT ( 'NONE',  ( 14.73230336923038000, -25.60682934402729000, 20.81886601436480400 ) ) ;
#21 = CARTESIAN_POINT ( 'NONE',  ( -30.50150929468067700, 11.88085692661697500, 9.525112390338669900 ) ) ;
#22 = PERSON_AND_ORGANIZATION ( #204, #90 ) ;
#23 = CARTESIAN_POINT ( 'NONE',  ( 14.73230336923037800, 25.60682934402729700, 20.81886601436480400 ) ) ;
#24 = CARTESIAN_POINT ( 'NONE',  ( 5.960347553007221900, 25.60682934402730400, 13.24909519516581500 ) ) ;
#25 = COORDINATED_UNIVERSAL_TIME_OFFSET ( 2, 0, .AHEAD. ) ;
#26 = FACE_OUTER_BOUND ( 'NONE', #120, .T. ) ;
#27 = PERSON_AND_ORGANIZATION_ROLE ( 'creator' ) ;
#28 = CALENDAR_DATE ( 2019, 3, 1 ) ;
#29 = CLOSED_SHELL ( 'NONE', ( #97, #201, #31, #196, #37 ) ) ;
#30 = CYLINDRICAL_SURFACE ( 'NONE', #121, 25.39999999999999900 ) ;
#31 = ADVANCED_FACE ( 'NONE', ( #157 ), #226, .T. ) ;
#32 = EDGE_CURVE ( 'NONE', #165, #198, #110, .T. ) ;
#33 = CC_DESIGN_PERSON_AND_ORGANIZATION_ASSIGNMENT ( #69, #107, ( #188 ) ) ;
#34 = DATE_AND_TIME ( #183, #77 ) ;
#35 = CYLINDRICAL_SURFACE ( 'NONE', #19, 25.39999999999999900 ) ;
#36 = CARTESIAN_POINT ( 'NONE',  ( 25.39999999999999900, 4.884981308350691100E-015, 12.96030418502249900 ) ) ;
#37 = ADVANCED_FACE ( 'NONE', ( #115 ), #233, .T. ) ;
#38 = DIRECTION ( 'NONE',  ( 1.000000000000000000, 0.0000000000000000000, 0.0000000000000000000 ) ) ;
#39 = CALENDAR_DATE ( 2019, 3, 1 ) ;
#40 = CARTESIAN_POINT ( 'NONE',  ( 9.992007221626412800E-016, 4.884981308350691100E-015, 12.96030418502249900 ) ) ;
#41 = AXIS2_PLACEMENT_3D ( 'NONE', #146, #148, #179 ) ;
#42 = CARTESIAN_POINT ( 'NONE',  ( 11.26181299857543100, 25.60682934402730400, 15.97310090038843800 ) ) ;
#43 = CARTESIAN_POINT ( 'NONE',  ( 9.992007221626412800E-016, 4.884981308350691100E-015, 12.96030418502249900 ) ) ;
#44 = ORIENTED_EDGE ( 'NONE', *, *, #58, .F. ) ;
#45 = CARTESIAN_POINT ( 'NONE',  ( -23.31626530094655400, 11.88085692661697100, -0.5074769447743106000 ) ) ;
#46 = DIRECTION ( 'NONE',  ( 0.0000000000000000000, 0.0000000000000000000, 1.000000000000000000 ) ) ;
#47 = CARTESIAN_POINT ( 'NONE',  ( 30.50150929468067000, 11.88085692661697500, 9.525112390338637900 ) ) ;
#48 = PRODUCT_RELATED_PRODUCT_CATEGORY ( 'detail', '', ( #131 ) ) ;
#49 = PERSON_AND_ORGANIZATION ( #204, #90 ) ;
#50 = FACE_OUTER_BOUND ( 'NONE', #161, .T. ) ;
#51 = EDGE_CURVE ( 'NONE', #15, #127, #92, .T. ) ;
#52 = ORIENTED_EDGE ( 'NONE', *, *, #13, .F. ) ;
#53 = APPROVAL ( #86, 'UNSPECIFIED' ) ;
#54 = AXIS2_PLACEMENT_3D ( 'NONE', #16, #38, #160 ) ;
#55 = VERTEX_POINT ( 'NONE', #235 ) ;
#56 = APPROVAL ( #108, 'UNSPECIFIED' ) ;
#57 = SHAPE_DEFINITION_REPRESENTATION ( #176, #169 ) ;
#58 = EDGE_CURVE ( 'NONE', #55, #165, #215, .T. ) ;
#59 = CARTESIAN_POINT ( 'NONE',  ( 3.552713678800500100E-015, -25.60682934402729000, 13.24909519516580900 ) ) ;
#60 = CARTESIAN_POINT ( 'NONE',  ( -5.960347553007225400, -25.60682934402729000, 13.24909519516580900 ) ) ;
#61 = PERSON_AND_ORGANIZATION ( #204, #90 ) ;
#62 = CIRCLE ( 'NONE', #76, 25.39999999999999900 ) ;
#63 = EDGE_CURVE ( 'NONE', #198, #55, #195, .T. ) ;
#64 = CARTESIAN_POINT ( 'NONE',  ( -25.39999999999999900, 7.995584178184967200E-015, 15.90000000000000000 ) ) ;
#65 = CARTESIAN_POINT ( 'NONE',  ( 25.39999999999999900, 4.884981308350691100E-015, 12.96030418502249900 ) ) ;
#66 = CARTESIAN_POINT ( 'NONE',  ( -12.34020178183952000, 11.88085692661697100, -6.147211835799135200 ) ) ;
#67 = CIRCLE ( 'NONE', #70, 25.39999999999999900 ) ;
#68 = CC_DESIGN_PERSON_AND_ORGANIZATION_ASSIGNMENT ( #22, #27, ( #9 ) ) ;
#69 = PERSON_AND_ORGANIZATION ( #204, #90 ) ;
#70 = AXIS2_PLACEMENT_3D ( 'NONE', #83, #104, #122 ) ;
#71 = ORIENTED_EDGE ( 'NONE', *, *, #93, .T. ) ;
#72 = ORIENTED_EDGE ( 'NONE', *, *, #51, .T. ) ;
#73 = CC_DESIGN_PERSON_AND_ORGANIZATION_ASSIGNMENT ( #175, #187, ( #87 ) ) ;
#74 = DESIGN_CONTEXT ( 'detailed design', #228, 'design' ) ;
#75 = ORIENTED_EDGE ( 'NONE', *, *, #100, .T. ) ;
#76 = AXIS2_PLACEMENT_3D ( 'NONE', #234, #133, #80 ) ;
#77 = LOCAL_TIME ( 14, 24, 43.00000000000000000, #79 ) ;
#78 = EDGE_LOOP ( 'NONE', ( #3, #145 ) ) ;
#79 = COORDINATED_UNIVERSAL_TIME_OFFSET ( 2, 0, .AHEAD. ) ;
#80 = DIRECTION ( 'NONE',  ( 1.000000000000000000, 0.0000000000000000000, 0.0000000000000000000 ) ) ;
#81 = DIRECTION ( 'NONE',  ( 0.0000000000000000000, 0.0000000000000000000, 1.000000000000000000 ) ) ;
#82 =( NAMED_UNIT ( * ) PLANE_ANGLE_UNIT ( ) SI_UNIT ( $, .RADIAN. ) );
#83 = CARTESIAN_POINT ( 'NONE',  ( 9.992007221626412800E-016, 4.884981308350691100E-015, 12.96030418502249900 ) ) ;
#84 = CARTESIAN_POINT ( 'NONE',  ( -11.26181299857543600, 25.60682934402729700, 15.97310090038844300 ) ) ;
#85 = CC_DESIGN_PERSON_AND_ORGANIZATION_ASSIGNMENT ( #223, #192, ( #9 ) ) ;
#86 = APPROVAL_STATUS ( 'not_yet_approved' ) ;
#87 = PRODUCT_DEFINITION ( 'UNKNOWN', '', #9, #74 ) ;
#88 = PERSON_AND_ORGANIZATION ( #204, #90 ) ;
#89 = DATE_TIME_ROLE ( 'creation_date' ) ;
#90 = ORGANIZATION ( 'UNSPECIFIED', 'UNSPECIFIED', '' ) ;
#91 = AXIS2_PLACEMENT_3D ( 'NONE', #40, #203, #200 ) ;
#92 = LINE ( 'NONE', #218, #154 ) ;
#93 = EDGE_CURVE ( 'NONE', #165, #130, #184, .T. ) ;
#94 = DATE_AND_TIME ( #28, #227 ) ;
#95 = ORIENTED_EDGE ( 'NONE', *, *, #13, .T. ) ;
#96 = CARTESIAN_POINT ( 'NONE',  ( 23.31626530094652600, -11.88085692661696600, -0.5074769447743228100 ) ) ;
#97 = ADVANCED_FACE ( 'NONE', ( #26 ), #163, .T. ) ;
#98 = CARTESIAN_POINT ( 'NONE',  ( -30.50150929468067700, -11.88085692661696200, 9.525112390338669900 ) ) ;
#99 = CARTESIAN_POINT ( 'NONE',  ( 0.0000000000000000000, -25.60682934402729000, 13.24909519516580800 ) ) ;
#100 = EDGE_CURVE ( 'NONE', #198, #15, #67, .T. ) ;
#101 = DIRECTION ( 'NONE',  ( 0.0000000000000000000, 0.0000000000000000000, 1.000000000000000000 ) ) ;
#102 = CARTESIAN_POINT ( 'NONE',  ( 3.552713678800500100E-015, -25.39999999999999900, 12.96030418502249900 ) ) ;
#103 = CARTESIAN_POINT ( 'NONE',  ( -14.73230336923038700, -25.60682934402729000, 20.81886601436481500 ) ) ;
#104 = DIRECTION ( 'NONE',  ( -0.0000000000000000000, -0.0000000000000000000, -1.000000000000000000 ) ) ;
#105 = CIRCLE ( 'NONE', #126, 25.39999999999999900 ) ;
#106 =( LENGTH_UNIT ( ) NAMED_UNIT ( * ) SI_UNIT ( .MILLI., .METRE. ) );
#107 = PERSON_AND_ORGANIZATION_ROLE ( 'classification_officer' ) ;
#108 = APPROVAL_STATUS ( 'not_yet_approved' ) ;
#109 = APPROVAL_ROLE ( '' ) ;
#110 = CIRCLE ( 'NONE', #91, 25.39999999999999900 ) ;
#111 = LOCAL_TIME ( 14, 24, 43.00000000000000000, #14 ) ;
#112 = ORIENTED_EDGE ( 'NONE', *, *, #32, .F. ) ;
#113 = CARTESIAN_POINT ( 'NONE',  ( 0.0000000000000000000, 25.60682934402729700, 13.24909519516581300 ) ) ;
#114 = CARTESIAN_POINT ( 'NONE',  ( 11.26181299857543300, -25.60682934402729700, 15.97310090038843800 ) ) ;
#115 = FACE_OUTER_BOUND ( 'NONE', #78, .T. ) ;
#116 = DIRECTION ( 'NONE',  ( 1.000000000000000000, 0.0000000000000000000, -0.0000000000000000000 ) ) ;
#117 = DIRECTION ( 'NONE',  ( -0.0000000000000000000, -0.0000000000000000000, -1.000000000000000000 ) ) ;
#118 = CALENDAR_DATE ( 2019, 3, 1 ) ;
#119 = CARTESIAN_POINT ( 'NONE',  ( -23.31626530094655100, -11.88085692661696400, -0.5074769447743123800 ) ) ;
#120 = EDGE_LOOP ( 'NONE', ( #159, #197, #17 ) ) ;
#121 = AXIS2_PLACEMENT_3D ( 'NONE', #43, #81, #185 ) ;
#122 = DIRECTION ( 'NONE',  ( 1.000000000000000000, 0.0000000000000000000, 0.0000000000000000000 ) ) ;
#123 = DIRECTION ( 'NONE',  ( -0.0000000000000000000, -0.0000000000000000000, -1.000000000000000000 ) ) ;
#124 = DIRECTION ( 'NONE',  ( 1.000000000000000000, 0.0000000000000000000, 0.0000000000000000000 ) ) ;
#125 = MANIFOLD_SOLID_BREP ( 'Imported1', #29 ) ;
#126 = AXIS2_PLACEMENT_3D ( 'NONE', #182, #117, #224 ) ;
#127 = VERTEX_POINT ( 'NONE', #64 ) ;
#128 = DATE_AND_TIME ( #118, #190 ) ;
#129 = APPROVAL_PERSON_ORGANIZATION ( #88, #56, #214 ) ;
#130 = VERTEX_POINT ( 'NONE', #162 ) ;
#131 = PRODUCT ( '110-5509E CaF2 pl-cx 50.8 F75', '110-5509E CaF2 pl-cx 50.8 F75', '', ( #209 ) ) ;
#132 = CC_DESIGN_APPROVAL ( #53, ( #9 ) ) ;
#133 = DIRECTION ( 'NONE',  ( -0.0000000000000000000, -0.0000000000000000000, -1.000000000000000000 ) ) ;
#134 = COORDINATED_UNIVERSAL_TIME_OFFSET ( 2, 0, .AHEAD. ) ;
#135 = CARTESIAN_POINT ( 'NONE',  ( 3.552713678800500100E-015, 25.60682934402729700, 13.24909519516581300 ) ) ;
#136 = CARTESIAN_POINT ( 'NONE',  ( -6.938893903907228400E-015, 11.88085692661697500, -6.147211835799137900 ) ) ;
#137 = APPROVAL_DATE_TIME ( #140, #56 ) ;
#138 = ORIENTED_EDGE ( 'NONE', *, *, #93, .F. ) ;
#139 = EDGE_CURVE ( 'NONE', #127, #130, #105, .T. ) ;
#140 = DATE_AND_TIME ( #10, #111 ) ;
#141 = FACE_OUTER_BOUND ( 'NONE', #216, .T. ) ;
#142 = APPROVAL_PERSON_ORGANIZATION ( #61, #53, #109 ) ;
#143 = APPROVAL_DATE_TIME ( #34, #53 ) ;
#144 = CARTESIAN_POINT ( 'NONE',  ( 12.34020178183950400, -11.88085692661696600, -6.147211835799137900 ) ) ;
#145 = ORIENTED_EDGE ( 'NONE', *, *, #139, .F. ) ;
#146 = CARTESIAN_POINT ( 'NONE',  ( 9.992007221626412800E-016, 4.884981308350691100E-015, 12.96030418502249900 ) ) ;
#147 = CARTESIAN_POINT ( 'NONE',  ( -12.34020178183951400, -11.88085692661696400, -6.147211835799137000 ) ) ;
#148 = DIRECTION ( 'NONE',  ( -0.0000000000000000000, -0.0000000000000000000, -1.000000000000000000 ) ) ;
#149 = CARTESIAN_POINT ( 'NONE',  ( 9.992007221626412800E-016, 4.884981308350691100E-015, 15.90000000000000000 ) ) ;
#150 = APPROVAL_DATE_TIME ( #128, #181 ) ;
#151 = AXIS2_PLACEMENT_3D ( 'NONE', #149, #123, #152 ) ;
#152 = DIRECTION ( 'NONE',  ( 1.000000000000000000, 0.0000000000000000000, 0.0000000000000000000 ) ) ;
#153 = CARTESIAN_POINT ( 'NONE',  ( 0.0000000000000000000, 0.0000000000000000000, 0.0000000000000000000 ) ) ;
#154 = VECTOR ( 'NONE', #221, 1000.000000000000000 ) ;
#155 = APPROVAL_ROLE ( '' ) ;
#156 = COORDINATED_UNIVERSAL_TIME_OFFSET ( 2, 0, .AHEAD. ) ;
#157 = FACE_OUTER_BOUND ( 'NONE', #158, .T. ) ;
#158 = EDGE_LOOP ( 'NONE', ( #219, #75, #95 ) ) ;
#159 = ORIENTED_EDGE ( 'NONE', *, *, #32, .T. ) ;
#160 = DIRECTION ( 'NONE',  ( 0.0000000000000000000, -1.000000000000000000, 0.0000000000000000000 ) ) ;
#161 = EDGE_LOOP ( 'NONE', ( #172, #208, #112, #71, #177 ) ) ;
#162 = CARTESIAN_POINT ( 'NONE',  ( 25.39999999999999900, 4.884981308350691100E-015, 15.90000000000000000 ) ) ;
#163 =( BOUNDED_SURFACE ( )  B_SPLINE_SURFACE ( 3, 3, ( 
 ( #59, #202, #114, #20 ),
 ( #18, #144, #96, #220 ),
 ( #4, #2, #180, #47 ),
 ( #135, #24, #42, #23 ) ),
 .UNSPECIFIED., .F., .F., .F. ) 
 B_SPLINE_SURFACE_WITH_KNOTS ( ( 4, 4 ),
 ( 4, 4 ),
 ( 0.0000000000000000000, 1.000000000000000000 ),
 ( 0.0000000000000000000, 1.000000000000000000 ),
 .UNSPECIFIED. ) 
 GEOMETRIC_REPRESENTATION_ITEM ( )  RATIONAL_B_SPLINE_SURFACE ( (
 ( 1.000000000000000000, 0.9263038380922851100, 0.9263038380922851100, 1.000000000000000000),
 ( 0.7184338498530271600, 0.6654880325342755800, 0.6654880325342755800, 0.7184338498530271600),
 ( 0.7184338498530271600, 0.6654880325342755800, 0.6654880325342755800, 0.7184338498530271600),
 ( 1.000000000000000000, 0.9263038380922851100, 0.9263038380922851100, 1.000000000000000000) ) ) 
 REPRESENTATION_ITEM ( '' )  SURFACE ( )  );
#164 = DATE_AND_TIME ( #39, #194 ) ;
#165 = VERTEX_POINT ( 'NONE', #65 ) ;
#166 = CARTESIAN_POINT ( 'NONE',  ( 9.992007221626412800E-016, 4.884981308350691100E-015, 12.96030418502249900 ) ) ;
#167 = APPLICATION_CONTEXT ( 'configuration controlled 3d designs of mechanical parts and assemblies' ) ;
#168 = CARTESIAN_POINT ( 'NONE',  ( -5.960347553007224500, 25.60682934402729700, 13.24909519516581500 ) ) ;
#169 = ADVANCED_BREP_SHAPE_REPRESENTATION ( '110-5509E CaF2 pl-cx 50.8 F75', ( #125, #210 ), #170 ) ;
#170 =( GEOMETRIC_REPRESENTATION_CONTEXT ( 3 ) GLOBAL_UNCERTAINTY_ASSIGNED_CONTEXT ( ( #12 ) ) GLOBAL_UNIT_ASSIGNED_CONTEXT ( ( #106, #82, #5 ) ) REPRESENTATION_CONTEXT ( 'NONE', 'WORKASPACE' ) );
#171 = DIRECTION ( 'NONE',  ( 1.000000000000000000, 0.0000000000000000000, 0.0000000000000000000 ) ) ;
#172 = ORIENTED_EDGE ( 'NONE', *, *, #51, .F. ) ;
#173 = CC_DESIGN_DATE_AND_TIME_ASSIGNMENT ( #94, #213, ( #188 ) ) ;
#174 = APPROVAL_PERSON_ORGANIZATION ( #49, #181, #155 ) ;
#175 = PERSON_AND_ORGANIZATION ( #204, #90 ) ;
#176 = PRODUCT_DEFINITION_SHAPE ( 'NONE', 'NONE',  #87 ) ;
#177 = ORIENTED_EDGE ( 'NONE', *, *, #222, .T. ) ;
#178 = CC_DESIGN_PERSON_AND_ORGANIZATION_ASSIGNMENT ( #231, #189, ( #131 ) ) ;
#179 = DIRECTION ( 'NONE',  ( 1.000000000000000000, 0.0000000000000000000, 0.0000000000000000000 ) ) ;
#180 = CARTESIAN_POINT ( 'NONE',  ( 23.31626530094653700, 11.88085692661697300, -0.5074769447743279200 ) ) ;
#181 = APPROVAL ( #193, 'UNSPECIFIED' ) ;
#182 = CARTESIAN_POINT ( 'NONE',  ( 9.992007221626412800E-016, 4.884981308350691100E-015, 15.90000000000000000 ) ) ;
#183 = CALENDAR_DATE ( 2019, 3, 1 ) ;
#184 = LINE ( 'NONE', #36, #11 ) ;
#185 = DIRECTION ( 'NONE',  ( 1.000000000000000000, 0.0000000000000000000, 0.0000000000000000000 ) ) ;
#186 = CARTESIAN_POINT ( 'NONE',  ( -14.73230336923038300, 25.60682934402729700, 20.81886601436481900 ) ) ;
#187 = PERSON_AND_ORGANIZATION_ROLE ( 'creator' ) ;
#188 = SECURITY_CLASSIFICATION ( '', '', #191 ) ;
#189 = PERSON_AND_ORGANIZATION_ROLE ( 'design_owner' ) ;
#190 = LOCAL_TIME ( 14, 24, 43.00000000000000000, #156 ) ;
#191 = SECURITY_CLASSIFICATION_LEVEL ( 'unclassified' ) ;
#192 = PERSON_AND_ORGANIZATION_ROLE ( 'design_supplier' ) ;
#193 = APPROVAL_STATUS ( 'not_yet_approved' ) ;
#194 = LOCAL_TIME ( 14, 24, 43.00000000000000000, #134 ) ;
#195 = CIRCLE ( 'NONE', #54, 31.37000000000000100 ) ;
#196 = ADVANCED_FACE ( 'NONE', ( #50 ), #35, .T. ) ;
#197 = ORIENTED_EDGE ( 'NONE', *, *, #63, .T. ) ;
#198 = VERTEX_POINT ( 'NONE', #102 ) ;
#199 = CC_DESIGN_APPROVAL ( #181, ( #87 ) ) ;
#200 = DIRECTION ( 'NONE',  ( 1.000000000000000000, 0.0000000000000000000, 0.0000000000000000000 ) ) ;
#201 = ADVANCED_FACE ( 'NONE', ( #141 ), #30, .T. ) ;
#202 = CARTESIAN_POINT ( 'NONE',  ( 5.960347553007222700, -25.60682934402729700, 13.24909519516581100 ) ) ;
#203 = DIRECTION ( 'NONE',  ( -0.0000000000000000000, -0.0000000000000000000, -1.000000000000000000 ) ) ;
#204 = PERSON ( 'UNSPECIFIED', 'UNSPECIFIED', 'UNSPECIFIED', ('UNSPECIFIED'), ('UNSPECIFIED'), ('UNSPECIFIED') ) ;
#205 = CC_DESIGN_APPROVAL ( #56, ( #188 ) ) ;
#206 = DIRECTION ( 'NONE',  ( 0.0000000000000000000, 0.0000000000000000000, 1.000000000000000000 ) ) ;
#207 = CARTESIAN_POINT ( 'NONE',  ( -3.469446951953614200E-015, -11.88085692661696200, -6.147211835799137900 ) ) ;
#208 = ORIENTED_EDGE ( 'NONE', *, *, #100, .F. ) ;
#209 = MECHANICAL_CONTEXT ( 'NONE', #167, 'mechanical' ) ;
#210 = AXIS2_PLACEMENT_3D ( 'NONE', #153, #46, #171 ) ;
#211 = DIRECTION ( 'NONE',  ( 0.0000000000000000000, 0.0000000000000000000, 1.000000000000000000 ) ) ;
#212 = CIRCLE ( 'NONE', #151, 25.39999999999999900 ) ;
#213 = DATE_TIME_ROLE ( 'classification_date' ) ;
#214 = APPROVAL_ROLE ( '' ) ;
#215 = CIRCLE ( 'NONE', #41, 25.39999999999999900 ) ;
#216 = EDGE_LOOP ( 'NONE', ( #52, #72, #217, #138, #44 ) ) ;
#217 = ORIENTED_EDGE ( 'NONE', *, *, #139, .T. ) ;
#218 = CARTESIAN_POINT ( 'NONE',  ( -25.39999999999999900, 7.995584178184967200E-015, 12.96030418502249900 ) ) ;
#219 = ORIENTED_EDGE ( 'NONE', *, *, #63, .F. ) ;
#220 = CARTESIAN_POINT ( 'NONE',  ( 30.50150929468065900, -11.88085692661696200, 9.525112390338641400 ) ) ;
#221 = DIRECTION ( 'NONE',  ( 0.0000000000000000000, 0.0000000000000000000, 1.000000000000000000 ) ) ;
#222 = EDGE_CURVE ( 'NONE', #130, #127, #212, .T. ) ;
#223 = PERSON_AND_ORGANIZATION ( #204, #90 ) ;
#224 = DIRECTION ( 'NONE',  ( 1.000000000000000000, 0.0000000000000000000, 0.0000000000000000000 ) ) ;
#225 = CARTESIAN_POINT ( 'NONE',  ( -11.26181299857543800, -25.60682934402729000, 15.97310090038844300 ) ) ;
#226 =( BOUNDED_SURFACE ( )  B_SPLINE_SURFACE ( 3, 3, ( 
 ( #103, #225, #60, #99 ),
 ( #98, #119, #147, #207 ),
 ( #21, #45, #66, #136 ),
 ( #186, #84, #168, #113 ) ),
 .UNSPECIFIED., .F., .F., .F. ) 
 B_SPLINE_SURFACE_WITH_KNOTS ( ( 4, 4 ),
 ( 4, 4 ),
 ( 0.0000000000000000000, 1.000000000000000000 ),
 ( 0.0000000000000000000, 1.000000000000000000 ),
 .UNSPECIFIED. ) 
 GEOMETRIC_REPRESENTATION_ITEM ( )  RATIONAL_B_SPLINE_SURFACE ( (
 ( 1.000000000000000000, 0.9263038380922848900, 0.9263038380922848900, 1.000000000000000000),
 ( 0.7184338498530271600, 0.6654880325342753500, 0.6654880325342753500, 0.7184338498530271600),
 ( 0.7184338498530271600, 0.6654880325342753500, 0.6654880325342753500, 0.7184338498530271600),
 ( 1.000000000000000000, 0.9263038380922848900, 0.9263038380922848900, 1.000000000000000000) ) ) 
 REPRESENTATION_ITEM ( '' )  SURFACE ( )  );
#227 = LOCAL_TIME ( 14, 24, 43.00000000000000000, #25 ) ;
#228 = APPLICATION_CONTEXT ( 'configuration controlled 3d designs of mechanical parts and assemblies' ) ;
#229 = CC_DESIGN_SECURITY_CLASSIFICATION ( #188, ( #9 ) ) ;
#230 = CC_DESIGN_DATE_AND_TIME_ASSIGNMENT ( #164, #89, ( #87 ) ) ;
#231 = PERSON_AND_ORGANIZATION ( #204, #90 ) ;
#232 = CARTESIAN_POINT ( 'NONE',  ( 0.0000000000000000000, 52.02000000000000300, 15.90000000000000000 ) ) ;
#233 = PLANE ( 'NONE',  #8 ) ;
#234 = CARTESIAN_POINT ( 'NONE',  ( 9.992007221626412800E-016, 4.884981308350691100E-015, 12.96030418502249900 ) ) ;
#235 = CARTESIAN_POINT ( 'NONE',  ( 3.552713678800500100E-015, 25.40000000000000200, 12.96030418502249900 ) ) ;
ENDSEC;
END-ISO-10303-21;
